  0
SECTION
  2
HEADER
  9
$ACADVER
  1
AC1015
  9
$ACADMAINTVER
 70
    13
  9
$DWGCODEPAGE
  3
ANSI_1252
  9
$INSBASE
 10
0.0
 20
0.0
 30
0.0
  9
$EXTMIN
 10
-0.193465000000007
 20
0.186500000000043
 30
0.0
  9
$EXTMAX
 10
71.193465
 20
1172.813499999999
 30
0.0
  9
$LIMMIN
 10
0.0
 20
0.0
  9
$LIMMAX
 10
12.0
 20
9.0
  9
$ORTHOMODE
 70
     0
  9
$REGENMODE
 70
     1
  9
$FILLMODE
 70
     1
  9
$QTEXTMODE
 70
     0
  9
$MIRRTEXT
 70
     1
  9
$LTSCALE
 40
1.0
  9
$ATTMODE
 70
     1
  9
$TEXTSIZE
 40
0.2
  9
$TRACEWID
 40
0.05
  9
$TEXTSTYLE
  7
Standard
  9
$CLAYER
  8
0
  9
$CELTYPE
  6
Continuous
  9
$CECOLOR
 62
   256
  9
$CELTSCALE
 40
1.0
  9
$DISPSILH
 70
     0
  9
$DIMSCALE
 40
1.0
  9
$DIMASZ
 40
0.18
  9
$DIMEXO
 40
0.0625
  9
$DIMDLI
 40
0.38
  9
$DIMRND
 40
0.0
  9
$DIMDLE
 40
0.0
  9
$DIMEXE
 40
0.18
  9
$DIMTP
 40
0.0
  9
$DIMTM
 40
0.0
  9
$DIMTXT
 40
0.18
  9
$DIMCEN
 40
0.09
  9
$DIMTSZ
 40
0.0
  9
$DIMTOL
 70
     0
  9
$DIMLIM
 70
     0
  9
$DIMTIH
 70
     1
  9
$DIMTOH
 70
     1
  9
$DIMSE1
 70
     0
  9
$DIMSE2
 70
     0
  9
$DIMTAD
 70
     0
  9
$DIMZIN
 70
     0
  9
$DIMBLK
  1

  9
$DIMASO
 70
     1
  9
$DIMSHO
 70
     1
  9
$DIMPOST
  1

  9
$DIMAPOST
  1

  9
$DIMALT
 70
     0
  9
$DIMALTD
 70
     2
  9
$DIMALTF
 40
25.4
  9
$DIMLFAC
 40
1.0
  9
$DIMTOFL
 70
     0
  9
$DIMTVP
 40
0.0
  9
$DIMTIX
 70
     0
  9
$DIMSOXD
 70
     0
  9
$DIMSAH
 70
     0
  9
$DIMBLK1
  1

  9
$DIMBLK2
  1

  9
$DIMSTYLE
  2
Standard
  9
$DIMCLRD
 70
     0
  9
$DIMCLRE
 70
     0
  9
$DIMCLRT
 70
     0
  9
$DIMTFAC
 40
1.0
  9
$DIMGAP
 40
0.09
  9
$DIMJUST
 70
     0
  9
$DIMSD1
 70
     0
  9
$DIMSD2
 70
     0
  9
$DIMTOLJ
 70
     1
  9
$DIMTZIN
 70
     0
  9
$DIMALTZ
 70
     0
  9
$DIMALTTZ
 70
     0
  9
$DIMUPT
 70
     0
  9
$DIMDEC
 70
     4
  9
$DIMTDEC
 70
     4
  9
$DIMALTU
 70
     2
  9
$DIMALTTD
 70
     2
  9
$DIMTXSTY
  7
Standard
  9
$DIMAUNIT
 70
     0
  9
$DIMADEC
 70
     0
  9
$DIMALTRND
 40
0.0
  9
$DIMAZIN
 70
     0
  9
$DIMDSEP
 70
    46
  9
$DIMATFIT
 70
     3
  9
$DIMFRAC
 70
     0
  9
$DIMLDRBLK
  1

  9
$DIMLUNIT
 70
     2
  9
$DIMLWD
 70
    -2
  9
$DIMLWE
 70
    -2
  9
$DIMTMOVE
 70
     0
  9
$LUNITS
 70
     2
  9
$LUPREC
 70
     4
  9
$SKETCHINC
 40
0.1
  9
$FILLETRAD
 40
0.0
  9
$AUNITS
 70
     0
  9
$AUPREC
 70
     0
  9
$MENU
  1
.
  9
$ELEVATION
 40
0.0
  9
$PELEVATION
 40
0.0
  9
$THICKNESS
 40
0.0
  9
$LIMCHECK
 70
     0
  9
$CHAMFERA
 40
0.0
  9
$CHAMFERB
 40
0.0
  9
$CHAMFERC
 40
0.0
  9
$CHAMFERD
 40
0.0
  9
$SKPOLY
 70
     0
  9
$TDCREATE
 40
2454762.816786562
  9
$TDUCREATE
 40
2454762.733453228
  9
$TDUPDATE
 40
2454762.821648032
  9
$TDUUPDATE
 40
2454762.738314699
  9
$TDINDWG
 40
0.0033174074
  9
$TDUSRTIMER
 40
0.0033174074
  9
$USRTIMER
 70
     1
  9
$ANGBASE
 50
0.0
  9
$ANGDIR
 70
     0
  9
$PDMODE
 70
     0
  9
$PDSIZE
 40
0.0
  9
$PLINEWID
 40
0.0
  9
$SPLFRAME
 70
     0
  9
$SPLINETYPE
 70
     6
  9
$SPLINESEGS
 70
     8
  9
$HANDSEED
  5
1E3
  9
$SURFTAB1
 70
     6
  9
$SURFTAB2
 70
     6
  9
$SURFTYPE
 70
     6
  9
$SURFU
 70
     6
  9
$SURFV
 70
     6
  9
$UCSBASE
  2

  9
$UCSNAME
  2

  9
$UCSORG
 10
0.0
 20
0.0
 30
0.0
  9
$UCSXDIR
 10
1.0
 20
0.0
 30
0.0
  9
$UCSYDIR
 10
0.0
 20
1.0
 30
0.0
  9
$UCSORTHOREF
  2

  9
$UCSORTHOVIEW
 70
     1
  9
$UCSORGTOP
 10
0.0
 20
0.0
 30
0.0
  9
$UCSORGBOTTOM
 10
0.0
 20
0.0
 30
0.0
  9
$UCSORGLEFT
 10
0.0
 20
0.0
 30
0.0
  9
$UCSORGRIGHT
 10
0.0
 20
0.0
 30
0.0
  9
$UCSORGFRONT
 10
0.0
 20
0.0
 30
0.0
  9
$UCSORGBACK
 10
0.0
 20
0.0
 30
0.0
  9
$PUCSBASE
  2

  9
$PUCSNAME
  2

  9
$PUCSORG
 10
0.0
 20
0.0
 30
0.0
  9
$PUCSXDIR
 10
1.0
 20
0.0
 30
0.0
  9
$PUCSYDIR
 10
0.0
 20
1.0
 30
0.0
  9
$PUCSORTHOREF
  2

  9
$PUCSORTHOVIEW
 70
     0
  9
$PUCSORGTOP
 10
0.0
 20
0.0
 30
0.0
  9
$PUCSORGBOTTOM
 10
0.0
 20
0.0
 30
0.0
  9
$PUCSORGLEFT
 10
0.0
 20
0.0
 30
0.0
  9
$PUCSORGRIGHT
 10
0.0
 20
0.0
 30
0.0
  9
$PUCSORGFRONT
 10
0.0
 20
0.0
 30
0.0
  9
$PUCSORGBACK
 10
0.0
 20
0.0
 30
0.0
  9
$USERI1
 70
     0
  9
$USERI2
 70
     0
  9
$USERI3
 70
     0
  9
$USERI4
 70
     0
  9
$USERI5
 70
     0
  9
$USERR1
 40
0.0
  9
$USERR2
 40
0.0
  9
$USERR3
 40
0.0
  9
$USERR4
 40
0.0
  9
$USERR5
 40
0.0
  9
$WORLDVIEW
 70
     1
  9
$SHADEDGE
 70
     3
  9
$SHADEDIF
 70
    70
  9
$TILEMODE
 70
     1
  9
$MAXACTVP
 70
    64
  9
$PINSBASE
 10
0.0
 20
0.0
 30
0.0
  9
$PLIMCHECK
 70
     0
  9
$PEXTMIN
 10
1.000000000000000E+20
 20
1.000000000000000E+20
 30
1.000000000000000E+20
  9
$PEXTMAX
 10
-1.000000000000000E+20
 20
-1.000000000000000E+20
 30
-1.000000000000000E+20
  9
$PLIMMIN
 10
0.0
 20
0.0
  9
$PLIMMAX
 10
12.0
 20
9.0
  9
$UNITMODE
 70
     0
  9
$VISRETAIN
 70
     1
  9
$PLINEGEN
 70
     0
  9
$PSLTSCALE
 70
     1
  9
$TREEDEPTH
 70
  3020
  9
$CMLSTYLE
  2
Standard
  9
$CMLJUST
 70
     0
  9
$CMLSCALE
 40
1.0
  9
$PROXYGRAPHICS
 70
     1
  9
$MEASUREMENT
 70
     0
  9
$CELWEIGHT
370
    -1
  9
$ENDCAPS
280
     0
  9
$JOINSTYLE
280
     0
  9
$LWDISPLAY
290
     0
  9
$INSUNITS
 70
     0
  9
$HYPERLINKBASE
  1

  9
$STYLESHEET
  1

  9
$XEDIT
290
     1
  9
$CEPSNTYPE
380
     0
  9
$PSTYLEMODE
290
     1
  9
$FINGERPRINTGUID
  2
{2FD3D1BD-4885-45E9-9F56-0DEA05BA7196}
  9
$VERSIONGUID
  2
{7B7B1DC7-2FE9-4560-B347-30143776EA51}
  9
$EXTNAMES
290
     1
  9
$PSVPSCALE
 40
0.0
  9
$OLESTARTUP
290
     0
  0
ENDSEC
  0
SECTION
  2
CLASSES
  0
CLASS
  1
ACDBDICTIONARYWDFLT
  2
AcDbDictionaryWithDefault
  3
AutoCAD 2000
 90
        0
280
     0
281
     0
  0
CLASS
  1
ACDBPLACEHOLDER
  2
AcDbPlaceHolder
  3
AutoCAD 2000
 90
        0
280
     0
281
     0
  0
CLASS
  1
LAYOUT
  2
AcDbLayout
  3
AutoCAD 2000
 90
        0
280
     0
281
     0
  0
CLASS
  1
DICTIONARYVAR
  2
AcDbDictionaryVar
  3
AutoCAD 2000
 90
        0
280
     0
281
     0
  0
ENDSEC
  0
SECTION
  2
TABLES
  0
TABLE
  2
VPORT
  5
8
330
0
100
AcDbSymbolTable
 70
     2
  0
VPORT
  5
1E2
330
8
100
AcDbSymbolTableRecord
100
AcDbViewportTableRecord
  2
*Active
 70
     0
 10
0.0
 20
0.0
 11
1.0
 21
1.0
 12
35.49999999999999
 22
586.5
 13
0.0
 23
0.0
 14
1.0
 24
1.0
 15
0.0
 25
0.0
 16
0.0
 26
0.0
 36
1.0
 17
0.0
 27
0.0
 37
0.0
 40
1181.624138107417
 41
2.078104993597951
 42
50.0
 43
0.0
 44
0.0
 50
0.0
 51
0.0
 71
     0
 72
   100
 73
     1
 74
     3
 75
     0
 76
     0
 77
     0
 78
     0
281
     0
 65
     1
110
0.0
120
0.0
130
0.0
111
1.0
121
0.0
131
0.0
112
0.0
122
1.0
132
0.0
 79
     1
146
0.0
  0
ENDTAB
  0
TABLE
  2
LTYPE
  5
5
330
0
100
AcDbSymbolTable
 70
     1
  0
LTYPE
  5
13
330
5
100
AcDbSymbolTableRecord
100
AcDbLinetypeTableRecord
  2
ByBlock
 70
     0
  3

 72
    65
 73
     0
 40
0.0
  0
LTYPE
  5
14
330
5
100
AcDbSymbolTableRecord
100
AcDbLinetypeTableRecord
  2
ByLayer
 70
     0
  3

 72
    65
 73
     0
 40
0.0
  0
LTYPE
  5
15
330
5
100
AcDbSymbolTableRecord
100
AcDbLinetypeTableRecord
  2
Continuous
 70
     0
  3
Solid line
 72
    65
 73
     0
 40
0.0
  0
ENDTAB
  0
TABLE
  2
LAYER
  5
2
330
0
100
AcDbSymbolTable
 70
     1
  0
LAYER
  5
10
330
2
100
AcDbSymbolTableRecord
100
AcDbLayerTableRecord
  2
0
 70
     0
 62
     7
  6
Continuous
370
    -3
390
F
  0
ENDTAB
  0
TABLE
  2
STYLE
  5
3
330
0
100
AcDbSymbolTable
 70
     1
  0
STYLE
  5
11
330
3
100
AcDbSymbolTableRecord
100
AcDbTextStyleTableRecord
  2
Standard
 70
     0
 40
0.0
 41
1.0
 50
0.0
 71
     0
 42
0.2
  3
txt
  4

  0
ENDTAB
  0
TABLE
  2
VIEW
  5
6
330
0
100
AcDbSymbolTable
 70
     0
  0
ENDTAB
  0
TABLE
  2
UCS
  5
7
330
0
100
AcDbSymbolTable
 70
     0
  0
ENDTAB
  0
TABLE
  2
APPID
  5
9
330
0
100
AcDbSymbolTable
 70
     1
  0
APPID
  5
12
330
9
100
AcDbSymbolTableRecord
100
AcDbRegAppTableRecord
  2
ACAD
 70
     0
  0
ENDTAB
  0
TABLE
  2
DIMSTYLE
  5
A
330
0
100
AcDbSymbolTable
 70
     1
100
AcDbDimStyleTable
 71
     0
  0
DIMSTYLE
105
1D5
330
A
100
AcDbSymbolTableRecord
100
AcDbDimStyleTableRecord
  2
Standard
 70
     0
340
11
  0
ENDTAB
  0
TABLE
  2
BLOCK_RECORD
  5
1
330
0
100
AcDbSymbolTable
 70
     0
  0
BLOCK_RECORD
  5
1E
330
1
100
AcDbSymbolTableRecord
100
AcDbBlockTableRecord
  2
*Model_Space
340
21
  0
BLOCK_RECORD
  5
1A
330
1
100
AcDbSymbolTableRecord
100
AcDbBlockTableRecord
  2
*Paper_Space
340
1D
  0
ENDTAB
  0
ENDSEC
  0
SECTION
  2
BLOCKS
  0
BLOCK
  5
1F
330
1E
100
AcDbEntity
  8
0
100
AcDbBlockBegin
  2
*Model_Space
 70
     0
 10
0.0
 20
0.0
 30
0.0
  3
*Model_Space
  1

  0
ENDBLK
  5
20
330
1E
100
AcDbEntity
  8
0
100
AcDbBlockEnd
  0
BLOCK
  5
1B
330
1A
100
AcDbEntity
 67
     1
  8
0
100
AcDbBlockBegin
  2
*Paper_Space
 70
     0
 10
0.0
 20
0.0
 30
0.0
  3
*Paper_Space
  1

  0
ENDBLK
  5
1C
330
1A
100
AcDbEntity
 67
     1
  8
0
100
AcDbBlockEnd
  0
ENDSEC
  0
SECTION
  2
ENTITIES
  0
LINE
  5
22
330
1E
100
AcDbEntity
  8
0
100
AcDbLine
 10
-0.193465000000007
 20
876.9515
 30
0.0
 11
16.10556499999999
 21
851.7204999999998
 31
0.0
  0
LINE
  5
23
330
1E
100
AcDbEntity
  8
0
100
AcDbLine
 10
-0.193465000000007
 20
876.9515
 30
0.0
 11
0.152944999999993
 21
877.1515000000002
 31
0.0
  0
LINE
  5
24
330
1E
100
AcDbEntity
  8
0
100
AcDbLine
 10
-0.193465000000007
 20
876.9515
 30
0.0
 11
16.10556499999999
 21
851.7204999999998
 31
0.0
  0
LINE
  5
25
330
1E
100
AcDbEntity
  8
0
100
AcDbLine
 10
0.152944999999993
 20
877.1515000000002
 30
0.0
 11
1.105574999999988
 21
877.7015
 31
0.0
  0
LINE
  5
26
330
1E
100
AcDbEntity
  8
0
100
AcDbLine
 10
1.105574999999988
 20
877.7015
 30
0.0
 11
1.75650400548193
 21
878.077313640772
 31
0.0
  0
LINE
  5
27
330
1E
100
AcDbEntity
  8
0
100
AcDbLine
 10
1.105574999999988
 20
877.7015
 30
0.0
 11
1.75650400548193
 21
878.077313640772
 31
0.0
  0
LINE
  5
28
330
1E
100
AcDbEntity
  8
0
100
AcDbLine
 10
1.693464999999988
 20
878.1864999999998
 30
0.0
 11
4.03173499999999
 21
879.5365
 31
0.0
  0
LINE
  5
29
330
1E
100
AcDbEntity
  8
0
100
AcDbLine
 10
1.693464999999988
 20
878.1864999999998
 30
0.0
 11
4.03173499999999
 21
879.5365
 31
0.0
  0
LINE
  5
2A
330
1E
100
AcDbEntity
  8
0
100
AcDbLine
 10
1.693464999999988
 20
878.1864999999998
 30
0.0
 11
24.193465
 21
839.2154999999998
 31
0.0
  0
LINE
  5
2C
330
1E
100
AcDbEntity
  8
0
100
AcDbLine
 10
16.170165
 20
46.8696
 30
0.0
 11
17.47256499999998
 21
42.6827
 31
0.0
  0
LINE
  5
2E
330
1E
100
AcDbEntity
  8
0
100
AcDbLine
 10
15.193465
 20
52.3195
 30
0.0
 11
15.193465
 21
58.2135
 31
0.0
  0
LINE
  5
2F
330
1E
100
AcDbEntity
  8
0
100
AcDbLine
 10
15.193465
 20
52.3195
 30
0.0
 11
15.193465
 21
51.7945
 31
0.0
  0
LINE
  5
30
330
1E
100
AcDbEntity
  8
0
100
AcDbLine
 10
15.193465
 20
51.5845
 30
0.0
 11
16.170165
 21
46.8696
 31
0.0
  0
LINE
  5
31
330
1E
100
AcDbEntity
  8
0
100
AcDbLine
 10
15.193465
 20
51.5845
 30
0.0
 11
15.193465
 21
51.7945
 31
0.0
  0
LINE
  5
32
330
1E
100
AcDbEntity
  8
0
100
AcDbLine
 10
15.193465
 20
58.2135
 30
0.0
 11
15.193465
 21
77.51819999999998
 31
0.0
  0
LINE
  5
33
330
1E
100
AcDbEntity
  8
0
100
AcDbLine
 10
15.193465
 20
77.51819999999998
 30
0.0
 11
15.193465
 21
77.8135
 31
0.0
  0
LINE
  5
35
330
1E
100
AcDbEntity
  8
0
100
AcDbLine
 10
15.193465
 20
77.51819999999998
 30
0.0
 11
16.406765
 21
77.0575
 31
0.0
  0
LINE
  5
36
330
1E
100
AcDbEntity
  8
0
100
AcDbLine
 10
15.193465
 20
77.51819999999998
 30
0.0
 11
15.193465
 21
58.2135
 31
0.0
  0
LINE
  5
38
330
1E
100
AcDbEntity
  8
0
100
AcDbLine
 10
16.406765
 20
77.0575
 30
0.0
 11
18.27346499999998
 21
75.0415
 31
0.0
  0
LINE
  5
39
330
1E
100
AcDbEntity
  8
0
100
AcDbLine
 10
15.193465
 20
77.8135
 30
0.0
 11
19.2025535245901
 21
77.8135
 31
0.0
  0
LINE
  5
3A
330
1E
100
AcDbEntity
  8
0
100
AcDbLine
 10
15.193465
 20
77.8135
 30
0.0
 11
15.193465
 21
77.51819999999998
 31
0.0
  0
LINE
  5
41
330
1E
100
AcDbEntity
  8
0
100
AcDbLine
 10
15.193465
 20
51.7945
 30
0.0
 11
15.193465
 21
51.5845
 31
0.0
  0
LINE
  5
42
330
1E
100
AcDbEntity
  8
0
100
AcDbLine
 10
15.193465
 20
51.7945
 30
0.0
 11
15.193465
 21
52.3195
 31
0.0
  0
LINE
  5
57
330
1E
100
AcDbEntity
  8
0
100
AcDbLine
 10
16.10556499999999
 20
851.7204999999998
 30
0.0
 11
16.45196499999999
 21
851.9204999999997
 31
0.0
  0
LINE
  5
58
330
1E
100
AcDbEntity
  8
0
100
AcDbLine
 10
16.45196499999999
 20
851.9204999999997
 30
0.0
 11
16.75665066936
 21
852.0963929457499
 31
0.0
  0
LINE
  5
5A
330
1E
100
AcDbEntity
  8
0
100
AcDbLine
 10
16.720565
 20
840.5594999999999
 30
0.0
 11
19.34806499999998
 21
843.8084999999999
 31
0.0
  0
LINE
  5
5C
330
1E
100
AcDbEntity
  8
0
100
AcDbLine
 10
15.16266499999999
 20
836.6575
 30
0.0
 11
16.720565
 21
840.5594999999999
 31
0.0
  0
LINE
  5
5D
330
1E
100
AcDbEntity
  8
0
100
AcDbLine
 10
14.560965
 20
832.4994999999999
 30
0.0
 11
15.211965
 21
828.3724999999998
 31
0.0
  0
LINE
  5
5E
330
1E
100
AcDbEntity
  8
0
100
AcDbLine
 10
14.560965
 20
832.4994999999999
 30
0.0
 11
15.16266499999999
 21
836.6575
 31
0.0
  0
LINE
  5
5F
330
1E
100
AcDbEntity
  8
0
100
AcDbLine
 10
15.211965
 20
828.3724999999998
 30
0.0
 11
16.742365
 21
824.5214999999998
 31
0.0
  0
LINE
  5
60
330
1E
100
AcDbEntity
  8
0
100
AcDbLine
 10
4.03173499999999
 20
879.5365
 30
0.0
 11
6.71641499999999
 21
881.0864999999999
 31
0.0
  0
LINE
  5
61
330
1E
100
AcDbEntity
  8
0
100
AcDbLine
 10
12.08576499999999
 20
884.1865
 30
0.0
 11
14.424064998821
 21
885.5364999993188
 31
0.0
  0
LINE
  5
62
330
1E
100
AcDbEntity
  8
0
100
AcDbLine
 10
12.08576499999999
 20
884.1865
 30
0.0
 11
14.424064998821
 21
885.5364999993188
 31
0.0
  0
LINE
  5
63
330
1E
100
AcDbEntity
  8
0
100
AcDbLine
 10
12.605465
 20
884.4864999999998
 30
0.0
 11
15.290065
 21
886.0364999999999
 31
0.0
  0
LINE
  5
64
330
1E
100
AcDbEntity
  8
0
100
AcDbLine
 10
14.424064998821
 20
885.5364999993188
 30
0.0
 11
15.290065
 21
886.0364999999999
 31
0.0
  0
LINE
  5
65
330
1E
100
AcDbEntity
  8
0
100
AcDbLine
 10
9.66086499999999
 20
882.7865
 30
0.0
 11
12.08576499999999
 21
884.1865
 31
0.0
  0
LINE
  5
66
330
1E
100
AcDbEntity
  8
0
100
AcDbLine
 10
9.66086499999999
 20
882.7865
 30
0.0
 11
12.605465
 21
884.4864999999998
 31
0.0
  0
LINE
  5
67
330
1E
100
AcDbEntity
  8
0
100
AcDbLine
 10
15.193465
 20
1131.1085
 30
0.0
 11
15.193465
 21
1130.8135
 31
0.0
  0
LINE
  5
69
330
1E
100
AcDbEntity
  8
0
100
AcDbLine
 10
15.193465
 20
1131.1085
 30
0.0
 11
16.406765
 21
1131.5695
 31
0.0
  0
LINE
  5
6A
330
1E
100
AcDbEntity
  8
0
100
AcDbLine
 10
15.193465
 20
1131.1085
 30
0.0
 11
15.193465
 21
1150.4135
 31
0.0
  0
LINE
  5
6B
330
1E
100
AcDbEntity
  8
0
100
AcDbLine
 10
15.193465
 20
1130.8135
 30
0.0
 11
19.19346499999998
 21
1130.8135
 31
0.0
  0
LINE
  5
6C
330
1E
100
AcDbEntity
  8
0
100
AcDbLine
 10
15.193465
 20
1130.8135
 30
0.0
 11
15.193465
 21
1131.1085
 31
0.0
  0
LINE
  5
6D
330
1E
100
AcDbEntity
  8
0
100
AcDbLine
 10
15.193465
 20
1150.4135
 30
0.0
 11
15.193465
 21
1156.3075
 31
0.0
  0
LINE
  5
6E
330
1E
100
AcDbEntity
  8
0
100
AcDbLine
 10
15.193465
 20
1157.042499999999
 30
0.0
 11
15.193465
 21
1156.832499999999
 31
0.0
  0
LINE
  5
6F
330
1E
100
AcDbEntity
  8
0
100
AcDbLine
 10
15.193465
 20
1157.042499999999
 30
0.0
 11
16.170165
 21
1161.7575
 31
0.0
  0
LINE
  5
70
330
1E
100
AcDbEntity
  8
0
100
AcDbLine
 10
15.193465
 20
1156.3075
 30
0.0
 11
15.193465
 21
1156.832499999999
 31
0.0
  0
LINE
  5
72
330
1E
100
AcDbEntity
  8
0
100
AcDbLine
 10
15.193465
 20
1156.3075
 30
0.0
 11
15.193465
 21
1150.4135
 31
0.0
  0
LINE
  5
74
330
1E
100
AcDbEntity
  8
0
100
AcDbLine
 10
16.406765
 20
1131.5695
 30
0.0
 11
18.27346499999998
 21
1133.5855
 31
0.0
  0
LINE
  5
7A
330
1E
100
AcDbEntity
  8
0
100
AcDbLine
 10
16.170165
 20
1161.7575
 30
0.0
 11
17.47256499999998
 21
1165.9445
 31
0.0
  0
LINE
  5
7E
330
1E
100
AcDbEntity
  8
0
100
AcDbLine
 10
15.193465
 20
1156.832499999999
 30
0.0
 11
15.193465
 21
1157.042499999999
 31
0.0
  0
LINE
  5
81
330
1E
100
AcDbEntity
  8
0
100
AcDbLine
 10
15.193465
 20
1156.832499999999
 30
0.0
 11
15.193465
 21
1156.3075
 31
0.0
  0
LINE
  5
82
330
1E
100
AcDbEntity
  8
0
100
AcDbLine
 10
15.290065
 20
886.0364999999999
 30
0.0
 11
17.62836499999998
 21
887.3864999999998
 31
0.0
  0
LINE
  5
83
330
1E
100
AcDbEntity
  8
0
100
AcDbLine
 10
14.424064998821
 20
885.5364999993188
 30
0.0
 11
15.290065
 21
886.0364999999999
 31
0.0
  0
LINE
  5
84
330
1E
100
AcDbEntity
  8
0
100
AcDbLine
 10
6.71641499999999
 20
881.0864999999999
 30
0.0
 11
9.66086499999999
 21
882.7865
 31
0.0
  0
LINE
  5
85
330
1E
100
AcDbEntity
  8
0
100
AcDbLine
 10
21.379565
 20
36.40229999999998
 30
0.0
 11
22.19346499999999
 21
35.8135
 31
0.0
  0
LINE
  5
87
330
1E
100
AcDbEntity
  8
0
100
AcDbLine
 10
19.20896499999998
 20
39.0191
 30
0.0
 11
21.379565
 21
36.40229999999998
 31
0.0
  0
LINE
  5
90
330
1E
100
AcDbEntity
  8
0
100
AcDbLine
 10
17.47256499999998
 20
42.6827
 30
0.0
 11
19.20896499999998
 21
39.0191
 31
0.0
  0
LINE
  5
95
330
1E
100
AcDbEntity
  8
0
100
AcDbLine
 10
18.27346499999998
 20
75.0415
 30
0.0
 11
19.92236499999998
 21
71.6815
 31
0.0
  0
LINE
  5
99
330
1E
100
AcDbEntity
  8
0
100
AcDbLine
 10
21.16686499999998
 20
67.2295
 30
0.0
 11
21.91346499999999
 21
62.1895
 31
0.0
  0
LINE
  5
9A
330
1E
100
AcDbEntity
  8
0
100
AcDbLine
 10
19.92236499999998
 20
71.6815
 30
0.0
 11
21.16686499999998
 21
67.2295
 31
0.0
  0
LINE
  5
9B
330
1E
100
AcDbEntity
  8
0
100
AcDbLine
 10
21.91346499999999
 20
62.1895
 30
0.0
 11
22.19346499999999
 21
56.8135
 31
0.0
  0
LINE
  5
AC
330
1E
100
AcDbEntity
  8
0
100
AcDbLine
 10
22.19346499999999
 20
46.3975
 30
0.0
 11
22.19346499999999
 21
51.4375
 31
0.0
  0
LINE
  5
AD
330
1E
100
AcDbEntity
  8
0
100
AcDbLine
 10
22.19346499999999
 20
46.3975
 30
0.0
 11
22.19346499999999
 21
41.9455
 31
0.0
  0
LINE
  5
AE
330
1E
100
AcDbEntity
  8
0
100
AcDbLine
 10
22.19346499999999
 20
41.9455
 30
0.0
 11
22.19346499999999
 21
46.3975
 31
0.0
  0
LINE
  5
AF
330
1E
100
AcDbEntity
  8
0
100
AcDbLine
 10
22.19346499999999
 20
41.9455
 30
0.0
 11
22.19346499999999
 21
38.5855
 31
0.0
  0
LINE
  5
B0
330
1E
100
AcDbEntity
  8
0
100
AcDbLine
 10
22.19346499999999
 20
38.5855
 30
0.0
 11
22.19346499999999
 21
41.9455
 31
0.0
  0
LINE
  5
B1
330
1E
100
AcDbEntity
  8
0
100
AcDbLine
 10
22.19346499999999
 20
38.5855
 30
0.0
 11
22.19346499999999
 21
36.5695
 31
0.0
  0
LINE
  5
B2
330
1E
100
AcDbEntity
  8
0
100
AcDbLine
 10
22.19346499999999
 20
36.5695
 30
0.0
 11
22.19346499999999
 21
38.5855
 31
0.0
  0
LINE
  5
B3
330
1E
100
AcDbEntity
  8
0
100
AcDbLine
 10
22.19346499999999
 20
36.5695
 30
0.0
 11
22.19346499999999
 21
35.8135
 31
0.0
  0
LINE
  5
B4
330
1E
100
AcDbEntity
  8
0
100
AcDbLine
 10
22.19346499999999
 20
56.8135
 30
0.0
 11
22.19346499999999
 21
51.4375
 31
0.0
  0
LINE
  5
B5
330
1E
100
AcDbEntity
  8
0
100
AcDbLine
 10
22.19346499999999
 20
51.4375
 30
0.0
 11
22.19346499999999
 21
56.8135
 31
0.0
  0
LINE
  5
B6
330
1E
100
AcDbEntity
  8
0
100
AcDbLine
 10
22.19346499999999
 20
35.8135
 30
0.0
 11
22.19346499999999
 21
36.5695
 31
0.0
  0
LINE
  5
B7
330
1E
100
AcDbEntity
  8
0
100
AcDbLine
 10
22.19346499999999
 20
35.8135
 30
0.0
 11
29.193465
 21
35.8135
 31
0.0
  0
LINE
  5
B8
330
1E
100
AcDbEntity
  8
0
100
AcDbLine
 10
19.2025535245901
 20
77.8135
 30
0.0
 11
19.19346499999998
 21
821.4204235289539
 31
0.0
  0
LINE
  5
B9
330
1E
100
AcDbEntity
  8
0
100
AcDbLine
 10
19.2025535245901
 20
77.8135
 30
0.0
 11
19.19346499999998
 21
821.4204235289539
 31
0.0
  0
LINE
  5
BA
330
1E
100
AcDbEntity
  8
0
100
AcDbLine
 10
29.193465
 20
36.3175
 30
0.0
 11
29.59346499999989
 21
35.8135
 31
0.0
  0
LINE
  5
BB
330
1E
100
AcDbEntity
  8
0
100
AcDbLine
 10
29.193465
 20
56.8135
 30
0.0
 11
29.193465
 21
51.4375
 31
0.0
  0
LINE
  5
BC
330
1E
100
AcDbEntity
  8
0
100
AcDbLine
 10
29.193465
 20
51.4375
 30
0.0
 11
29.193465
 21
46.3975
 31
0.0
  0
LINE
  5
BD
330
1E
100
AcDbEntity
  8
0
100
AcDbLine
 10
29.193465
 20
46.3975
 30
0.0
 11
29.193465
 21
41.9455
 31
0.0
  0
LINE
  5
BE
330
1E
100
AcDbEntity
  8
0
100
AcDbLine
 10
29.193465
 20
41.9455
 30
0.0
 11
29.193465
 21
38.5855
 31
0.0
  0
LINE
  5
BF
330
1E
100
AcDbEntity
  8
0
100
AcDbLine
 10
29.193465
 20
38.5855
 30
0.0
 11
29.193465
 21
36.5695
 31
0.0
  0
LINE
  5
C0
330
1E
100
AcDbEntity
  8
0
100
AcDbLine
 10
29.193465
 20
36.5695
 30
0.0
 11
29.193465
 21
35.8135
 31
0.0
  0
LINE
  5
C1
330
1E
100
AcDbEntity
  8
0
100
AcDbLine
 10
29.193465
 20
62.1895
 30
0.0
 11
29.193465
 21
56.8135
 31
0.0
  0
LINE
  5
C2
330
1E
100
AcDbEntity
  8
0
100
AcDbLine
 10
29.193465
 20
67.2295
 30
0.0
 11
29.193465
 21
62.1895
 31
0.0
  0
LINE
  5
C3
330
1E
100
AcDbEntity
  8
0
100
AcDbLine
 10
29.59346499999989
 20
35.8135
 30
0.0
 11
50.5663712578438
 21
35.8135
 31
0.0
  0
LINE
  5
C4
330
1E
100
AcDbEntity
  8
0
100
AcDbLine
 10
29.593465
 20
36.5695
 30
0.0
 11
29.593465
 21
38.5855
 31
0.0
  0
LINE
  5
C5
330
1E
100
AcDbEntity
  8
0
100
AcDbLine
 10
29.593465
 20
51.4375
 30
0.0
 11
29.593465
 21
46.3975
 31
0.0
  0
LINE
  5
C6
330
1E
100
AcDbEntity
  8
0
100
AcDbLine
 10
29.593465
 20
51.4375
 30
0.0
 11
29.593465
 21
56.8135
 31
0.0
  0
LINE
  5
C7
330
1E
100
AcDbEntity
  8
0
100
AcDbLine
 10
29.593465
 20
46.3975
 30
0.0
 11
29.593465
 21
41.9455
 31
0.0
  0
LINE
  5
C8
330
1E
100
AcDbEntity
  8
0
100
AcDbLine
 10
29.593465
 20
46.3975
 30
0.0
 11
29.593465
 21
51.4375
 31
0.0
  0
LINE
  5
C9
330
1E
100
AcDbEntity
  8
0
100
AcDbLine
 10
29.593465
 20
41.9455
 30
0.0
 11
29.593465
 21
38.5855
 31
0.0
  0
LINE
  5
CA
330
1E
100
AcDbEntity
  8
0
100
AcDbLine
 10
29.593465
 20
41.9455
 30
0.0
 11
29.593465
 21
46.3975
 31
0.0
  0
LINE
  5
CB
330
1E
100
AcDbEntity
  8
0
100
AcDbLine
 10
29.593465
 20
38.5855
 30
0.0
 11
29.593465
 21
36.5695
 31
0.0
  0
LINE
  5
CC
330
1E
100
AcDbEntity
  8
0
100
AcDbLine
 10
29.593465
 20
38.5855
 30
0.0
 11
29.593465
 21
41.9455
 31
0.0
  0
LINE
  5
CD
330
1E
100
AcDbEntity
  8
0
100
AcDbLine
 10
29.59346499999989
 20
35.8135
 30
0.0
 11
29.593465
 21
36.5695
 31
0.0
  0
LINE
  5
CE
330
1E
100
AcDbEntity
  8
0
100
AcDbLine
 10
29.59346499999989
 20
35.8135
 30
0.0
 11
50.5663712578438
 21
35.8135
 31
0.0
  0
LINE
  5
CF
330
1E
100
AcDbEntity
  8
0
100
AcDbLine
 10
29.593465
 20
56.8135
 30
0.0
 11
29.593465
 21
62.1895
 31
0.0
  0
LINE
  5
D0
330
1E
100
AcDbEntity
  8
0
100
AcDbLine
 10
29.593465
 20
56.8135
 30
0.0
 11
29.593465
 21
51.4375
 31
0.0
  0
LINE
  5
D1
330
1E
100
AcDbEntity
  8
0
100
AcDbLine
 10
29.593465
 20
62.1895
 30
0.0
 11
29.593465
 21
56.8135
 31
0.0
  0
LINE
  5
D2
330
1E
100
AcDbEntity
  8
0
100
AcDbLine
 10
29.593465
 20
62.1895
 30
0.0
 11
29.593465
 21
67.2295
 31
0.0
  0
LINE
  5
D3
330
1E
100
AcDbEntity
  8
0
100
AcDbLine
 10
29.593465
 20
67.2295
 30
0.0
 11
29.593465
 21
62.1895
 31
0.0
  0
LINE
  5
D4
330
1E
100
AcDbEntity
  8
0
100
AcDbLine
 10
29.593465
 20
67.2295
 30
0.0
 11
29.593465
 21
71.6815
 31
0.0
  0
LINE
  5
D5
330
1E
100
AcDbEntity
  8
0
100
AcDbLine
 10
29.593465
 20
71.6815
 30
0.0
 11
29.593465
 21
67.2295
 31
0.0
  0
LINE
  5
D6
330
1E
100
AcDbEntity
  8
0
100
AcDbLine
 10
29.593465
 20
71.6815
 30
0.0
 11
29.593465
 21
77.81350000000005
 31
0.0
  0
LINE
  5
D7
330
1E
100
AcDbEntity
  8
0
100
AcDbLine
 10
29.593465
 20
77.81350000000005
 30
0.0
 11
29.593465
 21
71.6815
 31
0.0
  0
LINE
  5
D8
330
1E
100
AcDbEntity
  8
0
100
AcDbLine
 10
29.193465
 20
71.6815
 30
0.0
 11
29.193465
 21
67.2295
 31
0.0
  0
LINE
  5
D9
330
1E
100
AcDbEntity
  8
0
100
AcDbLine
 10
29.193465
 20
77.81350000000005
 30
0.0
 11
29.193465
 21
71.6815
 31
0.0
  0
LINE
  5
DA
330
1E
100
AcDbEntity
  8
0
100
AcDbLine
 10
59.50716499999989
 20
0.186500000000043
 30
0.0
 11
62.41316499999999
 21
0.6955000000000571
 31
0.0
  0
LINE
  5
DB
330
1E
100
AcDbEntity
  8
0
100
AcDbLine
 10
64.80516499999989
 20
1.64650000000005
 30
0.0
 11
66.23416499999989
 21
3.019500000000069
 31
0.0
  0
LINE
  5
DC
330
1E
100
AcDbEntity
  8
0
100
AcDbLine
 10
62.41316499999999
 20
0.6955000000000571
 30
0.0
 11
64.80516499999989
 21
1.64650000000005
 31
0.0
  0
LINE
  5
DD
330
1E
100
AcDbEntity
  8
0
100
AcDbLine
 10
56.364165
 20
0.315500000000034
 30
0.0
 11
59.50716499999989
 21
0.186500000000043
 31
0.0
  0
LINE
  5
DE
330
1E
100
AcDbEntity
  8
0
100
AcDbLine
 10
53.56516499999989
 20
1.018500000000069
 30
0.0
 11
56.364165
 21
0.315500000000034
 31
0.0
  0
LINE
  5
DF
330
1E
100
AcDbEntity
  8
0
100
AcDbLine
 10
65.46716500000001
 20
5.98950000000004
 30
0.0
 11
66.49716499999989
 21
4.561500000000039
 31
0.0
  0
LINE
  5
E0
330
1E
100
AcDbEntity
  8
0
100
AcDbLine
 10
63.53116499999989
 20
7.165500000000058
 30
0.0
 11
65.46716500000001
 21
5.98950000000004
 31
0.0
  0
LINE
  5
E1
330
1E
100
AcDbEntity
  8
0
100
AcDbLine
 10
60.737165
 20
7.869500000000058
 30
0.0
 11
63.53116499999989
 21
7.165500000000058
 31
0.0
  0
LINE
  5
E2
330
1E
100
AcDbEntity
  8
0
100
AcDbLine
 10
57.594165
 20
8.000500000000059
 30
0.0
 11
60.737165
 21
7.869500000000058
 31
0.0
  0
LINE
  5
E3
330
1E
100
AcDbEntity
  8
0
100
AcDbLine
 10
54.684165
 20
7.49550000000004
 30
0.0
 11
57.594165
 21
8.000500000000059
 31
0.0
  0
LINE
  5
E4
330
1E
100
AcDbEntity
  8
0
100
AcDbLine
 10
52.289165
 20
6.54250000000007
 30
0.0
 11
54.684165
 21
7.49550000000004
 31
0.0
  0
LINE
  5
E5
330
1E
100
AcDbEntity
  8
0
100
AcDbLine
 10
50.856165
 20
5.16950000000008
 30
0.0
 11
52.289165
 21
6.54250000000007
 31
0.0
  0
LINE
  5
E6
330
1E
100
AcDbEntity
  8
0
100
AcDbLine
 10
66.23416499999989
 20
3.019500000000069
 30
0.0
 11
66.49716499999989
 21
4.561500000000039
 31
0.0
  0
LINE
  5
E7
330
1E
100
AcDbEntity
  8
0
100
AcDbLine
 10
51.625165
 20
2.19450000000008
 30
0.0
 11
53.56516499999989
 21
1.018500000000069
 31
0.0
  0
LINE
  5
E8
330
1E
100
AcDbEntity
  8
0
100
AcDbLine
 10
50.5911649999999
 20
3.62450000000006
 30
0.0
 11
51.625165
 21
2.19450000000008
 31
0.0
  0
LINE
  5
E9
330
1E
100
AcDbEntity
  8
0
100
AcDbLine
 10
50.5911649999999
 20
3.62450000000006
 30
0.0
 11
50.856165
 21
5.16950000000008
 31
0.0
  0
LINE
  5
EA
330
1E
100
AcDbEntity
  8
0
100
AcDbLine
 10
66.4786887364004
 20
35.8135
 30
0.0
 11
71.193465
 21
35.8135
 31
0.0
  0
LINE
  5
EB
330
1E
100
AcDbEntity
  8
0
100
AcDbLine
 10
71.193465
 20
35.8135
 30
0.0
 11
71.193465
 21
36.5695
 31
0.0
  0
LINE
  5
EC
330
1E
100
AcDbEntity
  8
0
100
AcDbLine
 10
71.193465
 20
51.4375
 30
0.0
 11
71.193465
 21
46.3975
 31
0.0
  0
LINE
  5
ED
330
1E
100
AcDbEntity
  8
0
100
AcDbLine
 10
71.193465
 20
51.4375
 30
0.0
 11
71.193465
 21
56.8135
 31
0.0
  0
LINE
  5
EE
330
1E
100
AcDbEntity
  8
0
100
AcDbLine
 10
71.193465
 20
46.3975
 30
0.0
 11
71.193465
 21
41.9455
 31
0.0
  0
LINE
  5
EF
330
1E
100
AcDbEntity
  8
0
100
AcDbLine
 10
71.193465
 20
46.3975
 30
0.0
 11
71.193465
 21
51.4375
 31
0.0
  0
LINE
  5
F0
330
1E
100
AcDbEntity
  8
0
100
AcDbLine
 10
71.193465
 20
41.9455
 30
0.0
 11
71.193465
 21
38.5855
 31
0.0
  0
LINE
  5
F1
330
1E
100
AcDbEntity
  8
0
100
AcDbLine
 10
71.193465
 20
41.9455
 30
0.0
 11
71.193465
 21
46.3975
 31
0.0
  0
LINE
  5
F2
330
1E
100
AcDbEntity
  8
0
100
AcDbLine
 10
71.193465
 20
38.5855
 30
0.0
 11
71.193465
 21
36.5695
 31
0.0
  0
LINE
  5
F3
330
1E
100
AcDbEntity
  8
0
100
AcDbLine
 10
71.193465
 20
38.5855
 30
0.0
 11
71.193465
 21
41.9455
 31
0.0
  0
LINE
  5
F4
330
1E
100
AcDbEntity
  8
0
100
AcDbLine
 10
71.193465
 20
36.5695
 30
0.0
 11
71.193465
 21
35.8135
 31
0.0
  0
LINE
  5
F5
330
1E
100
AcDbEntity
  8
0
100
AcDbLine
 10
71.193465
 20
36.5695
 30
0.0
 11
71.193465
 21
38.5855
 31
0.0
  0
LINE
  5
F6
330
1E
100
AcDbEntity
  8
0
100
AcDbLine
 10
71.193465
 20
56.8135
 30
0.0
 11
71.193465
 21
62.1895
 31
0.0
  0
LINE
  5
F7
330
1E
100
AcDbEntity
  8
0
100
AcDbLine
 10
71.193465
 20
56.8135
 30
0.0
 11
71.193465
 21
51.4375
 31
0.0
  0
LINE
  5
F8
330
1E
100
AcDbEntity
  8
0
100
AcDbLine
 10
71.193465
 20
62.1895
 30
0.0
 11
71.193465
 21
56.8135
 31
0.0
  0
LINE
  5
F9
330
1E
100
AcDbEntity
  8
0
100
AcDbLine
 10
71.193465
 20
62.1895
 30
0.0
 11
71.193465
 21
67.2295
 31
0.0
  0
LINE
  5
FA
330
1E
100
AcDbEntity
  8
0
100
AcDbLine
 10
71.193465
 20
67.2295
 30
0.0
 11
71.193465
 21
62.1895
 31
0.0
  0
LINE
  5
FB
330
1E
100
AcDbEntity
  8
0
100
AcDbLine
 10
71.193465
 20
67.2295
 30
0.0
 11
71.193465
 21
71.6815
 31
0.0
  0
LINE
  5
FC
330
1E
100
AcDbEntity
  8
0
100
AcDbLine
 10
71.193465
 20
71.6815
 30
0.0
 11
71.193465
 21
67.2295
 31
0.0
  0
LINE
  5
FD
330
1E
100
AcDbEntity
  8
0
100
AcDbLine
 10
71.193465
 20
71.6815
 30
0.0
 11
71.193465
 21
75.0415
 31
0.0
  0
LINE
  5
FE
330
1E
100
AcDbEntity
  8
0
100
AcDbLine
 10
71.193465
 20
75.0415
 30
0.0
 11
71.193465
 21
71.6815
 31
0.0
  0
LINE
  5
FF
330
1E
100
AcDbEntity
  8
0
100
AcDbLine
 10
71.193465
 20
75.0415
 30
0.0
 11
71.193465
 21
77.0575
 31
0.0
  0
LINE
  5
100
330
1E
100
AcDbEntity
  8
0
100
AcDbLine
 10
66.45385822727511
 20
77.8135
 30
0.0
 11
71.193465
 21
77.8135
 31
0.0
  0
LINE
  5
101
330
1E
100
AcDbEntity
  8
0
100
AcDbLine
 10
71.193465
 20
77.0575
 30
0.0
 11
71.193465
 21
75.0415
 31
0.0
  0
LINE
  5
102
330
1E
100
AcDbEntity
  8
0
100
AcDbLine
 10
71.193465
 20
77.0575
 30
0.0
 11
71.193465
 21
77.8135
 31
0.0
  0
LINE
  5
103
330
1E
100
AcDbEntity
  8
0
100
AcDbLine
 10
71.193465
 20
77.8135
 30
0.0
 11
71.193465
 21
77.0575
 31
0.0
  0
LINE
  5
104
330
1E
100
AcDbEntity
  8
0
100
AcDbLine
 10
40.890165
 20
783.0344999999998
 30
0.0
 11
45.48916499999999
 21
758.8274999999998
 31
0.0
  0
LINE
  5
105
330
1E
100
AcDbEntity
  8
0
100
AcDbLine
 10
34.690165
 20
807.4315
 30
0.0
 11
40.890165
 21
783.0344999999998
 31
0.0
  0
LINE
  5
106
330
1E
100
AcDbEntity
  8
0
100
AcDbLine
 10
50.189165
 20
705.5295
 30
0.0
 11
50.5911649999999
 21
3.624500000000078
 31
0.0
  0
LINE
  5
107
330
1E
100
AcDbEntity
  8
0
100
AcDbLine
 10
50.189165
 20
705.5295
 30
0.0
 11
50.5911649999999
 21
3.624500000000078
 31
0.0
  0
LINE
  5
108
330
1E
100
AcDbEntity
  8
0
100
AcDbLine
 10
48.388165
 20
737.1304999999998
 30
0.0
 11
50.189165
 21
705.5295
 31
0.0
  0
LINE
  5
109
330
1E
100
AcDbEntity
  8
0
100
AcDbLine
 10
45.48916499999999
 20
758.8274999999998
 30
0.0
 11
48.388165
 21
737.1304999999998
 31
0.0
  0
LINE
  5
10A
330
1E
100
AcDbEntity
  8
0
100
AcDbLine
 10
66.189165
 20
705.5335
 30
0.0
 11
66.49716499999989
 21
4.561500000000039
 31
0.0
  0
LINE
  5
10B
330
1E
100
AcDbEntity
  8
0
100
AcDbLine
 10
66.189165
 20
705.5335
 30
0.0
 11
66.49716499999989
 21
4.561500000000039
 31
0.0
  0
LINE
  5
10C
330
1E
100
AcDbEntity
  8
0
100
AcDbLine
 10
64.189165
 20
739.9344999999998
 30
0.0
 11
66.189165
 21
705.5335
 31
0.0
  0
LINE
  5
10D
330
1E
100
AcDbEntity
  8
0
100
AcDbLine
 10
60.489165
 20
764.3324999999999
 30
0.0
 11
64.189165
 21
739.9344999999998
 31
0.0
  0
LINE
  5
10E
330
1E
100
AcDbEntity
  8
0
100
AcDbLine
 10
55.389165
 20
789.7295
 30
0.0
 11
60.489165
 21
764.3324999999999
 31
0.0
  0
LINE
  5
10F
330
1E
100
AcDbEntity
  8
0
100
AcDbLine
 10
48.589165
 20
815.4374999999999
 30
0.0
 11
55.389165
 21
789.7295
 31
0.0
  0
LINE
  5
110
330
1E
100
AcDbEntity
  8
0
100
AcDbLine
 10
41.19346499999997
 20
77.81350000000009
 30
0.0
 11
41.193465
 21
781.4380696673191
 31
0.0
  0
LINE
  5
111
330
1E
100
AcDbEntity
  8
0
100
AcDbLine
 10
41.19346499999997
 20
77.81350000000009
 30
0.0
 11
41.193465
 21
781.4380696673191
 31
0.0
  0
LINE
  5
112
330
1E
100
AcDbEntity
  8
0
100
AcDbLine
 10
41.193465
 20
77.8135
 30
0.0
 11
50.53402054267539
 21
77.8135
 31
0.0
  0
LINE
  5
113
330
1E
100
AcDbEntity
  8
0
100
AcDbLine
 10
30.620565
 20
816.4835
 30
0.0
 11
31.50445996275769
 21
816.6229102049078
 31
0.0
  0
LINE
  5
114
330
1E
100
AcDbEntity
  8
0
100
AcDbLine
 10
26.462665
 20
817.0854999999999
 30
0.0
 11
30.620565
 21
816.4835
 31
0.0
  0
LINE
  5
115
330
1E
100
AcDbEntity
  8
0
100
AcDbLine
 10
22.56096499999999
 20
818.6434999999999
 30
0.0
 11
26.462665
 21
817.0854999999999
 31
0.0
  0
LINE
  5
11F
330
1E
100
AcDbEntity
  8
0
100
AcDbLine
 10
19.299961502795
 20
847.6912655462029
 30
0.0
 11
26.789165
 21
830.2274999999999
 31
0.0
  0
LINE
  5
124
330
1E
100
AcDbEntity
  8
0
100
AcDbLine
 10
19.34806499999998
 20
843.8084999999999
 30
0.0
 11
20.5557567372877
 21
844.7629282994709
 31
0.0
  0
LINE
  5
125
330
1E
100
AcDbEntity
  8
0
100
AcDbLine
 10
19.19346499999998
 20
888.2900877274979
 30
0.0
 11
19.19346499999998
 21
1130.939928571428
 31
0.0
  0
LINE
  5
126
330
1E
100
AcDbEntity
  8
0
100
AcDbLine
 10
17.888165
 20
887.5365
 30
0.0
 11
18.5377150000448
 21
887.9115000000259
 31
0.0
  0
LINE
  5
127
330
1E
100
AcDbEntity
  8
0
100
AcDbLine
 10
17.888165
 20
887.5365
 30
0.0
 11
18.5377150000448
 21
887.9115000000259
 31
0.0
  0
LINE
  5
128
330
1E
100
AcDbEntity
  8
0
100
AcDbLine
 10
17.62836499999998
 20
887.3864999999998
 30
0.0
 11
19.44706499999998
 21
888.4365
 31
0.0
  0
LINE
  5
129
330
1E
100
AcDbEntity
  8
0
100
AcDbLine
 10
17.6283649975793
 20
887.3864999986031
 30
0.0
 11
17.888165
 21
887.5365
 31
0.0
  0
LINE
  5
12A
330
1E
100
AcDbEntity
  8
0
100
AcDbLine
 10
19.44706499999998
 20
888.4365
 30
0.0
 11
20.486265
 21
889.0365
 31
0.0
  0
LINE
  5
12B
330
1E
100
AcDbEntity
  8
0
100
AcDbLine
 10
25.40596499999999
 20
839.9154999999998
 30
0.0
 11
26.5317649991754
 21
840.565499999524
 31
0.0
  0
LINE
  5
12C
330
1E
100
AcDbEntity
  8
0
100
AcDbLine
 10
24.193465
 20
839.2154999999998
 30
0.0
 11
26.531765
 21
840.5655000000001
 31
0.0
  0
LINE
  5
12D
330
1E
100
AcDbEntity
  8
0
100
AcDbLine
 10
24.193465
 20
839.2154999999998
 30
0.0
 11
25.40596499999999
 21
839.9154999999998
 31
0.0
  0
LINE
  5
12E
330
1E
100
AcDbEntity
  8
0
100
AcDbLine
 10
26.789165
 20
830.2274999999999
 30
0.0
 11
34.690165
 21
807.4315
 31
0.0
  0
LINE
  5
12F
330
1E
100
AcDbEntity
  8
0
100
AcDbLine
 10
26.531765
 20
840.5655000000001
 30
0.0
 11
29.216465
 21
842.1154999999998
 31
0.0
  0
LINE
  5
131
330
1E
100
AcDbEntity
  8
0
100
AcDbLine
 10
36.7209756557373
 20
846.4482428728279
 30
0.0
 11
40.190165
 21
838.9234999999999
 31
0.0
  0
LINE
  5
133
330
1E
100
AcDbEntity
  8
0
100
AcDbLine
 10
32.160965
 20
843.8155
 30
0.0
 11
35.105465
 21
845.5154999999999
 31
0.0
  0
LINE
  5
134
330
1E
100
AcDbEntity
  8
0
100
AcDbLine
 10
29.216465
 20
842.1154999999998
 30
0.0
 11
32.160965
 21
843.8155
 31
0.0
  0
LINE
  5
135
330
1E
100
AcDbEntity
  8
0
100
AcDbLine
 10
20.486265
 20
889.0365
 30
0.0
 11
20.919265
 21
889.2865
 31
0.0
  0
LINE
  5
136
330
1E
100
AcDbEntity
  8
0
100
AcDbLine
 10
19.92236499999998
 20
1136.9455
 30
0.0
 11
21.16686499999998
 21
1141.3975
 31
0.0
  0
LINE
  5
137
330
1E
100
AcDbEntity
  8
0
100
AcDbLine
 10
18.27346499999998
 20
1133.5855
 30
0.0
 11
19.92236499999998
 21
1136.9455
 31
0.0
  0
LINE
  5
138
330
1E
100
AcDbEntity
  8
0
100
AcDbLine
 10
21.91346499999999
 20
1146.437499999999
 30
0.0
 11
22.19346499999999
 21
1151.8135
 31
0.0
  0
LINE
  5
139
330
1E
100
AcDbEntity
  8
0
100
AcDbLine
 10
21.16686499999998
 20
1141.3975
 30
0.0
 11
21.91346499999999
 21
1146.437499999999
 31
0.0
  0
LINE
  5
13A
330
1E
100
AcDbEntity
  8
0
100
AcDbLine
 10
22.19346499999999
 20
1151.8135
 30
0.0
 11
22.19346499999999
 21
1157.189499999999
 31
0.0
  0
LINE
  5
13F
330
1E
100
AcDbEntity
  8
0
100
AcDbLine
 10
17.47256499999998
 20
1165.9445
 30
0.0
 11
19.20896499999998
 21
1169.6075
 31
0.0
  0
LINE
  5
157
330
1E
100
AcDbEntity
  8
0
100
AcDbLine
 10
22.19346499999999
 20
1157.189499999999
 30
0.0
 11
22.19346499999999
 21
1151.8135
 31
0.0
  0
LINE
  5
158
330
1E
100
AcDbEntity
  8
0
100
AcDbLine
 10
22.19346499999999
 20
1157.189499999999
 30
0.0
 11
22.19346499999999
 21
1162.2295
 31
0.0
  0
LINE
  5
159
330
1E
100
AcDbEntity
  8
0
100
AcDbLine
 10
22.19346499999999
 20
1162.2295
 30
0.0
 11
22.19346499999999
 21
1157.189499999999
 31
0.0
  0
LINE
  5
15A
330
1E
100
AcDbEntity
  8
0
100
AcDbLine
 10
22.19346499999999
 20
1162.2295
 30
0.0
 11
22.19346499999999
 21
1166.6815
 31
0.0
  0
LINE
  5
15C
330
1E
100
AcDbEntity
  8
0
100
AcDbLine
 10
19.20896499999998
 20
1169.6075
 30
0.0
 11
21.379565
 21
1172.2245
 31
0.0
  0
LINE
  5
161
330
1E
100
AcDbEntity
  8
0
100
AcDbLine
 10
22.19346499999999
 20
1166.6815
 30
0.0
 11
22.19346499999999
 21
1162.2295
 31
0.0
  0
LINE
  5
162
330
1E
100
AcDbEntity
  8
0
100
AcDbLine
 10
22.19346499999999
 20
1166.6815
 30
0.0
 11
22.19346499999999
 21
1170.0415
 31
0.0
  0
LINE
  5
163
330
1E
100
AcDbEntity
  8
0
100
AcDbLine
 10
22.19346499999999
 20
1170.0415
 30
0.0
 11
22.19346499999999
 21
1166.6815
 31
0.0
  0
LINE
  5
164
330
1E
100
AcDbEntity
  8
0
100
AcDbLine
 10
22.19346499999999
 20
1170.0415
 30
0.0
 11
22.19346499999999
 21
1172.057499999999
 31
0.0
  0
LINE
  5
165
330
1E
100
AcDbEntity
  8
0
100
AcDbLine
 10
21.379565
 20
1172.2245
 30
0.0
 11
22.19346499999999
 21
1172.813499999999
 31
0.0
  0
LINE
  5
166
330
1E
100
AcDbEntity
  8
0
100
AcDbLine
 10
22.19346499999999
 20
1172.057499999999
 30
0.0
 11
22.19346499999999
 21
1170.0415
 31
0.0
  0
LINE
  5
167
330
1E
100
AcDbEntity
  8
0
100
AcDbLine
 10
22.19346499999999
 20
1172.057499999999
 30
0.0
 11
22.19346499999999
 21
1172.813499999999
 31
0.0
  0
LINE
  5
168
330
1E
100
AcDbEntity
  8
0
100
AcDbLine
 10
29.193465
 20
1151.8135
 30
0.0
 11
29.193465
 21
1157.189499999999
 31
0.0
  0
LINE
  5
169
330
1E
100
AcDbEntity
  8
0
100
AcDbLine
 10
29.193465
 20
1157.189499999999
 30
0.0
 11
29.193465
 21
1162.2295
 31
0.0
  0
LINE
  5
16A
330
1E
100
AcDbEntity
  8
0
100
AcDbLine
 10
29.193465
 20
1162.2295
 30
0.0
 11
29.193465
 21
1166.6815
 31
0.0
  0
LINE
  5
16B
330
1E
100
AcDbEntity
  8
0
100
AcDbLine
 10
29.193465
 20
1166.6815
 30
0.0
 11
29.193465
 21
1170.0415
 31
0.0
  0
LINE
  5
16C
330
1E
100
AcDbEntity
  8
0
100
AcDbLine
 10
29.193465
 20
1166.6815
 30
0.0
 11
29.193465
 21
1169.537499999999
 31
0.0
  0
LINE
  5
16D
330
1E
100
AcDbEntity
  8
0
100
AcDbLine
 10
22.19346499999999
 20
1172.813499999999
 30
0.0
 11
22.19346499999999
 21
1172.057499999999
 31
0.0
  0
LINE
  5
16E
330
1E
100
AcDbEntity
  8
0
100
AcDbLine
 10
22.19346499999999
 20
1172.813499999999
 30
0.0
 11
29.193465
 21
1172.813499999999
 31
0.0
  0
LINE
  5
16F
330
1E
100
AcDbEntity
  8
0
100
AcDbLine
 10
29.193465
 20
1146.437499999999
 30
0.0
 11
29.193465
 21
1151.8135
 31
0.0
  0
LINE
  5
170
330
1E
100
AcDbEntity
  8
0
100
AcDbLine
 10
29.193465
 20
1141.3975
 30
0.0
 11
29.193465
 21
1146.437499999999
 31
0.0
  0
LINE
  5
171
330
1E
100
AcDbEntity
  8
0
100
AcDbLine
 10
29.193465
 20
1136.9455
 30
0.0
 11
29.193465
 21
1141.3975
 31
0.0
  0
LINE
  5
172
330
1E
100
AcDbEntity
  8
0
100
AcDbLine
 10
29.193465
 20
1169.537499999999
 30
0.0
 11
29.193465
 21
1170.0415
 31
0.0
  0
LINE
  5
173
330
1E
100
AcDbEntity
  8
0
100
AcDbLine
 10
29.593465
 20
1157.189499999999
 30
0.0
 11
29.593465
 21
1162.2295
 31
0.0
  0
LINE
  5
174
330
1E
100
AcDbEntity
  8
0
100
AcDbLine
 10
29.593465
 20
1157.189499999999
 30
0.0
 11
29.593465
 21
1151.8135
 31
0.0
  0
LINE
  5
175
330
1E
100
AcDbEntity
  8
0
100
AcDbLine
 10
29.593465
 20
1162.2295
 30
0.0
 11
29.593465
 21
1166.6815
 31
0.0
  0
LINE
  5
176
330
1E
100
AcDbEntity
  8
0
100
AcDbLine
 10
29.593465
 20
1162.2295
 30
0.0
 11
29.593465
 21
1157.189499999999
 31
0.0
  0
LINE
  5
177
330
1E
100
AcDbEntity
  8
0
100
AcDbLine
 10
29.593465
 20
1166.6815
 30
0.0
 11
29.593465
 21
1170.0415
 31
0.0
  0
LINE
  5
178
330
1E
100
AcDbEntity
  8
0
100
AcDbLine
 10
29.593465
 20
1166.6815
 30
0.0
 11
29.593465
 21
1162.2295
 31
0.0
  0
LINE
  5
179
330
1E
100
AcDbEntity
  8
0
100
AcDbLine
 10
29.593465
 20
1170.0415
 30
0.0
 11
29.593465
 21
1172.057499999999
 31
0.0
  0
LINE
  5
17A
330
1E
100
AcDbEntity
  8
0
100
AcDbLine
 10
29.593465
 20
1170.0415
 30
0.0
 11
29.593465
 21
1166.6815
 31
0.0
  0
LINE
  5
17B
330
1E
100
AcDbEntity
  8
0
100
AcDbLine
 10
29.593465
 20
1172.057499999999
 30
0.0
 11
29.593465
 21
1172.813499999999
 31
0.0
  0
LINE
  5
17C
330
1E
100
AcDbEntity
  8
0
100
AcDbLine
 10
29.593465
 20
1172.057499999999
 30
0.0
 11
29.593465
 21
1170.0415
 31
0.0
  0
LINE
  5
17D
330
1E
100
AcDbEntity
  8
0
100
AcDbLine
 10
29.593465
 20
1151.8135
 30
0.0
 11
29.593465
 21
1146.437499999999
 31
0.0
  0
LINE
  5
17E
330
1E
100
AcDbEntity
  8
0
100
AcDbLine
 10
29.593465
 20
1151.8135
 30
0.0
 11
29.593465
 21
1157.189499999999
 31
0.0
  0
LINE
  5
17F
330
1E
100
AcDbEntity
  8
0
100
AcDbLine
 10
29.593465
 20
1146.437499999999
 30
0.0
 11
29.593465
 21
1151.8135
 31
0.0
  0
LINE
  5
180
330
1E
100
AcDbEntity
  8
0
100
AcDbLine
 10
29.593465
 20
1146.437499999999
 30
0.0
 11
29.593465
 21
1141.3975
 31
0.0
  0
LINE
  5
181
330
1E
100
AcDbEntity
  8
0
100
AcDbLine
 10
29.593465
 20
1141.3975
 30
0.0
 11
29.593465
 21
1146.437499999999
 31
0.0
  0
LINE
  5
182
330
1E
100
AcDbEntity
  8
0
100
AcDbLine
 10
29.593465
 20
1141.3975
 30
0.0
 11
29.593465
 21
1136.9455
 31
0.0
  0
LINE
  5
183
330
1E
100
AcDbEntity
  8
0
100
AcDbLine
 10
29.593465
 20
1136.9455
 30
0.0
 11
29.593465
 21
1141.3975
 31
0.0
  0
LINE
  5
184
330
1E
100
AcDbEntity
  8
0
100
AcDbLine
 10
29.593465
 20
1136.9455
 30
0.0
 11
29.593465
 21
1130.8135
 31
0.0
  0
LINE
  5
185
330
1E
100
AcDbEntity
  8
0
100
AcDbLine
 10
29.593465
 20
1130.8135
 30
0.0
 11
29.593465
 21
1136.9455
 31
0.0
  0
LINE
  5
186
330
1E
100
AcDbEntity
  8
0
100
AcDbLine
 10
29.193465
 20
1170.0415
 30
0.0
 11
29.193465
 21
1172.057499999999
 31
0.0
  0
LINE
  5
187
330
1E
100
AcDbEntity
  8
0
100
AcDbLine
 10
29.193465
 20
1170.0415
 30
0.0
 11
29.193465
 21
1169.537499999999
 31
0.0
  0
LINE
  5
188
330
1E
100
AcDbEntity
  8
0
100
AcDbLine
 10
29.193465
 20
1172.309499999999
 30
0.0
 11
29.593465
 21
1172.813499999999
 31
0.0
  0
LINE
  5
189
330
1E
100
AcDbEntity
  8
0
100
AcDbLine
 10
29.593465
 20
1172.813499999999
 30
0.0
 11
71.193465
 21
1172.813499999999
 31
0.0
  0
LINE
  5
18A
330
1E
100
AcDbEntity
  8
0
100
AcDbLine
 10
29.593465
 20
1172.813499999999
 30
0.0
 11
29.593465
 21
1172.057499999999
 31
0.0
  0
LINE
  5
18B
330
1E
100
AcDbEntity
  8
0
100
AcDbLine
 10
29.193465
 20
1172.057499999999
 30
0.0
 11
29.193465
 21
1172.813499999999
 31
0.0
  0
LINE
  5
18C
330
1E
100
AcDbEntity
  8
0
100
AcDbLine
 10
29.193465
 20
1130.8135
 30
0.0
 11
29.193465
 21
1136.9455
 31
0.0
  0
LINE
  5
18D
330
1E
100
AcDbEntity
  8
0
100
AcDbLine
 10
20.919265
 20
889.2865
 30
0.0
 11
43.419265
 21
850.3155000000001
 31
0.0
  0
LINE
  5
18E
330
1E
100
AcDbEntity
  8
0
100
AcDbLine
 10
40.190165
 20
838.9234999999999
 30
0.0
 11
48.589165
 21
815.4374999999999
 31
0.0
  0
LINE
  5
18F
330
1E
100
AcDbEntity
  8
0
100
AcDbLine
 10
41.193465
 20
844.332101939058
 30
0.0
 11
41.193465
 21
849.0304180201679
 31
0.0
  0
LINE
  5
199
330
1E
100
AcDbEntity
  8
0
100
AcDbLine
 10
44.95252256717278
 20
825.6065896746489
 30
0.0
 11
46.020565
 21
828.3834999999999
 31
0.0
  0
LINE
  5
1A3
330
1E
100
AcDbEntity
  8
0
100
AcDbLine
 10
41.193465
 20
844.332101939058
 30
0.0
 11
41.88556499999999
 21
843.7725
 31
0.0
  0
LINE
  5
1A6
330
1E
100
AcDbEntity
  8
0
100
AcDbLine
 10
41.88556499999999
 20
843.7725
 30
0.0
 11
44.455165
 21
840.5214999999998
 31
0.0
  0
LINE
  5
1A7
330
1E
100
AcDbEntity
  8
0
100
AcDbLine
 10
44.455165
 20
840.5214999999998
 30
0.0
 11
45.98556499999999
 21
836.6704999999997
 31
0.0
  0
LINE
  5
1AC
330
1E
100
AcDbEntity
  8
0
100
AcDbLine
 10
46.034865
 20
828.3854999999999
 30
0.0
 11
46.636565
 21
832.5434999999998
 31
0.0
  0
LINE
  5
1AD
330
1E
100
AcDbEntity
  8
0
100
AcDbLine
 10
45.98556499999999
 20
836.6704999999997
 30
0.0
 11
46.636565
 21
832.5434999999998
 31
0.0
  0
LINE
  5
1AE
330
1E
100
AcDbEntity
  8
0
100
AcDbLine
 10
37.45426825351639
 20
846.8716066025118
 30
0.0
 11
38.636565
 21
846.3994999999998
 31
0.0
  0
LINE
  5
1AF
330
1E
100
AcDbEntity
  8
0
100
AcDbLine
 10
38.915965
 20
847.7154999999997
 30
0.0
 11
40.1283650011816
 21
848.4155000006818
 31
0.0
  0
LINE
  5
1B0
330
1E
100
AcDbEntity
  8
0
100
AcDbLine
 10
38.915965
 20
847.7154999999997
 30
0.0
 11
40.1283650011816
 21
848.4155000006818
 31
0.0
  0
LINE
  5
1B1
330
1E
100
AcDbEntity
  8
0
100
AcDbLine
 10
41.03771499982079
 20
848.9404999998971
 30
0.0
 11
41.687265
 21
849.3154999999999
 31
0.0
  0
LINE
  5
1B2
330
1E
100
AcDbEntity
  8
0
100
AcDbLine
 10
41.03771499982079
 20
848.9404999998971
 30
0.0
 11
41.687265
 21
849.3154999999999
 31
0.0
  0
LINE
  5
1B3
330
1E
100
AcDbEntity
  8
0
100
AcDbLine
 10
40.128365
 20
848.4154999999997
 30
0.0
 11
41.947065
 21
849.4654999999999
 31
0.0
  0
LINE
  5
1B4
330
1E
100
AcDbEntity
  8
0
100
AcDbLine
 10
41.947065
 20
849.4654999999999
 30
0.0
 11
42.986265
 21
850.0655
 31
0.0
  0
LINE
  5
1B5
330
1E
100
AcDbEntity
  8
0
100
AcDbLine
 10
19.19346499999998
 20
1130.8135
 30
0.0
 11
71.193465
 21
1130.8135
 31
0.0
  0
LINE
  5
1B6
330
1E
100
AcDbEntity
  8
0
100
AcDbLine
 10
71.193465
 20
1157.189499999999
 30
0.0
 11
71.193465
 21
1162.2295
 31
0.0
  0
LINE
  5
1B7
330
1E
100
AcDbEntity
  8
0
100
AcDbLine
 10
71.193465
 20
1157.189499999999
 30
0.0
 11
71.193465
 21
1151.8135
 31
0.0
  0
LINE
  5
1B8
330
1E
100
AcDbEntity
  8
0
100
AcDbLine
 10
71.193465
 20
1162.2295
 30
0.0
 11
71.193465
 21
1166.6815
 31
0.0
  0
LINE
  5
1B9
330
1E
100
AcDbEntity
  8
0
100
AcDbLine
 10
71.193465
 20
1162.2295
 30
0.0
 11
71.193465
 21
1157.189499999999
 31
0.0
  0
LINE
  5
1BA
330
1E
100
AcDbEntity
  8
0
100
AcDbLine
 10
71.193465
 20
1166.6815
 30
0.0
 11
71.193465
 21
1170.0415
 31
0.0
  0
LINE
  5
1BB
330
1E
100
AcDbEntity
  8
0
100
AcDbLine
 10
71.193465
 20
1166.6815
 30
0.0
 11
71.193465
 21
1162.2295
 31
0.0
  0
LINE
  5
1BC
330
1E
100
AcDbEntity
  8
0
100
AcDbLine
 10
71.193465
 20
1172.813499999999
 30
0.0
 11
71.193465
 21
1172.057499999999
 31
0.0
  0
LINE
  5
1BD
330
1E
100
AcDbEntity
  8
0
100
AcDbLine
 10
71.193465
 20
1170.0415
 30
0.0
 11
71.193465
 21
1172.057499999999
 31
0.0
  0
LINE
  5
1BE
330
1E
100
AcDbEntity
  8
0
100
AcDbLine
 10
71.193465
 20
1170.0415
 30
0.0
 11
71.193465
 21
1166.6815
 31
0.0
  0
LINE
  5
1BF
330
1E
100
AcDbEntity
  8
0
100
AcDbLine
 10
71.193465
 20
1172.057499999999
 30
0.0
 11
71.193465
 21
1172.813499999999
 31
0.0
  0
LINE
  5
1C0
330
1E
100
AcDbEntity
  8
0
100
AcDbLine
 10
71.193465
 20
1172.057499999999
 30
0.0
 11
71.193465
 21
1170.0415
 31
0.0
  0
LINE
  5
1C1
330
1E
100
AcDbEntity
  8
0
100
AcDbLine
 10
71.193465
 20
1151.8135
 30
0.0
 11
71.193465
 21
1146.437499999999
 31
0.0
  0
LINE
  5
1C2
330
1E
100
AcDbEntity
  8
0
100
AcDbLine
 10
71.193465
 20
1151.8135
 30
0.0
 11
71.193465
 21
1157.189499999999
 31
0.0
  0
LINE
  5
1C3
330
1E
100
AcDbEntity
  8
0
100
AcDbLine
 10
71.193465
 20
1146.437499999999
 30
0.0
 11
71.193465
 21
1151.8135
 31
0.0
  0
LINE
  5
1C4
330
1E
100
AcDbEntity
  8
0
100
AcDbLine
 10
71.193465
 20
1146.437499999999
 30
0.0
 11
71.193465
 21
1141.3975
 31
0.0
  0
LINE
  5
1C5
330
1E
100
AcDbEntity
  8
0
100
AcDbLine
 10
71.193465
 20
1141.3975
 30
0.0
 11
71.193465
 21
1146.437499999999
 31
0.0
  0
LINE
  5
1C6
330
1E
100
AcDbEntity
  8
0
100
AcDbLine
 10
71.193465
 20
1141.3975
 30
0.0
 11
71.193465
 21
1136.9455
 31
0.0
  0
LINE
  5
1C7
330
1E
100
AcDbEntity
  8
0
100
AcDbLine
 10
71.193465
 20
1136.9455
 30
0.0
 11
71.193465
 21
1141.3975
 31
0.0
  0
LINE
  5
1C8
330
1E
100
AcDbEntity
  8
0
100
AcDbLine
 10
71.193465
 20
1136.9455
 30
0.0
 11
71.193465
 21
1133.5855
 31
0.0
  0
LINE
  5
1C9
330
1E
100
AcDbEntity
  8
0
100
AcDbLine
 10
71.193465
 20
1133.5855
 30
0.0
 11
71.193465
 21
1136.9455
 31
0.0
  0
LINE
  5
1CA
330
1E
100
AcDbEntity
  8
0
100
AcDbLine
 10
71.193465
 20
1133.5855
 30
0.0
 11
71.193465
 21
1131.5695
 31
0.0
  0
LINE
  5
1CB
330
1E
100
AcDbEntity
  8
0
100
AcDbLine
 10
71.193465
 20
1131.5695
 30
0.0
 11
71.193465
 21
1133.5855
 31
0.0
  0
LINE
  5
1CC
330
1E
100
AcDbEntity
  8
0
100
AcDbLine
 10
71.193465
 20
1131.5695
 30
0.0
 11
71.193465
 21
1130.8135
 31
0.0
  0
LINE
  5
1CD
330
1E
100
AcDbEntity
  8
0
100
AcDbLine
 10
71.193465
 20
1130.8135
 30
0.0
 11
71.193465
 21
1131.5695
 31
0.0
  0
LINE
  5
1CE
330
1E
100
AcDbEntity
  8
0
100
AcDbLine
 10
41.193465
 20
854.1706845244451
 30
0.0
 11
41.193465
 21
1130.8135
 31
0.0
  0
LINE
  5
1CF
330
1E
100
AcDbEntity
  8
0
100
AcDbLine
 10
42.986265
 20
850.0655
 30
0.0
 11
43.419265
 21
850.3155000000001
 31
0.0
  0
LINE
  5
1D1
330
1E
100
AcDbEntity
  8
0
100
AcDbLine
 10
35.105465
 20
845.5154999999999
 30
0.0
 11
38.915965
 21
847.7154999999997
 31
0.0
  0
LINE
  5
1D2
330
1E
100
AcDbEntity
  8
0
100
AcDbLine
 10
19.19346499999998
 20
821.4204235289539
 30
0.0
 11
22.56096499999999
 21
818.6434999999999
 31
0.0
  0
LINE
  5
1D3
330
1E
100
AcDbEntity
  8
0
100
AcDbLine
 10
16.742365
 20
824.5214999999998
 30
0.0
 11
19.19346499999998
 21
821.4204235289539
 31
0.0
  0
LINE
  5
1D9
330
1E
100
AcDbEntity
  8
0
100
AcDbLine
 10
38.636565
 20
846.3994999999998
 30
0.0
 11
41.193465
 21
844.332101939058
 31
0.0
  0
LINE
  5
1DA
330
1E
100
AcDbEntity
  8
0
100
AcDbLine
 10
19.2025535245901
 20
77.8135
 30
0.0
 11
41.193465
 21
77.81350000000009
 31
0.0
  0
ENDSEC
  0
SECTION
  2
OBJECTS
  0
DICTIONARY
  5
C
330
0
100
AcDbDictionary
281
     1
  3
ACAD_GROUP
350
D
  3
ACAD_LAYOUT
350
19
  3
ACAD_MLINESTYLE
350
16
  3
ACAD_PLOTSETTINGS
350
18
  3
ACAD_PLOTSTYLENAME
350
E
  3
AcDbVariableDictionary
350
1DB
  0
DICTIONARY
  5
D
102
{ACAD_REACTORS
330
C
102
}
330
C
100
AcDbDictionary
281
     1
  0
DICTIONARY
  5
19
102
{ACAD_REACTORS
330
C
102
}
330
C
100
AcDbDictionary
281
     1
  3
Layout1
350
1D
  3
Model
350
21
  0
DICTIONARY
  5
16
102
{ACAD_REACTORS
330
C
102
}
330
C
100
AcDbDictionary
281
     1
  3
Standard
350
17
  0
DICTIONARY
  5
18
102
{ACAD_REACTORS
330
C
102
}
330
C
100
AcDbDictionary
281
     1
  0
ACDBDICTIONARYWDFLT
  5
E
102
{ACAD_REACTORS
330
C
102
}
330
C
100
AcDbDictionary
281
     1
  3
Normal
350
F
100
AcDbDictionaryWithDefault
340
F
  0
DICTIONARY
  5
1DB
102
{ACAD_REACTORS
330
C
102
}
330
C
100
AcDbDictionary
281
     1
  3
DIMASSOC
350
1DC
  0
LAYOUT
  5
1D
102
{ACAD_REACTORS
330
19
102
}
330
19
100
AcDbPlotSettings
  1

  2
hp deskjet 980c series
  4

  6

 40
0.0
 41
0.0
 42
0.0
 43
0.0
 44
0.0
 45
0.0
 46
0.0
 47
0.0
 48
0.0
 49
0.0
140
0.0
141
0.0
142
1.0
143
1.0
 70
   688
 72
     0
 73
     0
 74
     5
  7

 75
    16
147
1.0
148
0.0
149
0.0
100
AcDbLayout
  1
Layout1
 70
     1
 71
     1
 10
0.0
 20
0.0
 11
12.0
 21
9.0
 12
0.0
 22
0.0
 32
0.0
 14
1.000000000000000E+20
 24
1.000000000000000E+20
 34
1.000000000000000E+20
 15
-1.000000000000000E+20
 25
-1.000000000000000E+20
 35
-1.000000000000000E+20
146
0.0
 13
0.0
 23
0.0
 33
0.0
 16
1.0
 26
0.0
 36
0.0
 17
0.0
 27
1.0
 37
0.0
 76
     0
330
1A
  0
LAYOUT
  5
21
102
{ACAD_REACTORS
330
19
102
}
330
19
100
AcDbPlotSettings
  1

  2
hp deskjet 980c series
  4

  6

 40
0.0
 41
0.0
 42
0.0
 43
0.0
 44
0.0
 45
0.0
 46
0.0
 47
0.0
 48
0.0
 49
0.0
140
0.0
141
0.0
142
1.0
143
1.0
 70
  1712
 72
     0
 73
     0
 74
     0
  7

 75
     0
147
1.0
148
0.0
149
0.0
100
AcDbLayout
  1
Model
 70
     1
 71
     0
 10
0.0
 20
0.0
 11
12.0
 21
9.0
 12
0.0
 22
0.0
 32
0.0
 14
0.0
 24
0.0
 34
0.0
 15
0.0
 25
0.0
 35
0.0
146
0.0
 13
0.0
 23
0.0
 33
0.0
 16
1.0
 26
0.0
 36
0.0
 17
0.0
 27
1.0
 37
0.0
 76
     0
330
1E
  0
MLINESTYLE
  5
17
102
{ACAD_REACTORS
330
16
102
}
330
16
100
AcDbMlineStyle
  2
STANDARD
 70
     0
  3

 62
   256
 51
90.0
 52
90.0
 71
     2
 49
0.5
 62
   256
  6
BYLAYER
 49
-0.5
 62
   256
  6
BYLAYER
  0
ACDBPLACEHOLDER
  5
F
102
{ACAD_REACTORS
330
E
102
}
330
E
  0
DICTIONARYVAR
  5
1DC
102
{ACAD_REACTORS
330
1DB
102
}
330
1DB
100
DictionaryVariables
280
     0
  1
1
  0
ENDSEC
  0
EOF
