  0
SECTION
  2
HEADER
  9
$ACADVER
  1
AC1015
  9
$ACADMAINTVER
 70
    13
  9
$DWGCODEPAGE
  3
ANSI_1252
  9
$INSBASE
 10
0.0
 20
0.0
 30
0.0
  9
$EXTMIN
 10
-0.0999999999999996
 20
0.186500000000043
 30
0.0
  9
$EXTMAX
 10
96.09999999999999
 20
1172.813499999999
 30
0.0
  9
$LIMMIN
 10
0.0
 20
0.0
  9
$LIMMAX
 10
12.0
 20
9.0
  9
$ORTHOMODE
 70
     0
  9
$REGENMODE
 70
     1
  9
$FILLMODE
 70
     1
  9
$QTEXTMODE
 70
     0
  9
$MIRRTEXT
 70
     1
  9
$LTSCALE
 40
1.0
  9
$ATTMODE
 70
     1
  9
$TEXTSIZE
 40
0.2
  9
$TRACEWID
 40
0.05
  9
$TEXTSTYLE
  7
Standard
  9
$CLAYER
  8
0
  9
$CELTYPE
  6
Continuous
  9
$CECOLOR
 62
   256
  9
$CELTSCALE
 40
1.0
  9
$DISPSILH
 70
     0
  9
$DIMSCALE
 40
1.0
  9
$DIMASZ
 40
0.18
  9
$DIMEXO
 40
0.0625
  9
$DIMDLI
 40
0.38
  9
$DIMRND
 40
0.0
  9
$DIMDLE
 40
0.0
  9
$DIMEXE
 40
0.18
  9
$DIMTP
 40
0.0
  9
$DIMTM
 40
0.0
  9
$DIMTXT
 40
0.18
  9
$DIMCEN
 40
0.09
  9
$DIMTSZ
 40
0.0
  9
$DIMTOL
 70
     0
  9
$DIMLIM
 70
     0
  9
$DIMTIH
 70
     1
  9
$DIMTOH
 70
     1
  9
$DIMSE1
 70
     0
  9
$DIMSE2
 70
     0
  9
$DIMTAD
 70
     0
  9
$DIMZIN
 70
     0
  9
$DIMBLK
  1

  9
$DIMASO
 70
     1
  9
$DIMSHO
 70
     1
  9
$DIMPOST
  1

  9
$DIMAPOST
  1

  9
$DIMALT
 70
     0
  9
$DIMALTD
 70
     2
  9
$DIMALTF
 40
25.4
  9
$DIMLFAC
 40
1.0
  9
$DIMTOFL
 70
     0
  9
$DIMTVP
 40
0.0
  9
$DIMTIX
 70
     0
  9
$DIMSOXD
 70
     0
  9
$DIMSAH
 70
     0
  9
$DIMBLK1
  1

  9
$DIMBLK2
  1

  9
$DIMSTYLE
  2
Standard
  9
$DIMCLRD
 70
     0
  9
$DIMCLRE
 70
     0
  9
$DIMCLRT
 70
     0
  9
$DIMTFAC
 40
1.0
  9
$DIMGAP
 40
0.09
  9
$DIMJUST
 70
     0
  9
$DIMSD1
 70
     0
  9
$DIMSD2
 70
     0
  9
$DIMTOLJ
 70
     1
  9
$DIMTZIN
 70
     0
  9
$DIMALTZ
 70
     0
  9
$DIMALTTZ
 70
     0
  9
$DIMUPT
 70
     0
  9
$DIMDEC
 70
     4
  9
$DIMTDEC
 70
     4
  9
$DIMALTU
 70
     2
  9
$DIMALTTD
 70
     2
  9
$DIMTXSTY
  7
Standard
  9
$DIMAUNIT
 70
     0
  9
$DIMADEC
 70
     0
  9
$DIMALTRND
 40
0.0
  9
$DIMAZIN
 70
     0
  9
$DIMDSEP
 70
    46
  9
$DIMATFIT
 70
     3
  9
$DIMFRAC
 70
     0
  9
$DIMLDRBLK
  1

  9
$DIMLUNIT
 70
     2
  9
$DIMLWD
 70
    -2
  9
$DIMLWE
 70
    -2
  9
$DIMTMOVE
 70
     0
  9
$LUNITS
 70
     2
  9
$LUPREC
 70
     4
  9
$SKETCHINC
 40
0.1
  9
$FILLETRAD
 40
0.0
  9
$AUNITS
 70
     0
  9
$AUPREC
 70
     0
  9
$MENU
  1
.
  9
$ELEVATION
 40
0.0
  9
$PELEVATION
 40
0.0
  9
$THICKNESS
 40
0.0
  9
$LIMCHECK
 70
     0
  9
$CHAMFERA
 40
0.0
  9
$CHAMFERB
 40
0.0
  9
$CHAMFERC
 40
0.0
  9
$CHAMFERD
 40
0.0
  9
$SKPOLY
 70
     0
  9
$TDCREATE
 40
2454762.816784212
  9
$TDUCREATE
 40
2454762.733450880
  9
$TDUPDATE
 40
2454762.822052222
  9
$TDUUPDATE
 40
2454762.738718888
  9
$TDINDWG
 40
0.0047951157
  9
$TDUSRTIMER
 40
0.0047951157
  9
$USRTIMER
 70
     1
  9
$ANGBASE
 50
0.0
  9
$ANGDIR
 70
     0
  9
$PDMODE
 70
     0
  9
$PDSIZE
 40
0.0
  9
$PLINEWID
 40
0.0
  9
$SPLFRAME
 70
     0
  9
$SPLINETYPE
 70
     6
  9
$SPLINESEGS
 70
     8
  9
$HANDSEED
  5
216
  9
$SURFTAB1
 70
     6
  9
$SURFTAB2
 70
     6
  9
$SURFTYPE
 70
     6
  9
$SURFU
 70
     6
  9
$SURFV
 70
     6
  9
$UCSBASE
  2

  9
$UCSNAME
  2

  9
$UCSORG
 10
0.0
 20
0.0
 30
0.0
  9
$UCSXDIR
 10
1.0
 20
0.0
 30
0.0
  9
$UCSYDIR
 10
0.0
 20
1.0
 30
0.0
  9
$UCSORTHOREF
  2

  9
$UCSORTHOVIEW
 70
     1
  9
$UCSORGTOP
 10
0.0
 20
0.0
 30
0.0
  9
$UCSORGBOTTOM
 10
0.0
 20
0.0
 30
0.0
  9
$UCSORGLEFT
 10
0.0
 20
0.0
 30
0.0
  9
$UCSORGRIGHT
 10
0.0
 20
0.0
 30
0.0
  9
$UCSORGFRONT
 10
0.0
 20
0.0
 30
0.0
  9
$UCSORGBACK
 10
0.0
 20
0.0
 30
0.0
  9
$PUCSBASE
  2

  9
$PUCSNAME
  2

  9
$PUCSORG
 10
0.0
 20
0.0
 30
0.0
  9
$PUCSXDIR
 10
1.0
 20
0.0
 30
0.0
  9
$PUCSYDIR
 10
0.0
 20
1.0
 30
0.0
  9
$PUCSORTHOREF
  2

  9
$PUCSORTHOVIEW
 70
     0
  9
$PUCSORGTOP
 10
0.0
 20
0.0
 30
0.0
  9
$PUCSORGBOTTOM
 10
0.0
 20
0.0
 30
0.0
  9
$PUCSORGLEFT
 10
0.0
 20
0.0
 30
0.0
  9
$PUCSORGRIGHT
 10
0.0
 20
0.0
 30
0.0
  9
$PUCSORGFRONT
 10
0.0
 20
0.0
 30
0.0
  9
$PUCSORGBACK
 10
0.0
 20
0.0
 30
0.0
  9
$USERI1
 70
     0
  9
$USERI2
 70
     0
  9
$USERI3
 70
     0
  9
$USERI4
 70
     0
  9
$USERI5
 70
     0
  9
$USERR1
 40
0.0
  9
$USERR2
 40
0.0
  9
$USERR3
 40
0.0
  9
$USERR4
 40
0.0
  9
$USERR5
 40
0.0
  9
$WORLDVIEW
 70
     1
  9
$SHADEDGE
 70
     3
  9
$SHADEDIF
 70
    70
  9
$TILEMODE
 70
     1
  9
$MAXACTVP
 70
    64
  9
$PINSBASE
 10
0.0
 20
0.0
 30
0.0
  9
$PLIMCHECK
 70
     0
  9
$PEXTMIN
 10
1.000000000000000E+20
 20
1.000000000000000E+20
 30
1.000000000000000E+20
  9
$PEXTMAX
 10
-1.000000000000000E+20
 20
-1.000000000000000E+20
 30
-1.000000000000000E+20
  9
$PLIMMIN
 10
0.0
 20
0.0
  9
$PLIMMAX
 10
12.0
 20
9.0
  9
$UNITMODE
 70
     0
  9
$VISRETAIN
 70
     1
  9
$PLINEGEN
 70
     0
  9
$PSLTSCALE
 70
     1
  9
$TREEDEPTH
 70
  3020
  9
$CMLSTYLE
  2
Standard
  9
$CMLJUST
 70
     0
  9
$CMLSCALE
 40
1.0
  9
$PROXYGRAPHICS
 70
     1
  9
$MEASUREMENT
 70
     0
  9
$CELWEIGHT
370
    -1
  9
$ENDCAPS
280
     0
  9
$JOINSTYLE
280
     0
  9
$LWDISPLAY
290
     0
  9
$INSUNITS
 70
     0
  9
$HYPERLINKBASE
  1

  9
$STYLESHEET
  1

  9
$XEDIT
290
     1
  9
$CEPSNTYPE
380
     0
  9
$PSTYLEMODE
290
     1
  9
$FINGERPRINTGUID
  2
{E735D8AF-C848-449E-888E-7E7DC2678A3D}
  9
$VERSIONGUID
  2
{FFE2316A-9BE8-4A1E-A126-A6A8EE79580E}
  9
$EXTNAMES
290
     1
  9
$PSVPSCALE
 40
0.0
  9
$OLESTARTUP
290
     0
  0
ENDSEC
  0
SECTION
  2
CLASSES
  0
CLASS
  1
ACDBDICTIONARYWDFLT
  2
AcDbDictionaryWithDefault
  3
AutoCAD 2000
 90
        0
280
     0
281
     0
  0
CLASS
  1
ACDBPLACEHOLDER
  2
AcDbPlaceHolder
  3
AutoCAD 2000
 90
        0
280
     0
281
     0
  0
CLASS
  1
LAYOUT
  2
AcDbLayout
  3
AutoCAD 2000
 90
        0
280
     0
281
     0
  0
CLASS
  1
DICTIONARYVAR
  2
AcDbDictionaryVar
  3
AutoCAD 2000
 90
        0
280
     0
281
     0
  0
ENDSEC
  0
SECTION
  2
TABLES
  0
TABLE
  2
VPORT
  5
8
330
0
100
AcDbSymbolTable
 70
     2
  0
VPORT
  5
215
330
8
100
AcDbSymbolTableRecord
100
AcDbViewportTableRecord
  2
*Active
 70
     0
 10
0.0
 20
0.0
 11
1.0
 21
1.0
 12
47.99999999999999
 22
586.5
 13
0.0
 23
0.0
 14
1.0
 24
1.0
 15
0.0
 25
0.0
 16
0.0
 26
0.0
 36
1.0
 17
0.0
 27
0.0
 37
0.0
 40
1181.624138107417
 41
2.078104993597951
 42
50.0
 43
0.0
 44
0.0
 50
0.0
 51
0.0
 71
     0
 72
   100
 73
     1
 74
     3
 75
     0
 76
     0
 77
     0
 78
     0
281
     0
 65
     1
110
0.0
120
0.0
130
0.0
111
1.0
121
0.0
131
0.0
112
0.0
122
1.0
132
0.0
 79
     1
146
0.0
  0
ENDTAB
  0
TABLE
  2
LTYPE
  5
5
330
0
100
AcDbSymbolTable
 70
     1
  0
LTYPE
  5
13
330
5
100
AcDbSymbolTableRecord
100
AcDbLinetypeTableRecord
  2
ByBlock
 70
     0
  3

 72
    65
 73
     0
 40
0.0
  0
LTYPE
  5
14
330
5
100
AcDbSymbolTableRecord
100
AcDbLinetypeTableRecord
  2
ByLayer
 70
     0
  3

 72
    65
 73
     0
 40
0.0
  0
LTYPE
  5
15
330
5
100
AcDbSymbolTableRecord
100
AcDbLinetypeTableRecord
  2
Continuous
 70
     0
  3
Solid line
 72
    65
 73
     0
 40
0.0
  0
ENDTAB
  0
TABLE
  2
LAYER
  5
2
330
0
100
AcDbSymbolTable
 70
     1
  0
LAYER
  5
10
330
2
100
AcDbSymbolTableRecord
100
AcDbLayerTableRecord
  2
0
 70
     0
 62
     7
  6
Continuous
370
    -3
390
F
  0
ENDTAB
  0
TABLE
  2
STYLE
  5
3
330
0
100
AcDbSymbolTable
 70
     1
  0
STYLE
  5
11
330
3
100
AcDbSymbolTableRecord
100
AcDbTextStyleTableRecord
  2
Standard
 70
     0
 40
0.0
 41
1.0
 50
0.0
 71
     0
 42
0.2
  3
txt
  4

  0
ENDTAB
  0
TABLE
  2
VIEW
  5
6
330
0
100
AcDbSymbolTable
 70
     0
  0
ENDTAB
  0
TABLE
  2
UCS
  5
7
330
0
100
AcDbSymbolTable
 70
     0
  0
ENDTAB
  0
TABLE
  2
APPID
  5
9
330
0
100
AcDbSymbolTable
 70
     1
  0
APPID
  5
12
330
9
100
AcDbSymbolTableRecord
100
AcDbRegAppTableRecord
  2
ACAD
 70
     0
  0
ENDTAB
  0
TABLE
  2
DIMSTYLE
  5
A
330
0
100
AcDbSymbolTable
 70
     1
100
AcDbDimStyleTable
 71
     0
  0
DIMSTYLE
105
208
330
A
100
AcDbSymbolTableRecord
100
AcDbDimStyleTableRecord
  2
Standard
 70
     0
340
11
  0
ENDTAB
  0
TABLE
  2
BLOCK_RECORD
  5
1
330
0
100
AcDbSymbolTable
 70
     0
  0
BLOCK_RECORD
  5
1E
330
1
100
AcDbSymbolTableRecord
100
AcDbBlockTableRecord
  2
*Model_Space
340
21
  0
BLOCK_RECORD
  5
1A
330
1
100
AcDbSymbolTableRecord
100
AcDbBlockTableRecord
  2
*Paper_Space
340
1D
  0
ENDTAB
  0
ENDSEC
  0
SECTION
  2
BLOCKS
  0
BLOCK
  5
1F
330
1E
100
AcDbEntity
  8
0
100
AcDbBlockBegin
  2
*Model_Space
 70
     0
 10
0.0
 20
0.0
 30
0.0
  3
*Model_Space
  1

  0
ENDBLK
  5
20
330
1E
100
AcDbEntity
  8
0
100
AcDbBlockEnd
  0
BLOCK
  5
1B
330
1A
100
AcDbEntity
 67
     1
  8
0
100
AcDbBlockBegin
  2
*Paper_Space
 70
     0
 10
0.0
 20
0.0
 30
0.0
  3
*Paper_Space
  1

  0
ENDBLK
  5
1C
330
1A
100
AcDbEntity
 67
     1
  8
0
100
AcDbBlockEnd
  0
ENDSEC
  0
SECTION
  2
ENTITIES
  0
LINE
  5
22
330
1E
100
AcDbEntity
  8
0
100
AcDbLine
 10
28.856
 20
51.4375
 30
0.0
 11
30.872
 21
46.3975
 31
0.0
  0
LINE
  5
23
330
1E
100
AcDbEntity
  8
0
100
AcDbLine
 10
28.856
 20
51.4375
 30
0.0
 11
30.872
 21
46.3975
 31
0.0
  0
LINE
  5
25
330
1E
100
AcDbEntity
  8
0
100
AcDbLine
 10
28.1
 20
56.8135
 30
0.0
 11
28.856
 21
51.4375
 31
0.0
  0
LINE
  5
27
330
1E
100
AcDbEntity
  8
0
100
AcDbLine
 10
28.1
 20
56.8135
 30
0.0
 11
28.856
 21
62.1895
 31
0.0
  0
LINE
  5
28
330
1E
100
AcDbEntity
  8
0
100
AcDbLine
 10
28.1
 20
56.8135
 30
0.0
 11
28.856
 21
51.4375
 31
0.0
  0
LINE
  5
29
330
1E
100
AcDbEntity
  8
0
100
AcDbLine
 10
28.856
 20
62.1895
 30
0.0
 11
30.872
 21
67.2295
 31
0.0
  0
LINE
  5
2A
330
1E
100
AcDbEntity
  8
0
100
AcDbLine
 10
-0.0999999999999996
 20
816.7835
 30
0.0
 11
27.9
 21
816.7835
 31
0.0
  0
LINE
  5
2B
330
1E
100
AcDbEntity
  8
0
100
AcDbLine
 10
-0.0999999999999988
 20
816.7835
 30
0.0
 11
27.9
 21
816.7835
 31
0.0
  0
LINE
  5
2C
330
1E
100
AcDbEntity
  8
0
100
AcDbLine
 10
-0.0999999999999988
 20
816.7835
 30
0.0
 11
-0.0999999999999988
 21
817.9375
 31
0.0
  0
LINE
  5
2D
330
1E
100
AcDbEntity
  8
0
100
AcDbLine
 10
-0.0999999999999988
 20
816.7835
 30
0.0
 11
-0.0999999999999988
 21
817.0834999999998
 31
0.0
  0
LINE
  5
2E
330
1E
100
AcDbEntity
  8
0
100
AcDbLine
 10
27.9
 20
816.4835
 30
0.0
 11
28.9
 21
816.4835
 31
0.0
  0
LINE
  5
2F
330
1E
100
AcDbEntity
  8
0
100
AcDbLine
 10
27.9
 20
816.4835
 30
0.0
 11
27.9
 21
816.7835
 31
0.0
  0
LINE
  5
30
330
1E
100
AcDbEntity
  8
0
100
AcDbLine
 10
28.9
 20
816.4835
 30
0.0
 11
28.9
 21
816.7835
 31
0.0
  0
LINE
  5
31
330
1E
100
AcDbEntity
  8
0
100
AcDbLine
 10
-0.0999999999999988
 20
817.0834999999998
 30
0.0
 11
-0.0999999999999988
 21
816.7835
 31
0.0
  0
LINE
  5
32
330
1E
100
AcDbEntity
  8
0
100
AcDbLine
 10
-0.0999999999999988
 20
817.0834999999998
 30
0.0
 11
-0.0999999999999988
 21
818.5834999999999
 31
0.0
  0
LINE
  5
33
330
1E
100
AcDbEntity
  8
0
100
AcDbLine
 10
27.9
 20
816.7835
 30
0.0
 11
27.9
 21
816.4835
 31
0.0
  0
LINE
  5
34
330
1E
100
AcDbEntity
  8
0
100
AcDbLine
 10
28.9
 20
816.7835
 30
0.0
 11
28.9
 21
817.0834999999998
 31
0.0
  0
LINE
  5
35
330
1E
100
AcDbEntity
  8
0
100
AcDbLine
 10
28.9
 20
817.0834999999998
 30
0.0
 11
28.9
 21
818.5834999999999
 31
0.0
  0
LINE
  5
36
330
1E
100
AcDbEntity
  8
0
100
AcDbLine
 10
29.1
 20
816.4835
 30
0.0
 11
38.1
 21
816.4835
 31
0.0
  0
LINE
  5
37
330
1E
100
AcDbEntity
  8
0
100
AcDbLine
 10
29.1
 20
816.4835
 30
0.0
 11
29.1
 21
817.1344999999998
 31
0.0
  0
LINE
  5
38
330
1E
100
AcDbEntity
  8
0
100
AcDbLine
 10
-0.0999999999999988
 20
817.7834999999999
 30
0.0
 11
-0.0999999999999988
 21
817.9375
 31
0.0
  0
LINE
  5
39
330
1E
100
AcDbEntity
  8
0
100
AcDbLine
 10
-0.0999999999999988
 20
817.9375
 30
0.0
 11
-0.0999999999999988
 21
817.7834999999999
 31
0.0
  0
LINE
  5
3A
330
1E
100
AcDbEntity
  8
0
100
AcDbLine
 10
-0.0999999999999988
 20
817.9375
 30
0.0
 11
-0.0999999999999988
 21
816.7835
 31
0.0
  0
LINE
  5
3B
330
1E
100
AcDbEntity
  8
0
100
AcDbLine
 10
-0.0999999999999988
 20
818.5834999999999
 30
0.0
 11
-0.0999999999999988
 21
817.0834999999998
 31
0.0
  0
LINE
  5
3C
330
1E
100
AcDbEntity
  8
0
100
AcDbLine
 10
-0.0999999999999988
 20
818.5834999999999
 30
0.0
 11
-0.0999999999999988
 21
818.9835
 31
0.0
  0
LINE
  5
3D
330
1E
100
AcDbEntity
  8
0
100
AcDbLine
 10
-0.0999999999999996
 20
818.9835
 30
0.0
 11
27.9
 21
818.9835
 31
0.0
  0
LINE
  5
3F
330
1E
100
AcDbEntity
  8
0
100
AcDbLine
 10
-0.0999999999999988
 20
818.9835
 30
0.0
 11
27.9
 21
818.9835
 31
0.0
  0
LINE
  5
40
330
1E
100
AcDbEntity
  8
0
100
AcDbLine
 10
-0.0999999999999988
 20
818.9835
 30
0.0
 11
-0.0999999999999988
 21
818.5834999999999
 31
0.0
  0
LINE
  5
41
330
1E
100
AcDbEntity
  8
0
100
AcDbLine
 10
-0.0999999999999988
 20
818.9835
 30
0.0
 11
-0.0999999999999988
 21
819.9085
 31
0.0
  0
LINE
  5
42
330
1E
100
AcDbEntity
  8
0
100
AcDbLine
 10
27.9
 20
818.9835
 30
0.0
 11
27.9
 21
819.9704999999999
 31
0.0
  0
LINE
  5
43
330
1E
100
AcDbEntity
  8
0
100
AcDbLine
 10
27.9
 20
818.9835
 30
0.0
 11
27.9
 21
821.1834999999998
 31
0.0
  0
LINE
  5
45
330
1E
100
AcDbEntity
  8
0
100
AcDbLine
 10
-0.0999999999999988
 20
819.9085
 30
0.0
 11
-0.0999999999999988
 21
818.9835
 31
0.0
  0
LINE
  5
46
330
1E
100
AcDbEntity
  8
0
100
AcDbLine
 10
-0.0999999999999988
 20
819.9085
 30
0.0
 11
-0.0999999999999988
 21
821.9834999999999
 31
0.0
  0
LINE
  5
47
330
1E
100
AcDbEntity
  8
0
100
AcDbLine
 10
28.9
 20
821.1834999999998
 30
0.0
 11
28.9
 21
823.9835000000001
 31
0.0
  0
LINE
  5
48
330
1E
100
AcDbEntity
  8
0
100
AcDbLine
 10
27.9
 20
819.9704999999999
 30
0.0
 11
27.9
 21
821.9834999999999
 31
0.0
  0
LINE
  5
49
330
1E
100
AcDbEntity
  8
0
100
AcDbLine
 10
27.9
 20
819.9704999999999
 30
0.0
 11
27.9
 21
818.9835
 31
0.0
  0
LINE
  5
4A
330
1E
100
AcDbEntity
  8
0
100
AcDbLine
 10
28.9
 20
818.5834999999999
 30
0.0
 11
28.9
 21
818.9835
 31
0.0
  0
LINE
  5
4B
330
1E
100
AcDbEntity
  8
0
100
AcDbLine
 10
28.9
 20
818.9835
 30
0.0
 11
28.9
 21
821.1834999999998
 31
0.0
  0
LINE
  5
4C
330
1E
100
AcDbEntity
  8
0
100
AcDbLine
 10
27.9
 20
821.1834999999998
 30
0.0
 11
27.9
 21
818.9835
 31
0.0
  0
LINE
  5
4D
330
1E
100
AcDbEntity
  8
0
100
AcDbLine
 10
27.9
 20
821.1834999999998
 30
0.0
 11
27.9
 21
823.9835000000001
 31
0.0
  0
LINE
  5
4E
330
1E
100
AcDbEntity
  8
0
100
AcDbLine
 10
29.1
 20
818.6654999999998
 30
0.0
 11
29.1
 21
821.2345
 31
0.0
  0
LINE
  5
4F
330
1E
100
AcDbEntity
  8
0
100
AcDbLine
 10
29.1
 20
821.2345
 30
0.0
 11
29.1
 21
824.4835
 31
0.0
  0
LINE
  5
50
330
1E
100
AcDbEntity
  8
0
100
AcDbLine
 10
29.1
 20
817.1344999999998
 30
0.0
 11
29.1
 21
818.6654999999998
 31
0.0
  0
LINE
  5
51
330
1E
100
AcDbEntity
  8
0
100
AcDbLine
 10
29.1
 20
817.0854999999999
 30
0.0
 11
29.1
 21
816.4835
 31
0.0
  0
LINE
  5
52
330
1E
100
AcDbEntity
  8
0
100
AcDbLine
 10
29.1
 20
818.6434999999999
 30
0.0
 11
29.1
 21
817.0854999999999
 31
0.0
  0
LINE
  5
53
330
1E
100
AcDbEntity
  8
0
100
AcDbLine
 10
-0.0999999999999996
 20
823.9835000000001
 30
0.0
 11
27.9
 21
823.9835000000001
 31
0.0
  0
LINE
  5
54
330
1E
100
AcDbEntity
  8
0
100
AcDbLine
 10
-0.0999999999999988
 20
824.4835
 30
0.0
 11
-0.0999999999999988
 21
823.9835000000001
 31
0.0
  0
LINE
  5
55
330
1E
100
AcDbEntity
  8
0
100
AcDbLine
 10
-0.0999999999999988
 20
824.4835
 30
0.0
 11
-0.0999999999999988
 21
828.3834999999999
 31
0.0
  0
LINE
  5
56
330
1E
100
AcDbEntity
  8
0
100
AcDbLine
 10
-0.0999999999999988
 20
823.9835000000001
 30
0.0
 11
-0.0999999999999988
 21
824.5164999999998
 31
0.0
  0
LINE
  5
57
330
1E
100
AcDbEntity
  8
0
100
AcDbLine
 10
-0.0999999999999988
 20
823.9835000000001
 30
0.0
 11
27.9
 21
823.9835000000001
 31
0.0
  0
LINE
  5
58
330
1E
100
AcDbEntity
  8
0
100
AcDbLine
 10
-0.0999999999999988
 20
823.9835000000001
 30
0.0
 11
-0.0999999999999988
 21
824.4835
 31
0.0
  0
LINE
  5
59
330
1E
100
AcDbEntity
  8
0
100
AcDbLine
 10
28.9
 20
824.4835
 30
0.0
 11
28.9
 21
828.3834999999999
 31
0.0
  0
LINE
  5
5A
330
1E
100
AcDbEntity
  8
0
100
AcDbLine
 10
28.9
 20
823.9835000000001
 30
0.0
 11
28.9
 21
824.4835
 31
0.0
  0
LINE
  5
5B
330
1E
100
AcDbEntity
  8
0
100
AcDbLine
 10
27.9
 20
823.9835000000001
 30
0.0
 11
27.9
 21
821.1834999999998
 31
0.0
  0
LINE
  5
5C
330
1E
100
AcDbEntity
  8
0
100
AcDbLine
 10
27.9
 20
823.9835000000001
 30
0.0
 11
27.9
 21
821.9834999999999
 31
0.0
  0
LINE
  5
5D
330
1E
100
AcDbEntity
  8
0
100
AcDbLine
 10
27.9
 20
821.9834999999999
 30
0.0
 11
27.9
 21
819.9704999999999
 31
0.0
  0
LINE
  5
5E
330
1E
100
AcDbEntity
  8
0
100
AcDbLine
 10
27.9
 20
821.9834999999999
 30
0.0
 11
27.9
 21
823.9835000000001
 31
0.0
  0
LINE
  5
5F
330
1E
100
AcDbEntity
  8
0
100
AcDbLine
 10
-0.0999999999999988
 20
821.9834999999999
 30
0.0
 11
-0.0999999999999988
 21
819.9085
 31
0.0
  0
LINE
  5
60
330
1E
100
AcDbEntity
  8
0
100
AcDbLine
 10
-0.0999999999999988
 20
821.9834999999999
 30
0.0
 11
-0.0999999999999988
 21
824.5164999999998
 31
0.0
  0
LINE
  5
61
330
1E
100
AcDbEntity
  8
0
100
AcDbLine
 10
-0.0999999999999988
 20
832.4835
 30
0.0
 11
-0.0999999999999988
 21
830.4274999999998
 31
0.0
  0
LINE
  5
62
330
1E
100
AcDbEntity
  8
0
100
AcDbLine
 10
-0.0999999999999988
 20
832.4835
 30
0.0
 11
-0.0999999999999988
 21
834.5385
 31
0.0
  0
LINE
  5
64
330
1E
100
AcDbEntity
  8
0
100
AcDbLine
 10
-0.0999999999999988
 20
830.4274999999998
 30
0.0
 11
-0.0999999999999988
 21
830.1834999999998
 31
0.0
  0
LINE
  5
66
330
1E
100
AcDbEntity
  8
0
100
AcDbLine
 10
-0.0999999999999988
 20
830.4274999999998
 30
0.0
 11
-0.0999999999999988
 21
832.4835
 31
0.0
  0
LINE
  5
67
330
1E
100
AcDbEntity
  8
0
100
AcDbLine
 10
-0.0999999999999996
 20
830.1834999999998
 30
0.0
 11
27.9
 21
830.1834999999998
 31
0.0
  0
LINE
  5
68
330
1E
100
AcDbEntity
  8
0
100
AcDbLine
 10
-0.0999999999999988
 20
830.1834999999998
 30
0.0
 11
-0.0999999999999988
 21
828.3834999999999
 31
0.0
  0
LINE
  5
69
330
1E
100
AcDbEntity
  8
0
100
AcDbLine
 10
-0.0999999999999988
 20
830.1834999999998
 30
0.0
 11
27.9
 21
830.1834999999998
 31
0.0
  0
LINE
  5
6A
330
1E
100
AcDbEntity
  8
0
100
AcDbLine
 10
-0.0999999999999988
 20
830.1834999999998
 30
0.0
 11
-0.0999999999999988
 21
830.4274999999998
 31
0.0
  0
LINE
  5
6B
330
1E
100
AcDbEntity
  8
0
100
AcDbLine
 10
-0.0999999999999988
 20
828.3834999999999
 30
0.0
 11
-0.0999999999999988
 21
824.4835
 31
0.0
  0
LINE
  5
6C
330
1E
100
AcDbEntity
  8
0
100
AcDbLine
 10
-0.0999999999999988
 20
828.3834999999999
 30
0.0
 11
-0.0999999999999988
 21
830.1834999999998
 31
0.0
  0
LINE
  5
6D
330
1E
100
AcDbEntity
  8
0
100
AcDbLine
 10
28.9
 20
830.1834999999998
 30
0.0
 11
28.9
 21
832.4835
 31
0.0
  0
LINE
  5
6E
330
1E
100
AcDbEntity
  8
0
100
AcDbLine
 10
28.9
 20
828.3834999999999
 30
0.0
 11
28.9
 21
830.1834999999998
 31
0.0
  0
LINE
  5
6F
330
1E
100
AcDbEntity
  8
0
100
AcDbLine
 10
27.9
 20
832.4835
 30
0.0
 11
27.9
 21
830.1834999999998
 31
0.0
  0
LINE
  5
70
330
1E
100
AcDbEntity
  8
0
100
AcDbLine
 10
27.9
 20
832.4835
 30
0.0
 11
27.9
 21
830.4584999999999
 31
0.0
  0
LINE
  5
71
330
1E
100
AcDbEntity
  8
0
100
AcDbLine
 10
27.9
 20
832.4835
 30
0.0
 11
27.9
 21
834.5085
 31
0.0
  0
LINE
  5
72
330
1E
100
AcDbEntity
  8
0
100
AcDbLine
 10
27.9
 20
832.4835
 30
0.0
 11
27.9
 21
834.7834999999999
 31
0.0
  0
LINE
  5
73
330
1E
100
AcDbEntity
  8
0
100
AcDbLine
 10
28.9
 20
832.4835
 30
0.0
 11
28.9
 21
834.7834999999999
 31
0.0
  0
LINE
  5
74
330
1E
100
AcDbEntity
  8
0
100
AcDbLine
 10
27.9
 20
830.4584999999999
 30
0.0
 11
27.9
 21
832.4835
 31
0.0
  0
LINE
  5
75
330
1E
100
AcDbEntity
  8
0
100
AcDbLine
 10
27.9
 20
830.4584999999999
 30
0.0
 11
27.9
 21
830.1834999999998
 31
0.0
  0
LINE
  5
76
330
1E
100
AcDbEntity
  8
0
100
AcDbLine
 10
27.9
 20
830.1834999999998
 30
0.0
 11
27.9
 21
830.4584999999999
 31
0.0
  0
LINE
  5
77
330
1E
100
AcDbEntity
  8
0
100
AcDbLine
 10
27.9
 20
830.1834999999998
 30
0.0
 11
27.9
 21
832.4835
 31
0.0
  0
LINE
  5
78
330
1E
100
AcDbEntity
  8
0
100
AcDbLine
 10
-0.0999999999999988
 20
824.5164999999998
 30
0.0
 11
-0.0999999999999988
 21
821.9834999999999
 31
0.0
  0
LINE
  5
79
330
1E
100
AcDbEntity
  8
0
100
AcDbLine
 10
-0.0999999999999988
 20
824.5164999999998
 30
0.0
 11
-0.0999999999999988
 21
823.9835000000001
 31
0.0
  0
LINE
  5
7A
330
1E
100
AcDbEntity
  8
0
100
AcDbLine
 10
29.1
 20
832.4994999999999
 30
0.0
 11
29.1
 21
828.3724999999998
 31
0.0
  0
LINE
  5
7B
330
1E
100
AcDbEntity
  8
0
100
AcDbLine
 10
29.1
 20
828.3724999999998
 30
0.0
 11
29.1
 21
824.5214999999998
 31
0.0
  0
LINE
  5
7C
330
1E
100
AcDbEntity
  8
0
100
AcDbLine
 10
29.1
 20
824.4835
 30
0.0
 11
29.1
 21
828.3854999999999
 31
0.0
  0
LINE
  5
7D
330
1E
100
AcDbEntity
  8
0
100
AcDbLine
 10
29.1
 20
828.3854999999999
 30
0.0
 11
29.1
 21
832.5434999999998
 31
0.0
  0
LINE
  5
80
330
1E
100
AcDbEntity
  8
0
100
AcDbLine
 10
-0.0999999999999988
 20
834.5385
 30
0.0
 11
-0.0999999999999988
 21
832.4835
 31
0.0
  0
LINE
  5
81
330
1E
100
AcDbEntity
  8
0
100
AcDbLine
 10
-0.0999999999999988
 20
834.5385
 30
0.0
 11
-0.0999999999999988
 21
834.7834999999999
 31
0.0
  0
LINE
  5
82
330
1E
100
AcDbEntity
  8
0
100
AcDbLine
 10
-0.0999999999999996
 20
834.7834999999999
 30
0.0
 11
27.9
 21
834.7834999999999
 31
0.0
  0
LINE
  5
83
330
1E
100
AcDbEntity
  8
0
100
AcDbLine
 10
-0.0999999999999988
 20
836.5834999999998
 30
0.0
 11
-0.0999999999999988
 21
834.7834999999999
 31
0.0
  0
LINE
  5
84
330
1E
100
AcDbEntity
  8
0
100
AcDbLine
 10
-0.0999999999999988
 20
836.5834999999998
 30
0.0
 11
-0.0999999999999988
 21
840.4835
 31
0.0
  0
LINE
  5
85
330
1E
100
AcDbEntity
  8
0
100
AcDbLine
 10
27.9
 20
834.7834999999999
 30
0.0
 11
27.9
 21
832.4835
 31
0.0
  0
LINE
  5
86
330
1E
100
AcDbEntity
  8
0
100
AcDbLine
 10
27.9
 20
834.7834999999999
 30
0.0
 11
27.9
 21
834.5085
 31
0.0
  0
LINE
  5
87
330
1E
100
AcDbEntity
  8
0
100
AcDbLine
 10
28.9
 20
834.7834999999999
 30
0.0
 11
28.9
 21
836.5834999999998
 31
0.0
  0
LINE
  5
88
330
1E
100
AcDbEntity
  8
0
100
AcDbLine
 10
28.9
 20
836.5834999999998
 30
0.0
 11
28.9
 21
840.4835
 31
0.0
  0
LINE
  5
89
330
1E
100
AcDbEntity
  8
0
100
AcDbLine
 10
27.9
 20
834.5085
 30
0.0
 11
27.9
 21
834.7834999999999
 31
0.0
  0
LINE
  5
8A
330
1E
100
AcDbEntity
  8
0
100
AcDbLine
 10
27.9
 20
834.5085
 30
0.0
 11
27.9
 21
832.4835
 31
0.0
  0
LINE
  5
8B
330
1E
100
AcDbEntity
  8
0
100
AcDbLine
 10
-0.0999999999999988
 20
834.7834999999999
 30
0.0
 11
27.9
 21
834.7834999999999
 31
0.0
  0
LINE
  5
8C
330
1E
100
AcDbEntity
  8
0
100
AcDbLine
 10
-0.0999999999999988
 20
834.7834999999999
 30
0.0
 11
-0.0999999999999988
 21
834.5385
 31
0.0
  0
LINE
  5
8D
330
1E
100
AcDbEntity
  8
0
100
AcDbLine
 10
-0.0999999999999988
 20
834.7834999999999
 30
0.0
 11
-0.0999999999999988
 21
836.5834999999998
 31
0.0
  0
LINE
  5
8E
330
1E
100
AcDbEntity
  8
0
100
AcDbLine
 10
28.9
 20
840.4835
 30
0.0
 11
28.9
 21
840.9835000000001
 31
0.0
  0
LINE
  5
8F
330
1E
100
AcDbEntity
  8
0
100
AcDbLine
 10
-0.0999999999999988
 20
840.4835
 30
0.0
 11
-0.0999999999999988
 21
836.5834999999998
 31
0.0
  0
LINE
  5
90
330
1E
100
AcDbEntity
  8
0
100
AcDbLine
 10
-0.0999999999999988
 20
840.4835
 30
0.0
 11
-0.0999999999999988
 21
840.9835000000001
 31
0.0
  0
LINE
  5
91
330
1E
100
AcDbEntity
  8
0
100
AcDbLine
 10
-0.0999999999999988
 20
840.4505
 30
0.0
 11
-0.0999999999999988
 21
840.9835000000001
 31
0.0
  0
LINE
  5
92
330
1E
100
AcDbEntity
  8
0
100
AcDbLine
 10
-0.0999999999999988
 20
840.4505
 30
0.0
 11
-0.0999999999999988
 21
842.9835
 31
0.0
  0
LINE
  5
93
330
1E
100
AcDbEntity
  8
0
100
AcDbLine
 10
29.1
 20
840.5214999999998
 30
0.0
 11
29.1
 21
843.7725
 31
0.0
  0
LINE
  5
94
330
1E
100
AcDbEntity
  8
0
100
AcDbLine
 10
-0.0999999999999996
 20
840.9835000000001
 30
0.0
 11
27.9
 21
840.9835000000001
 31
0.0
  0
LINE
  5
95
330
1E
100
AcDbEntity
  8
0
100
AcDbLine
 10
27.9
 20
842.9835
 30
0.0
 11
27.9
 21
844.9964999999998
 31
0.0
  0
LINE
  5
96
330
1E
100
AcDbEntity
  8
0
100
AcDbLine
 10
27.9
 20
842.9835
 30
0.0
 11
27.9
 21
840.9835000000001
 31
0.0
  0
LINE
  5
97
330
1E
100
AcDbEntity
  8
0
100
AcDbLine
 10
-0.0999999999999988
 20
840.9835000000001
 30
0.0
 11
27.9
 21
840.9835000000001
 31
0.0
  0
LINE
  5
98
330
1E
100
AcDbEntity
  8
0
100
AcDbLine
 10
-0.0999999999999988
 20
840.9835000000001
 30
0.0
 11
-0.0999999999999988
 21
840.4835
 31
0.0
  0
LINE
  5
99
330
1E
100
AcDbEntity
  8
0
100
AcDbLine
 10
-0.0999999999999988
 20
840.9835000000001
 30
0.0
 11
-0.0999999999999988
 21
840.4505
 31
0.0
  0
LINE
  5
9A
330
1E
100
AcDbEntity
  8
0
100
AcDbLine
 10
28.9
 20
840.9835000000001
 30
0.0
 11
28.9
 21
843.7834999999999
 31
0.0
  0
LINE
  5
9B
330
1E
100
AcDbEntity
  8
0
100
AcDbLine
 10
27.9
 20
840.9835000000001
 30
0.0
 11
27.9
 21
842.9835
 31
0.0
  0
LINE
  5
9C
330
1E
100
AcDbEntity
  8
0
100
AcDbLine
 10
27.9
 20
840.9835000000001
 30
0.0
 11
27.9
 21
843.7834999999999
 31
0.0
  0
LINE
  5
9D
330
1E
100
AcDbEntity
  8
0
100
AcDbLine
 10
-0.0999999999999996
 20
845.9835000000001
 30
0.0
 11
27.9
 21
845.9835000000001
 31
0.0
  0
LINE
  5
9E
330
1E
100
AcDbEntity
  8
0
100
AcDbLine
 10
-0.0999999999999988
 20
845.9835000000001
 30
0.0
 11
-0.0999999999999988
 21
845.0574999999998
 31
0.0
  0
LINE
  5
9F
330
1E
100
AcDbEntity
  8
0
100
AcDbLine
 10
-0.0999999999999988
 20
845.9835000000001
 30
0.0
 11
27.9
 21
845.9835000000001
 31
0.0
  0
LINE
  5
A0
330
1E
100
AcDbEntity
  8
0
100
AcDbLine
 10
-0.0999999999999988
 20
845.9835000000001
 30
0.0
 11
-0.0999999999999988
 21
846.3834999999999
 31
0.0
  0
LINE
  5
A2
330
1E
100
AcDbEntity
  8
0
100
AcDbLine
 10
28.9
 20
843.7834999999999
 30
0.0
 11
28.9
 21
845.9835000000001
 31
0.0
  0
LINE
  5
A3
330
1E
100
AcDbEntity
  8
0
100
AcDbLine
 10
27.9
 20
843.7834999999999
 30
0.0
 11
27.9
 21
840.9835000000001
 31
0.0
  0
LINE
  5
A4
330
1E
100
AcDbEntity
  8
0
100
AcDbLine
 10
27.9
 20
843.7834999999999
 30
0.0
 11
27.9
 21
845.9835000000001
 31
0.0
  0
LINE
  5
A5
330
1E
100
AcDbEntity
  8
0
100
AcDbLine
 10
28.9
 20
845.9835000000001
 30
0.0
 11
28.9
 21
846.3834999999999
 31
0.0
  0
LINE
  5
A6
330
1E
100
AcDbEntity
  8
0
100
AcDbLine
 10
27.9
 20
845.9835000000001
 30
0.0
 11
27.9
 21
843.7834999999999
 31
0.0
  0
LINE
  5
A7
330
1E
100
AcDbEntity
  8
0
100
AcDbLine
 10
27.9
 20
845.9835000000001
 30
0.0
 11
27.9
 21
844.9964999999998
 31
0.0
  0
LINE
  5
A8
330
1E
100
AcDbEntity
  8
0
100
AcDbLine
 10
27.9
 20
844.9964999999998
 30
0.0
 11
27.9
 21
845.9835000000001
 31
0.0
  0
LINE
  5
A9
330
1E
100
AcDbEntity
  8
0
100
AcDbLine
 10
27.9
 20
844.9964999999998
 30
0.0
 11
27.9
 21
842.9835
 31
0.0
  0
LINE
  5
AA
330
1E
100
AcDbEntity
  8
0
100
AcDbLine
 10
-0.0999999999999988
 20
845.0574999999998
 30
0.0
 11
-0.0999999999999988
 21
842.9835
 31
0.0
  0
LINE
  5
AC
330
1E
100
AcDbEntity
  8
0
100
AcDbLine
 10
-0.0999999999999988
 20
845.0574999999998
 30
0.0
 11
-0.0999999999999988
 21
845.9835000000001
 31
0.0
  0
LINE
  5
AD
330
1E
100
AcDbEntity
  8
0
100
AcDbLine
 10
-0.0999999999999988
 20
842.9835
 30
0.0
 11
-0.0999999999999988
 21
840.4505
 31
0.0
  0
LINE
  5
AE
330
1E
100
AcDbEntity
  8
0
100
AcDbLine
 10
-0.0999999999999988
 20
842.9835
 30
0.0
 11
-0.0999999999999988
 21
845.0574999999998
 31
0.0
  0
LINE
  5
AF
330
1E
100
AcDbEntity
  8
0
100
AcDbLine
 10
29.1
 20
843.7725
 30
0.0
 11
29.1
 21
846.3994999999998
 31
0.0
  0
LINE
  5
B0
330
1E
100
AcDbEntity
  8
0
100
AcDbLine
 10
-0.0999999999999988
 20
847.1834999999998
 30
0.0
 11
-0.0999999999999988
 21
847.0295
 31
0.0
  0
LINE
  5
B1
330
1E
100
AcDbEntity
  8
0
100
AcDbLine
 10
-0.0999999999999988
 20
847.0295
 30
0.0
 11
-0.0999999999999988
 21
848.1834999999998
 31
0.0
  0
LINE
  5
B2
330
1E
100
AcDbEntity
  8
0
100
AcDbLine
 10
-0.0999999999999988
 20
847.0295
 30
0.0
 11
-0.0999999999999988
 21
847.1834999999998
 31
0.0
  0
LINE
  5
B3
330
1E
100
AcDbEntity
  8
0
100
AcDbLine
 10
-0.0999999999999988
 20
847.8835
 30
0.0
 11
-0.0999999999999988
 21
846.3834999999999
 31
0.0
  0
LINE
  5
B4
330
1E
100
AcDbEntity
  8
0
100
AcDbLine
 10
-0.0999999999999988
 20
847.8835
 30
0.0
 11
-0.0999999999999988
 21
848.1834999999998
 31
0.0
  0
LINE
  5
B5
330
1E
100
AcDbEntity
  8
0
100
AcDbLine
 10
28.9
 20
847.8835
 30
0.0
 11
28.9
 21
848.1834999999998
 31
0.0
  0
LINE
  5
B6
330
1E
100
AcDbEntity
  8
0
100
AcDbLine
 10
28.9
 20
846.3834999999999
 30
0.0
 11
28.9
 21
847.8835
 31
0.0
  0
LINE
  5
B7
330
1E
100
AcDbEntity
  8
0
100
AcDbLine
 10
-0.0999999999999988
 20
846.3834999999999
 30
0.0
 11
-0.0999999999999988
 21
845.9835000000001
 31
0.0
  0
LINE
  5
B8
330
1E
100
AcDbEntity
  8
0
100
AcDbLine
 10
-0.0999999999999988
 20
846.3834999999999
 30
0.0
 11
-0.0999999999999988
 21
847.8835
 31
0.0
  0
LINE
  5
B9
330
1E
100
AcDbEntity
  8
0
100
AcDbLine
 10
-0.0999999999999996
 20
848.1834999999998
 30
0.0
 11
27.9
 21
848.1834999999998
 31
0.0
  0
LINE
  5
BA
330
1E
100
AcDbEntity
  8
0
100
AcDbLine
 10
27.9
 20
848.1834999999998
 30
0.0
 11
27.9
 21
848.4835
 31
0.0
  0
LINE
  5
BB
330
1E
100
AcDbEntity
  8
0
100
AcDbLine
 10
27.9
 20
848.4835
 30
0.0
 11
27.9
 21
848.1834999999998
 31
0.0
  0
LINE
  5
BC
330
1E
100
AcDbEntity
  8
0
100
AcDbLine
 10
27.9
 20
848.4835
 30
0.0
 11
28.9
 21
848.4835
 31
0.0
  0
LINE
  5
BD
330
1E
100
AcDbEntity
  8
0
100
AcDbLine
 10
28.9
 20
848.1834999999998
 30
0.0
 11
28.9
 21
848.4835
 31
0.0
  0
LINE
  5
BE
330
1E
100
AcDbEntity
  8
0
100
AcDbLine
 10
-0.0999999999999988
 20
848.1834999999998
 30
0.0
 11
-0.0999999999999988
 21
847.8835
 31
0.0
  0
LINE
  5
BF
330
1E
100
AcDbEntity
  8
0
100
AcDbLine
 10
-0.0999999999999988
 20
848.1834999999998
 30
0.0
 11
27.9
 21
848.1834999999998
 31
0.0
  0
LINE
  5
C0
330
1E
100
AcDbEntity
  8
0
100
AcDbLine
 10
-0.0999999999999988
 20
848.1834999999998
 30
0.0
 11
-0.0999999999999988
 21
847.0295
 31
0.0
  0
LINE
  5
C1
330
1E
100
AcDbEntity
  8
0
100
AcDbLine
 10
29.1
 20
847.9084999999999
 30
0.0
 11
29.1
 21
846.3775000000001
 31
0.0
  0
LINE
  5
C2
330
1E
100
AcDbEntity
  8
0
100
AcDbLine
 10
29.1
 20
847.9574999999998
 30
0.0
 11
29.1
 21
848.5594999999998
 31
0.0
  0
LINE
  5
C3
330
1E
100
AcDbEntity
  8
0
100
AcDbLine
 10
28.856
 20
1157.189499999999
 30
0.0
 11
30.872
 21
1162.2295
 31
0.0
  0
LINE
  5
C5
330
1E
100
AcDbEntity
  8
0
100
AcDbLine
 10
28.1
 20
1151.8135
 30
0.0
 11
28.856
 21
1146.437499999999
 31
0.0
  0
LINE
  5
C6
330
1E
100
AcDbEntity
  8
0
100
AcDbLine
 10
28.1
 20
1151.8135
 30
0.0
 11
28.856
 21
1157.189499999999
 31
0.0
  0
LINE
  5
C8
330
1E
100
AcDbEntity
  8
0
100
AcDbLine
 10
28.856
 20
1146.437499999999
 30
0.0
 11
30.872
 21
1141.3975
 31
0.0
  0
LINE
  5
C9
330
1E
100
AcDbEntity
  8
0
100
AcDbLine
 10
29.1
 20
848.5594999999998
 30
0.0
 11
38.1
 21
848.5594999999998
 31
0.0
  0
LINE
  5
CA
330
1E
100
AcDbEntity
  8
0
100
AcDbLine
 10
29.1
 20
848.5594999999998
 30
0.0
 11
29.1
 21
847.9084999999999
 31
0.0
  0
LINE
  5
CB
330
1E
100
AcDbEntity
  8
0
100
AcDbLine
 10
29.1
 20
846.3994999999998
 30
0.0
 11
29.1
 21
847.9574999999998
 31
0.0
  0
LINE
  5
CC
330
1E
100
AcDbEntity
  8
0
100
AcDbLine
 10
29.1
 20
846.3775000000001
 30
0.0
 11
29.1
 21
843.8084999999999
 31
0.0
  0
LINE
  5
CD
330
1E
100
AcDbEntity
  8
0
100
AcDbLine
 10
29.1
 20
843.8084999999999
 30
0.0
 11
29.1
 21
840.5594999999999
 31
0.0
  0
LINE
  5
CE
330
1E
100
AcDbEntity
  8
0
100
AcDbLine
 10
29.1
 20
840.5594999999999
 30
0.0
 11
29.1
 21
836.6575
 31
0.0
  0
LINE
  5
CF
330
1E
100
AcDbEntity
  8
0
100
AcDbLine
 10
29.1
 20
836.6575
 30
0.0
 11
29.1
 21
832.4994999999999
 31
0.0
  0
LINE
  5
D0
330
1E
100
AcDbEntity
  8
0
100
AcDbLine
 10
29.1
 20
832.5434999999998
 30
0.0
 11
29.1
 21
836.6704999999997
 31
0.0
  0
LINE
  5
D1
330
1E
100
AcDbEntity
  8
0
100
AcDbLine
 10
29.1
 20
836.6704999999997
 30
0.0
 11
29.1
 21
840.5214999999998
 31
0.0
  0
LINE
  5
D2
330
1E
100
AcDbEntity
  8
0
100
AcDbLine
 10
29.1
 20
821.2704999999997
 30
0.0
 11
29.1
 21
818.6434999999999
 31
0.0
  0
LINE
  5
D3
330
1E
100
AcDbEntity
  8
0
100
AcDbLine
 10
49.1
 20
35.8135
 30
0.0
 11
54.47600000000001
 21
36.5695
 31
0.0
  0
LINE
  5
DA
330
1E
100
AcDbEntity
  8
0
100
AcDbLine
 10
30.872
 20
46.3975
 30
0.0
 11
34.232
 21
41.9455
 31
0.0
  0
LINE
  5
DC
330
1E
100
AcDbEntity
  8
0
100
AcDbLine
 10
34.232
 20
41.9455
 30
0.0
 11
38.68399999999999
 21
38.5855
 31
0.0
  0
LINE
  5
E6
330
1E
100
AcDbEntity
  8
0
100
AcDbLine
 10
38.68399999999999
 20
38.5855
 30
0.0
 11
43.72399999999998
 21
36.5695
 31
0.0
  0
LINE
  5
E7
330
1E
100
AcDbEntity
  8
0
100
AcDbLine
 10
43.72399999999998
 20
36.5695
 30
0.0
 11
49.1
 21
35.8135
 31
0.0
  0
LINE
  5
E8
330
1E
100
AcDbEntity
  8
0
100
AcDbLine
 10
43.72399999999998
 20
36.5695
 30
0.0
 11
49.1
 21
35.8135
 31
0.0
  0
LINE
  5
ED
330
1E
100
AcDbEntity
  8
0
100
AcDbLine
 10
30.872
 20
67.2295
 30
0.0
 11
34.232
 21
71.6815
 31
0.0
  0
LINE
  5
F5
330
1E
100
AcDbEntity
  8
0
100
AcDbLine
 10
34.232
 20
71.6815
 30
0.0
 11
38.1077006017431
 21
74.6065570579194
 31
0.0
  0
LINE
  5
F6
330
1E
100
AcDbEntity
  8
0
100
AcDbLine
 10
34.232
 20
71.6815
 30
0.0
 11
38.68399999999999
 21
75.0415
 31
0.0
  0
LINE
  5
F7
330
1E
100
AcDbEntity
  8
0
100
AcDbLine
 10
34.232
 20
71.6815
 30
0.0
 11
38.1
 21
74.60074528301891
 31
0.0
  0
LINE
  5
10C
330
1E
100
AcDbEntity
  8
0
100
AcDbLine
 10
59.516
 20
38.5855
 30
0.0
 11
63.968
 21
41.9455
 31
0.0
  0
LINE
  5
10D
330
1E
100
AcDbEntity
  8
0
100
AcDbLine
 10
54.47600000000001
 20
36.5695
 30
0.0
 11
59.516
 21
38.5855
 31
0.0
  0
LINE
  5
10E
330
1E
100
AcDbEntity
  8
0
100
AcDbLine
 10
49.1
 20
35.8135
 30
0.0
 11
54.47600000000001
 21
36.5695
 31
0.0
  0
LINE
  5
10F
330
1E
100
AcDbEntity
  8
0
100
AcDbLine
 10
47.0
 20
77.51819999999998
 30
0.0
 11
49.1
 21
77.8135
 31
0.0
  0
LINE
  5
110
330
1E
100
AcDbEntity
  8
0
100
AcDbLine
 10
43.72399999999998
 20
77.0575
 30
0.0
 11
47.0
 21
77.51819999999998
 31
0.0
  0
LINE
  5
112
330
1E
100
AcDbEntity
  8
0
100
AcDbLine
 10
38.68399999999999
 20
75.0415
 30
0.0
 11
43.72399999999998
 21
77.0575
 31
0.0
  0
LINE
  5
113
330
1E
100
AcDbEntity
  8
0
100
AcDbLine
 10
59.516
 20
75.0415
 30
0.0
 11
63.968
 21
71.6815
 31
0.0
  0
LINE
  5
114
330
1E
100
AcDbEntity
  8
0
100
AcDbLine
 10
54.47600000000001
 20
77.0575
 30
0.0
 11
59.516
 21
75.0415
 31
0.0
  0
LINE
  5
115
330
1E
100
AcDbEntity
  8
0
100
AcDbLine
 10
51.2
 20
77.51819999999998
 30
0.0
 11
54.47600000000001
 21
77.0575
 31
0.0
  0
LINE
  5
116
330
1E
100
AcDbEntity
  8
0
100
AcDbLine
 10
49.1
 20
77.8135
 30
0.0
 11
51.2
 21
77.51819999999998
 31
0.0
  0
LINE
  5
117
330
1E
100
AcDbEntity
  8
0
100
AcDbLine
 10
38.1077006017431
 20
74.60655705791942
 30
0.0
 11
38.1
 21
816.6189499999999
 31
0.0
  0
LINE
  5
11D
330
1E
100
AcDbEntity
  8
0
100
AcDbLine
 10
63.968
 20
71.6815
 30
0.0
 11
67.32800000000001
 21
67.2295
 31
0.0
  0
LINE
  5
11E
330
1E
100
AcDbEntity
  8
0
100
AcDbLine
 10
67.32800000000001
 20
67.2295
 30
0.0
 11
69.344
 21
62.1895
 31
0.0
  0
LINE
  5
124
330
1E
100
AcDbEntity
  8
0
100
AcDbLine
 10
69.344
 20
62.1895
 30
0.0
 11
70.09999999999999
 21
56.8135
 31
0.0
  0
LINE
  5
127
330
1E
100
AcDbEntity
  8
0
100
AcDbLine
 10
69.344
 20
51.4375
 30
0.0
 11
70.09999999999999
 21
56.8135
 31
0.0
  0
LINE
  5
128
330
1E
100
AcDbEntity
  8
0
100
AcDbLine
 10
67.32800000000001
 20
46.3975
 30
0.0
 11
69.344
 21
51.4375
 31
0.0
  0
LINE
  5
12A
330
1E
100
AcDbEntity
  8
0
100
AcDbLine
 10
63.968
 20
41.9455
 30
0.0
 11
67.32800000000001
 21
46.3975
 31
0.0
  0
LINE
  5
12B
330
1E
100
AcDbEntity
  8
0
100
AcDbLine
 10
60.09999999999997
 20
74.60074528301891
 30
0.0
 11
60.1
 21
816.4835
 31
0.0
  0
LINE
  5
12C
330
1E
100
AcDbEntity
  8
0
100
AcDbLine
 10
60.1
 20
74.60074528301891
 30
0.0
 11
63.968
 21
71.6815
 31
0.0
  0
LINE
  5
12D
330
1E
100
AcDbEntity
  8
0
100
AcDbLine
 10
69.1
 20
816.4835
 30
0.0
 11
72.09999999999998
 21
816.4835
 31
0.0
  0
LINE
  5
12E
330
1E
100
AcDbEntity
  8
0
100
AcDbLine
 10
74.2898
 20
0.186500000000043
 30
0.0
 11
75.1756
 21
705.5325
 31
0.0
  0
LINE
  5
12F
330
1E
100
AcDbEntity
  8
0
100
AcDbLine
 10
74.2898
 20
0.186500000000043
 30
0.0
 11
74.55289999999997
 21
0.315500000000034
 31
0.0
  0
LINE
  5
130
330
1E
100
AcDbEntity
  8
0
100
AcDbLine
 10
74.2898
 20
0.186500000000043
 30
0.0
 11
75.1756
 21
705.5325
 31
0.0
  0
LINE
  5
131
330
1E
100
AcDbEntity
  8
0
100
AcDbLine
 10
74.55289999999997
 20
0.315500000000034
 30
0.0
 11
75.98390000000001
 21
1.018500000000069
 31
0.0
  0
LINE
  5
132
330
1E
100
AcDbEntity
  8
0
100
AcDbLine
 10
75.89722016132741
 20
0.9759172420777478
 30
0.0
 11
76.20585364687629
 21
1.12737523514086
 31
0.0
  0
LINE
  5
133
330
1E
100
AcDbEntity
  8
0
100
AcDbLine
 10
75.98390000000001
 20
1.018500000000069
 30
0.0
 11
78.38129999999998
 21
2.19450000000008
 31
0.0
  0
LINE
  5
134
330
1E
100
AcDbEntity
  8
0
100
AcDbLine
 10
83.20529999999997
 20
4.561500000000039
 30
0.0
 11
85.07203593954299
 21
5.477768147550089
 31
0.0
  0
LINE
  5
135
330
1E
100
AcDbEntity
  8
0
100
AcDbLine
 10
88.32029991339608
 20
7.07209728637478
 30
0.0
 11
88.5106
 21
7.165500000000058
 31
0.0
  0
LINE
  5
136
330
1E
100
AcDbEntity
  8
0
100
AcDbLine
 10
88.5106
 20
7.165500000000058
 30
0.0
 11
89.94530000000002
 21
7.869500000000058
 31
0.0
  0
LINE
  5
137
330
1E
100
AcDbEntity
  8
0
100
AcDbLine
 10
90.212
 20
8.000500000000059
 30
0.0
 11
91.1758
 21
705.5315
 31
0.0
  0
LINE
  5
138
330
1E
100
AcDbEntity
  8
0
100
AcDbLine
 10
89.94530000000002
 20
7.869500000000058
 30
0.0
 11
90.212
 21
8.000500000000059
 31
0.0
  0
LINE
  5
139
330
1E
100
AcDbEntity
  8
0
100
AcDbLine
 10
90.212
 20
8.000500000000059
 30
0.0
 11
91.1758
 21
705.5315
 31
0.0
  0
LINE
  5
13A
330
1E
100
AcDbEntity
  8
0
100
AcDbLine
 10
89.1819
 20
7.49550000000004
 30
0.0
 11
90.212
 21
8.000500000000059
 31
0.0
  0
LINE
  5
13B
330
1E
100
AcDbEntity
  8
0
100
AcDbLine
 10
87.24259999999999
 20
6.54250000000007
 30
0.0
 11
89.1819
 21
7.49550000000004
 31
0.0
  0
LINE
  5
13C
330
1E
100
AcDbEntity
  8
0
100
AcDbLine
 10
84.44360000000001
 20
5.16950000000008
 30
0.0
 11
87.24259999999999
 21
6.54250000000007
 31
0.0
  0
LINE
  5
13D
330
1E
100
AcDbEntity
  8
0
100
AcDbLine
 10
81.29389999999999
 20
3.62450000000006
 30
0.0
 11
84.44360000000001
 21
5.16950000000008
 31
0.0
  0
LINE
  5
13E
330
1E
100
AcDbEntity
  8
0
100
AcDbLine
 10
91.15959999999999
 20
738.5325
 30
0.0
 11
91.1758
 21
705.5315
 31
0.0
  0
LINE
  5
13F
330
1E
100
AcDbEntity
  8
0
100
AcDbLine
 10
80.21066777152251
 20
3.092665183436588
 30
0.0
 11
83.20529999999997
 21
4.561500000000039
 31
0.0
  0
LINE
  5
140
330
1E
100
AcDbEntity
  8
0
100
AcDbLine
 10
78.38129999999998
 20
2.19450000000008
 30
0.0
 11
81.29389999999999
 21
3.62450000000006
 31
0.0
  0
LINE
  5
141
330
1E
100
AcDbEntity
  8
0
100
AcDbLine
 10
75.1597
 20
738.5334999999998
 30
0.0
 11
75.1756
 21
705.5325
 31
0.0
  0
LINE
  5
142
330
1E
100
AcDbEntity
  8
0
100
AcDbLine
 10
91.1306
 20
761.5394999999998
 30
0.0
 11
91.15959999999999
 21
738.5325
 31
0.0
  0
LINE
  5
143
330
1E
100
AcDbEntity
  8
0
100
AcDbLine
 10
91.08960000000001
 20
786.3364999999999
 30
0.0
 11
91.1306
 21
761.5394999999998
 31
0.0
  0
LINE
  5
144
330
1E
100
AcDbEntity
  8
0
100
AcDbLine
 10
75.1316
 20
761.5304999999998
 30
0.0
 11
75.1597
 21
738.5334999999998
 31
0.0
  0
LINE
  5
145
330
1E
100
AcDbEntity
  8
0
100
AcDbLine
 10
75.08969999999997
 20
786.3274999999998
 30
0.0
 11
75.1316
 21
761.5304999999998
 31
0.0
  0
LINE
  5
146
330
1E
100
AcDbEntity
  8
0
100
AcDbLine
 10
91.03469999999999
 20
811.4334999999998
 30
0.0
 11
91.08960000000001
 21
786.3364999999999
 31
0.0
  0
LINE
  5
147
330
1E
100
AcDbEntity
  8
0
100
AcDbLine
 10
75.03579999999998
 20
811.4244999999998
 30
0.0
 11
75.08969999999997
 21
786.3274999999998
 31
0.0
  0
LINE
  5
148
330
1E
100
AcDbEntity
  8
0
100
AcDbLine
 10
72.09999999999998
 20
816.4835
 30
0.0
 11
72.09999999999998
 21
817.0854999999999
 31
0.0
  0
LINE
  5
149
330
1E
100
AcDbEntity
  8
0
100
AcDbLine
 10
38.1
 20
816.6189499999999
 30
0.0
 11
38.1
 21
254.6007452830189
 31
0.0
  0
LINE
  5
14A
330
1E
100
AcDbEntity
  8
0
100
AcDbLine
 10
72.09999999999998
 20
817.0854999999999
 30
0.0
 11
72.09999999999998
 21
818.6434999999999
 31
0.0
  0
LINE
  5
14B
330
1E
100
AcDbEntity
  8
0
100
AcDbLine
 10
38.68399999999999
 20
1133.5855
 30
0.0
 11
43.72399999999998
 21
1131.5695
 31
0.0
  0
LINE
  5
14C
330
1E
100
AcDbEntity
  8
0
100
AcDbLine
 10
43.72399999999998
 20
1131.5695
 30
0.0
 11
47.0
 21
1131.1085
 31
0.0
  0
LINE
  5
14E
330
1E
100
AcDbEntity
  8
0
100
AcDbLine
 10
47.0
 20
1131.1085
 30
0.0
 11
49.1
 21
1130.8135
 31
0.0
  0
LINE
  5
14F
330
1E
100
AcDbEntity
  8
0
100
AcDbLine
 10
59.516
 20
1133.5855
 30
0.0
 11
63.968
 21
1136.9455
 31
0.0
  0
LINE
  5
150
330
1E
100
AcDbEntity
  8
0
100
AcDbLine
 10
54.47600000000001
 20
1131.5695
 30
0.0
 11
59.516
 21
1133.5855
 31
0.0
  0
LINE
  5
151
330
1E
100
AcDbEntity
  8
0
100
AcDbLine
 10
51.2
 20
1131.1085
 30
0.0
 11
54.47600000000001
 21
1131.5695
 31
0.0
  0
LINE
  5
152
330
1E
100
AcDbEntity
  8
0
100
AcDbLine
 10
49.1
 20
1130.8135
 30
0.0
 11
51.2
 21
1131.1085
 31
0.0
  0
LINE
  5
153
330
1E
100
AcDbEntity
  8
0
100
AcDbLine
 10
38.1
 20
848.5594999999998
 30
0.0
 11
38.1
 21
1134.026254716981
 31
0.0
  0
LINE
  5
154
330
1E
100
AcDbEntity
  8
0
100
AcDbLine
 10
60.1
 20
1134.026254716981
 30
0.0
 11
60.1
 21
848.4130249999997
 31
0.0
  0
LINE
  5
155
330
1E
100
AcDbEntity
  8
0
100
AcDbLine
 10
60.1
 20
848.4130249999997
 30
0.0
 11
60.1
 21
1134.026254716981
 31
0.0
  0
LINE
  5
159
330
1E
100
AcDbEntity
  8
0
100
AcDbLine
 10
30.872
 20
1141.3975
 30
0.0
 11
34.232
 21
1136.9455
 31
0.0
  0
LINE
  5
161
330
1E
100
AcDbEntity
  8
0
100
AcDbLine
 10
34.232
 20
1136.9455
 30
0.0
 11
38.68399999999999
 21
1133.5855
 31
0.0
  0
LINE
  5
168
330
1E
100
AcDbEntity
  8
0
100
AcDbLine
 10
30.872
 20
1162.2295
 30
0.0
 11
34.232
 21
1166.6815
 31
0.0
  0
LINE
  5
16A
330
1E
100
AcDbEntity
  8
0
100
AcDbLine
 10
34.232
 20
1166.6815
 30
0.0
 11
38.68399999999999
 21
1170.0415
 31
0.0
  0
LINE
  5
174
330
1E
100
AcDbEntity
  8
0
100
AcDbLine
 10
38.68399999999999
 20
1170.0415
 30
0.0
 11
43.72399999999998
 21
1172.057499999999
 31
0.0
  0
LINE
  5
175
330
1E
100
AcDbEntity
  8
0
100
AcDbLine
 10
43.72399999999998
 20
1172.057499999999
 30
0.0
 11
49.1
 21
1172.813499999999
 31
0.0
  0
LINE
  5
18B
330
1E
100
AcDbEntity
  8
0
100
AcDbLine
 10
59.516
 20
1170.0415
 30
0.0
 11
63.968
 21
1166.6815
 31
0.0
  0
LINE
  5
18C
330
1E
100
AcDbEntity
  8
0
100
AcDbLine
 10
54.47600000000001
 20
1172.057499999999
 30
0.0
 11
59.516
 21
1170.0415
 31
0.0
  0
LINE
  5
18D
330
1E
100
AcDbEntity
  8
0
100
AcDbLine
 10
49.1
 20
1172.813499999999
 30
0.0
 11
54.47600000000001
 21
1172.057499999999
 31
0.0
  0
LINE
  5
18E
330
1E
100
AcDbEntity
  8
0
100
AcDbLine
 10
38.1
 20
1134.026254716981
 30
0.0
 11
38.1
 21
848.5594999999998
 31
0.0
  0
LINE
  5
195
330
1E
100
AcDbEntity
  8
0
100
AcDbLine
 10
63.968
 20
1166.6815
 30
0.0
 11
67.32800000000001
 21
1162.2295
 31
0.0
  0
LINE
  5
196
330
1E
100
AcDbEntity
  8
0
100
AcDbLine
 10
67.32800000000001
 20
1141.3975
 30
0.0
 11
69.344
 21
1146.437499999999
 31
0.0
  0
LINE
  5
197
330
1E
100
AcDbEntity
  8
0
100
AcDbLine
 10
69.344
 20
1146.437499999999
 30
0.0
 11
70.09999999999999
 21
1151.8135
 31
0.0
  0
LINE
  5
19E
330
1E
100
AcDbEntity
  8
0
100
AcDbLine
 10
69.344
 20
1157.189499999999
 30
0.0
 11
70.09999999999999
 21
1151.8135
 31
0.0
  0
LINE
  5
19F
330
1E
100
AcDbEntity
  8
0
100
AcDbLine
 10
67.32800000000001
 20
1162.2295
 30
0.0
 11
69.344
 21
1157.189499999999
 31
0.0
  0
LINE
  5
1A1
330
1E
100
AcDbEntity
  8
0
100
AcDbLine
 10
63.968
 20
1136.9455
 30
0.0
 11
67.32800000000001
 21
1141.3975
 31
0.0
  0
LINE
  5
1A2
330
1E
100
AcDbEntity
  8
0
100
AcDbLine
 10
69.1
 20
848.5594999999998
 30
0.0
 11
70.09999999999999
 21
848.5594999999998
 31
0.0
  0
LINE
  5
1A3
330
1E
100
AcDbEntity
  8
0
100
AcDbLine
 10
38.1
 20
848.5594999999998
 30
0.0
 11
69.1
 21
848.5594999999998
 31
0.0
  0
LINE
  5
1A4
330
1E
100
AcDbEntity
  8
0
100
AcDbLine
 10
70.09999999999999
 20
848.1255
 30
0.0
 11
70.09999999999999
 21
882.7865
 31
0.0
  0
LINE
  5
1A5
330
1E
100
AcDbEntity
  8
0
100
AcDbLine
 10
72.09999999999998
 20
836.6575
 30
0.0
 11
72.09999999999998
 21
840.5594999999999
 31
0.0
  0
LINE
  5
1A6
330
1E
100
AcDbEntity
  8
0
100
AcDbLine
 10
72.09999999999998
 20
832.4994999999999
 30
0.0
 11
72.09999999999998
 21
836.6575
 31
0.0
  0
LINE
  5
1A7
330
1E
100
AcDbEntity
  8
0
100
AcDbLine
 10
72.09999999999998
 20
828.3724999999998
 30
0.0
 11
72.09999999999998
 21
832.4994999999999
 31
0.0
  0
LINE
  5
1A8
330
1E
100
AcDbEntity
  8
0
100
AcDbLine
 10
72.09999999999998
 20
824.5214999999998
 30
0.0
 11
72.09999999999998
 21
828.3724999999998
 31
0.0
  0
LINE
  5
1A9
330
1E
100
AcDbEntity
  8
0
100
AcDbLine
 10
72.09999999999998
 20
843.8084999999999
 30
0.0
 11
72.09999999999998
 21
846.3775000000001
 31
0.0
  0
LINE
  5
1AA
330
1E
100
AcDbEntity
  8
0
100
AcDbLine
 10
72.09999999999998
 20
840.5594999999999
 30
0.0
 11
72.09999999999998
 21
843.8084999999999
 31
0.0
  0
LINE
  5
1AB
330
1E
100
AcDbEntity
  8
0
100
AcDbLine
 10
72.09999999999998
 20
840.3726428571427
 30
0.0
 11
73.9
 21
839.2154999999998
 31
0.0
  0
LINE
  5
1AC
330
1E
100
AcDbEntity
  8
0
100
AcDbLine
 10
71.79999999999998
 20
879.5365
 30
0.0
 11
73.9
 21
878.1864999999998
 31
0.0
  0
LINE
  5
1AD
330
1E
100
AcDbEntity
  8
0
100
AcDbLine
 10
72.09999999999998
 20
884.1865
 30
0.0
 11
73.59999999999998
 21
885.5365
 31
0.0
  0
LINE
  5
1AE
330
1E
100
AcDbEntity
  8
0
100
AcDbLine
 10
72.09999999999998
 20
884.1865
 30
0.0
 11
72.09999999999998
 21
882.7865
 31
0.0
  0
LINE
  5
1AF
330
1E
100
AcDbEntity
  8
0
100
AcDbLine
 10
71.79999999999998
 20
886.0364999999999
 30
0.0
 11
73.9
 21
887.3864999999998
 31
0.0
  0
LINE
  5
1B0
330
1E
100
AcDbEntity
  8
0
100
AcDbLine
 10
70.59999999999998
 20
884.4864999999998
 30
0.0
 11
71.79999999999998
 21
886.0364999999999
 31
0.0
  0
LINE
  5
1B1
330
1E
100
AcDbEntity
  8
0
100
AcDbLine
 10
72.09999999999998
 20
882.7865
 30
0.0
 11
72.09999999999998
 21
881.3864999999999
 31
0.0
  0
LINE
  5
1B2
330
1E
100
AcDbEntity
  8
0
100
AcDbLine
 10
72.09999999999998
 20
882.7865
 30
0.0
 11
72.09999999999998
 21
884.1865
 31
0.0
  0
LINE
  5
1B3
330
1E
100
AcDbEntity
  8
0
100
AcDbLine
 10
72.09999999999998
 20
881.3864999999999
 30
0.0
 11
72.09999999999998
 21
882.7865
 31
0.0
  0
LINE
  5
1B4
330
1E
100
AcDbEntity
  8
0
100
AcDbLine
 10
72.09999999999998
 20
881.3864999999999
 30
0.0
 11
73.59999999999998
 21
880.0365000000001
 31
0.0
  0
LINE
  5
1B5
330
1E
100
AcDbEntity
  8
0
100
AcDbLine
 10
70.59999999999998
 20
881.0864999999999
 30
0.0
 11
71.79999999999998
 21
879.5365
 31
0.0
  0
LINE
  5
1B6
330
1E
100
AcDbEntity
  8
0
100
AcDbLine
 10
70.09999999999999
 20
882.7865
 30
0.0
 11
70.09999999999999
 21
848.1255
 31
0.0
  0
LINE
  5
1B7
330
1E
100
AcDbEntity
  8
0
100
AcDbLine
 10
70.09999999999999
 20
882.7865
 30
0.0
 11
70.59999999999998
 21
881.0864999999999
 31
0.0
  0
LINE
  5
1B8
330
1E
100
AcDbEntity
  8
0
100
AcDbLine
 10
70.09999999999999
 20
882.7865
 30
0.0
 11
70.59999999999998
 21
884.4864999999998
 31
0.0
  0
LINE
  5
1B9
330
1E
100
AcDbEntity
  8
0
100
AcDbLine
 10
72.09999999999998
 20
818.6434999999999
 30
0.0
 11
72.09999999999998
 21
821.2704999999997
 31
0.0
  0
LINE
  5
1BA
330
1E
100
AcDbEntity
  8
0
100
AcDbLine
 10
74.96559999999998
 20
834.5304999999997
 30
0.0
 11
75.05770503938498
 21
839.7943525196918
 31
0.0
  0
LINE
  5
1BB
330
1E
100
AcDbEntity
  8
0
100
AcDbLine
 10
74.96559999999998
 20
834.5304999999997
 30
0.0
 11
75.03579999999998
 21
811.4244999999998
 31
0.0
  0
LINE
  5
1BD
330
1E
100
AcDbEntity
  8
0
100
AcDbLine
 10
90.96479999999999
 20
834.5295
 30
0.0
 11
91.05817230813078
 21
839.8364138459349
 31
0.0
  0
LINE
  5
1BE
330
1E
100
AcDbEntity
  8
0
100
AcDbLine
 10
90.96479999999999
 20
834.5295
 30
0.0
 11
91.03469999999999
 21
811.4334999999998
 31
0.0
  0
LINE
  5
1C5
330
1E
100
AcDbEntity
  8
0
100
AcDbLine
 10
92.3
 20
839.2154999999998
 30
0.0
 11
94.40000000000001
 21
840.5655000000001
 31
0.0
  0
LINE
  5
1C7
330
1E
100
AcDbEntity
  8
0
100
AcDbLine
 10
73.9
 20
887.3864999999998
 30
0.0
 11
76.6
 21
888.4365
 31
0.0
  0
LINE
  5
1C8
330
1E
100
AcDbEntity
  8
0
100
AcDbLine
 10
73.59999999999998
 20
885.5365
 30
0.0
 11
75.3
 21
886.6864999999998
 31
0.0
  0
LINE
  5
1C9
330
1E
100
AcDbEntity
  8
0
100
AcDbLine
 10
73.59999999999998
 20
880.0365000000001
 30
0.0
 11
75.3
 21
878.8864999999999
 31
0.0
  0
LINE
  5
1CA
330
1E
100
AcDbEntity
  8
0
100
AcDbLine
 10
75.0
 20
878.6515000000001
 30
0.0
 11
77.40000000000001
 21
877.7015
 31
0.0
  0
LINE
  5
1CB
330
1E
100
AcDbEntity
  8
0
100
AcDbLine
 10
74.92488372093008
 20
878.6989418604649
 30
0.0
 11
75.0
 21
878.6515000000001
 31
0.0
  0
LINE
  5
1CC
330
1E
100
AcDbEntity
  8
0
100
AcDbLine
 10
75.3
 20
853.6298749999998
 30
0.0
 11
76.0
 21
853.1704999999998
 31
0.0
  0
LINE
  5
1CD
330
1E
100
AcDbEntity
  8
0
100
AcDbLine
 10
90.90000000000001
 20
839.9154999999998
 30
0.0
 11
90.90000000000001
 21
878.8014999999999
 31
0.0
  0
LINE
  5
1CF
330
1E
100
AcDbEntity
  8
0
100
AcDbLine
 10
90.90000000000001
 20
839.9154999999998
 30
0.0
 11
92.3
 21
839.2154999999998
 31
0.0
  0
LINE
  5
1D0
330
1E
100
AcDbEntity
  8
0
100
AcDbLine
 10
94.40000000000001
 20
840.5655000000001
 30
0.0
 11
95.6
 21
842.1154999999998
 31
0.0
  0
LINE
  5
1D3
330
1E
100
AcDbEntity
  8
0
100
AcDbLine
 10
83.1
 20
851.7204999999998
 30
0.0
 11
85.7
 21
851.9204999999997
 31
0.0
  0
LINE
  5
1D4
330
1E
100
AcDbEntity
  8
0
100
AcDbLine
 10
85.7
 20
851.9204999999997
 30
0.0
 11
88.1
 21
852.3704999999999
 31
0.0
  0
LINE
  5
1D5
330
1E
100
AcDbEntity
  8
0
100
AcDbLine
 10
88.1
 20
852.3704999999999
 30
0.0
 11
90.20000000000001
 21
853.1704999999998
 31
0.0
  0
LINE
  5
1D6
330
1E
100
AcDbEntity
  8
0
100
AcDbLine
 10
80.5
 20
851.9204999999997
 30
0.0
 11
83.1
 21
851.7204999999998
 31
0.0
  0
LINE
  5
1D7
330
1E
100
AcDbEntity
  8
0
100
AcDbLine
 10
83.1
 20
876.9515
 30
0.0
 11
86.09999999999997
 21
877.1515000000002
 31
0.0
  0
LINE
  5
1D8
330
1E
100
AcDbEntity
  8
0
100
AcDbLine
 10
86.09999999999997
 20
877.1515000000002
 30
0.0
 11
88.8
 21
877.7015
 31
0.0
  0
LINE
  5
1D9
330
1E
100
AcDbEntity
  8
0
100
AcDbLine
 10
90.20000000000001
 20
853.1704999999998
 30
0.0
 11
90.90000000000001
 21
853.6298749999998
 31
0.0
  0
LINE
  5
1DA
330
1E
100
AcDbEntity
  8
0
100
AcDbLine
 10
88.8
 20
877.7015
 30
0.0
 11
91.2
 21
878.6515000000001
 31
0.0
  0
LINE
  5
1DB
330
1E
100
AcDbEntity
  8
0
100
AcDbLine
 10
80.09999999999998
 20
877.1515000000002
 30
0.0
 11
83.1
 21
876.9515
 31
0.0
  0
LINE
  5
1DC
330
1E
100
AcDbEntity
  8
0
100
AcDbLine
 10
77.40000000000001
 20
877.7015
 30
0.0
 11
80.09999999999998
 21
877.1515000000002
 31
0.0
  0
LINE
  5
1DD
330
1E
100
AcDbEntity
  8
0
100
AcDbLine
 10
78.09999999999998
 20
852.3704999999999
 30
0.0
 11
80.5
 21
851.9204999999997
 31
0.0
  0
LINE
  5
1DE
330
1E
100
AcDbEntity
  8
0
100
AcDbLine
 10
76.0
 20
853.1704999999998
 30
0.0
 11
78.09999999999998
 21
852.3704999999999
 31
0.0
  0
LINE
  5
1DF
330
1E
100
AcDbEntity
  8
0
100
AcDbLine
 10
90.90000000000001
 20
878.8014999999999
 30
0.0
 11
90.90000000000001
 21
878.8864999999999
 31
0.0
  0
LINE
  5
1E0
330
1E
100
AcDbEntity
  8
0
100
AcDbLine
 10
91.2
 20
878.6515000000001
 30
0.0
 11
91.27511627906981
 21
878.6989418604649
 31
0.0
  0
LINE
  5
1E1
330
1E
100
AcDbEntity
  8
0
100
AcDbLine
 10
90.90000000000001
 20
878.8864999999999
 30
0.0
 11
92.3
 21
878.1864999999998
 31
0.0
  0
LINE
  5
1E2
330
1E
100
AcDbEntity
  8
0
100
AcDbLine
 10
90.90000000000001
 20
878.8864999999999
 30
0.0
 11
92.59999999999999
 21
880.0365000000001
 31
0.0
  0
LINE
  5
1E3
330
1E
100
AcDbEntity
  8
0
100
AcDbLine
 10
92.3
 20
878.1864999999998
 30
0.0
 11
92.3
 21
839.2154999999998
 31
0.0
  0
LINE
  5
1E4
330
1E
100
AcDbEntity
  8
0
100
AcDbLine
 10
92.3
 20
878.1864999999998
 30
0.0
 11
94.40000000000001
 21
879.5365
 31
0.0
  0
LINE
  5
1E5
330
1E
100
AcDbEntity
  8
0
100
AcDbLine
 10
96.09999999999999
 20
843.8155
 30
0.0
 11
96.09999999999999
 21
882.7865
 31
0.0
  0
LINE
  5
1E6
330
1E
100
AcDbEntity
  8
0
100
AcDbLine
 10
95.6
 20
842.1154999999998
 30
0.0
 11
96.09999999999999
 21
843.8155
 31
0.0
  0
LINE
  5
1E7
330
1E
100
AcDbEntity
  8
0
100
AcDbLine
 10
75.3
 20
878.8014999999999
 30
0.0
 11
75.3
 21
839.9154999999998
 31
0.0
  0
LINE
  5
1E8
330
1E
100
AcDbEntity
  8
0
100
AcDbLine
 10
75.3
 20
886.6864999999998
 30
0.0
 11
77.59999999999998
 21
887.5365
 31
0.0
  0
LINE
  5
1E9
330
1E
100
AcDbEntity
  8
0
100
AcDbLine
 10
77.59999999999998
 20
887.5365
 30
0.0
 11
80.29999999999999
 21
888.2865
 31
0.0
  0
LINE
  5
1EA
330
1E
100
AcDbEntity
  8
0
100
AcDbLine
 10
76.6
 20
888.4365
 30
0.0
 11
79.7
 21
889.0365
 31
0.0
  0
LINE
  5
1EB
330
1E
100
AcDbEntity
  8
0
100
AcDbLine
 10
90.90000000000001
 20
886.6864999999998
 30
0.0
 11
92.59999999999999
 21
885.5365
 31
0.0
  0
LINE
  5
1EC
330
1E
100
AcDbEntity
  8
0
100
AcDbLine
 10
92.59999999999999
 20
885.5365
 30
0.0
 11
94.1
 21
884.1865
 31
0.0
  0
LINE
  5
1ED
330
1E
100
AcDbEntity
  8
0
100
AcDbLine
 10
94.1
 20
884.1865
 30
0.0
 11
94.1
 21
882.7865
 31
0.0
  0
LINE
  5
1EE
330
1E
100
AcDbEntity
  8
0
100
AcDbLine
 10
88.59999999999997
 20
887.5365
 30
0.0
 11
90.90000000000001
 21
886.6864999999998
 31
0.0
  0
LINE
  5
1EF
330
1E
100
AcDbEntity
  8
0
100
AcDbLine
 10
85.90000000000001
 20
888.2865
 30
0.0
 11
88.59999999999997
 21
887.5365
 31
0.0
  0
LINE
  5
1F0
330
1E
100
AcDbEntity
  8
0
100
AcDbLine
 10
83.1
 20
888.2865
 30
0.0
 11
85.90000000000001
 21
888.2865
 31
0.0
  0
LINE
  5
1F1
330
1E
100
AcDbEntity
  8
0
100
AcDbLine
 10
92.3
 20
887.3864999999998
 30
0.0
 11
94.40000000000001
 21
886.0364999999999
 31
0.0
  0
LINE
  5
1F2
330
1E
100
AcDbEntity
  8
0
100
AcDbLine
 10
94.1
 20
881.3864999999999
 30
0.0
 11
94.1
 21
882.7865
 31
0.0
  0
LINE
  5
1F3
330
1E
100
AcDbEntity
  8
0
100
AcDbLine
 10
92.59999999999999
 20
880.0365000000001
 30
0.0
 11
94.1
 21
881.3864999999999
 31
0.0
  0
LINE
  5
1F4
330
1E
100
AcDbEntity
  8
0
100
AcDbLine
 10
94.40000000000001
 20
886.0364999999999
 30
0.0
 11
95.6
 21
884.4864999999998
 31
0.0
  0
LINE
  5
1F5
330
1E
100
AcDbEntity
  8
0
100
AcDbLine
 10
95.6
 20
884.4864999999998
 30
0.0
 11
96.09999999999999
 21
882.7865
 31
0.0
  0
LINE
  5
1F6
330
1E
100
AcDbEntity
  8
0
100
AcDbLine
 10
94.1
 20
882.7865
 30
0.0
 11
94.1
 21
881.3864999999999
 31
0.0
  0
LINE
  5
1F7
330
1E
100
AcDbEntity
  8
0
100
AcDbLine
 10
94.1
 20
882.7865
 30
0.0
 11
94.1
 21
884.1865
 31
0.0
  0
LINE
  5
1F8
330
1E
100
AcDbEntity
  8
0
100
AcDbLine
 10
94.40000000000001
 20
879.5365
 30
0.0
 11
95.6
 21
881.0864999999999
 31
0.0
  0
LINE
  5
1F9
330
1E
100
AcDbEntity
  8
0
100
AcDbLine
 10
96.09999999999999
 20
882.7865
 30
0.0
 11
96.09999999999999
 21
843.8155
 31
0.0
  0
LINE
  5
1FA
330
1E
100
AcDbEntity
  8
0
100
AcDbLine
 10
95.6
 20
881.0864999999999
 30
0.0
 11
96.09999999999999
 21
882.7865
 31
0.0
  0
LINE
  5
1FB
330
1E
100
AcDbEntity
  8
0
100
AcDbLine
 10
89.59999999999999
 20
888.4365
 30
0.0
 11
92.3
 21
887.3864999999998
 31
0.0
  0
LINE
  5
1FC
330
1E
100
AcDbEntity
  8
0
100
AcDbLine
 10
86.5
 20
889.0365
 30
0.0
 11
89.59999999999999
 21
888.4365
 31
0.0
  0
LINE
  5
1FD
330
1E
100
AcDbEntity
  8
0
100
AcDbLine
 10
83.1
 20
889.2865
 30
0.0
 11
86.5
 21
889.0365
 31
0.0
  0
LINE
  5
1FE
330
1E
100
AcDbEntity
  8
0
100
AcDbLine
 10
80.29999999999999
 20
888.2865
 30
0.0
 11
83.1
 21
888.2865
 31
0.0
  0
LINE
  5
1FF
330
1E
100
AcDbEntity
  8
0
100
AcDbLine
 10
79.7
 20
889.0365
 30
0.0
 11
83.1
 21
889.2865
 31
0.0
  0
LINE
  5
200
330
1E
100
AcDbEntity
  8
0
100
AcDbLine
 10
75.3
 20
878.8864999999999
 30
0.0
 11
75.3
 21
878.8014999999999
 31
0.0
  0
LINE
  5
201
330
1E
100
AcDbEntity
  8
0
100
AcDbLine
 10
73.9
 20
878.1864999999998
 30
0.0
 11
75.3
 21
878.8864999999999
 31
0.0
  0
LINE
  5
202
330
1E
100
AcDbEntity
  8
0
100
AcDbLine
 10
73.9
 20
839.2154999999998
 30
0.0
 11
73.9
 21
878.1864999999998
 31
0.0
  0
LINE
  5
203
330
1E
100
AcDbEntity
  8
0
100
AcDbLine
 10
73.9
 20
839.2154999999998
 30
0.0
 11
75.3
 21
839.9154999999998
 31
0.0
  0
LINE
  5
204
330
1E
100
AcDbEntity
  8
0
100
AcDbLine
 10
72.09999999999998
 20
821.2704999999997
 30
0.0
 11
72.09999999999998
 21
824.5214999999998
 31
0.0
  0
LINE
  5
205
330
1E
100
AcDbEntity
  8
0
100
AcDbLine
 10
38.1
 20
816.6189499999999
 30
0.0
 11
69.1
 21
816.4835
 31
0.0
  0
LINE
  5
206
330
1E
100
AcDbEntity
  8
0
100
AcDbLine
 10
60.1
 20
816.4835
 30
0.0
 11
60.09999999999997
 21
74.60074528301891
 31
0.0
  0
LINE
  5
207
330
1E
100
AcDbEntity
  8
0
100
AcDbLine
 10
29.1
 20
824.5214999999998
 30
0.0
 11
29.1
 21
821.2704999999997
 31
0.0
  0
LINE
  5
20C
330
1E
100
AcDbEntity
  8
0
100
AcDbLine
 10
72.09999999999998
 20
846.3775000000001
 30
0.0
 11
72.08966057185715
 21
848.112868479169
 31
0.0
  0
LINE
  5
20D
330
1E
100
AcDbEntity
  8
0
100
AcDbLine
 10
72.08966057185715
 20
848.112868479169
 30
0.0
 11
70.09999999999999
 21
848.1255
 31
0.0
  0
ENDSEC
  0
SECTION
  2
OBJECTS
  0
DICTIONARY
  5
C
330
0
100
AcDbDictionary
281
     1
  3
ACAD_GROUP
350
D
  3
ACAD_LAYOUT
350
19
  3
ACAD_MLINESTYLE
350
16
  3
ACAD_PLOTSETTINGS
350
18
  3
ACAD_PLOTSTYLENAME
350
E
  3
AcDbVariableDictionary
350
20E
  0
DICTIONARY
  5
D
102
{ACAD_REACTORS
330
C
102
}
330
C
100
AcDbDictionary
281
     1
  0
DICTIONARY
  5
19
102
{ACAD_REACTORS
330
C
102
}
330
C
100
AcDbDictionary
281
     1
  3
Layout1
350
1D
  3
Model
350
21
  0
DICTIONARY
  5
16
102
{ACAD_REACTORS
330
C
102
}
330
C
100
AcDbDictionary
281
     1
  3
Standard
350
17
  0
DICTIONARY
  5
18
102
{ACAD_REACTORS
330
C
102
}
330
C
100
AcDbDictionary
281
     1
  0
ACDBDICTIONARYWDFLT
  5
E
102
{ACAD_REACTORS
330
C
102
}
330
C
100
AcDbDictionary
281
     1
  3
Normal
350
F
100
AcDbDictionaryWithDefault
340
F
  0
DICTIONARY
  5
20E
102
{ACAD_REACTORS
330
C
102
}
330
C
100
AcDbDictionary
281
     1
  3
DIMASSOC
350
20F
  0
LAYOUT
  5
1D
102
{ACAD_REACTORS
330
19
102
}
330
19
100
AcDbPlotSettings
  1

  2
hp deskjet 980c series
  4

  6

 40
0.0
 41
0.0
 42
0.0
 43
0.0
 44
0.0
 45
0.0
 46
0.0
 47
0.0
 48
0.0
 49
0.0
140
0.0
141
0.0
142
1.0
143
1.0
 70
   688
 72
     0
 73
     0
 74
     5
  7

 75
    16
147
1.0
148
0.0
149
0.0
100
AcDbLayout
  1
Layout1
 70
     1
 71
     1
 10
0.0
 20
0.0
 11
12.0
 21
9.0
 12
0.0
 22
0.0
 32
0.0
 14
1.000000000000000E+20
 24
1.000000000000000E+20
 34
1.000000000000000E+20
 15
-1.000000000000000E+20
 25
-1.000000000000000E+20
 35
-1.000000000000000E+20
146
0.0
 13
0.0
 23
0.0
 33
0.0
 16
1.0
 26
0.0
 36
0.0
 17
0.0
 27
1.0
 37
0.0
 76
     0
330
1A
  0
LAYOUT
  5
21
102
{ACAD_REACTORS
330
19
102
}
330
19
100
AcDbPlotSettings
  1

  2
hp deskjet 980c series
  4

  6

 40
0.0
 41
0.0
 42
0.0
 43
0.0
 44
0.0
 45
0.0
 46
0.0
 47
0.0
 48
0.0
 49
0.0
140
0.0
141
0.0
142
1.0
143
1.0
 70
  1712
 72
     0
 73
     0
 74
     0
  7

 75
     0
147
1.0
148
0.0
149
0.0
100
AcDbLayout
  1
Model
 70
     1
 71
     0
 10
0.0
 20
0.0
 11
12.0
 21
9.0
 12
0.0
 22
0.0
 32
0.0
 14
0.0
 24
0.0
 34
0.0
 15
0.0
 25
0.0
 35
0.0
146
0.0
 13
0.0
 23
0.0
 33
0.0
 16
1.0
 26
0.0
 36
0.0
 17
0.0
 27
1.0
 37
0.0
 76
     0
330
1E
  0
MLINESTYLE
  5
17
102
{ACAD_REACTORS
330
16
102
}
330
16
100
AcDbMlineStyle
  2
STANDARD
 70
     0
  3

 62
   256
 51
90.0
 52
90.0
 71
     2
 49
0.5
 62
   256
  6
BYLAYER
 49
-0.5
 62
   256
  6
BYLAYER
  0
ACDBPLACEHOLDER
  5
F
102
{ACAD_REACTORS
330
E
102
}
330
E
  0
DICTIONARYVAR
  5
20F
102
{ACAD_REACTORS
330
20E
102
}
330
20E
100
DictionaryVariables
280
     0
  1
1
  0
ENDSEC
  0
EOF
