  0
SECTION
  2
HEADER
  9
$ACADVER
  1
AC1009
  9
$INSBASE
 10
0.0
 20
0.0
 30
0.0
  9
$EXTMIN
 10
-0.0000000000000306
 20
0.0000499179120368
 30
-0.0000000000000125
  9
$EXTMAX
 10
50.999999999999972
 20
147.5
 30
159.044830620993
  9
$LIMMIN
 10
0.0
 20
0.0
  9
$LIMMAX
 10
12.0
 20
9.0
  9
$ORTHOMODE
 70
     0
  9
$REGENMODE
 70
     1
  9
$FILLMODE
 70
     1
  9
$QTEXTMODE
 70
     0
  9
$MIRRTEXT
 70
     1
  9
$DRAGMODE
 70
     2
  9
$LTSCALE
 40
1.0
  9
$OSMODE
 70
    37
  9
$ATTMODE
 70
     1
  9
$TEXTSIZE
 40
0.2
  9
$TRACEWID
 40
0.05
  9
$TEXTSTYLE
  7
STANDARD
  9
$CLAYER
  8
0
  9
$CELTYPE
  6
BYLAYER
  9
$CECOLOR
 62
   256
  9
$DIMSCALE
 40
1.0
  9
$DIMASZ
 40
0.18
  9
$DIMEXO
 40
0.0625
  9
$DIMDLI
 40
0.38
  9
$DIMRND
 40
0.0
  9
$DIMDLE
 40
0.0
  9
$DIMEXE
 40
0.18
  9
$DIMTP
 40
0.0
  9
$DIMTM
 40
0.0
  9
$DIMTXT
 40
0.18
  9
$DIMCEN
 40
0.09
  9
$DIMTSZ
 40
0.0
  9
$DIMTOL
 70
     0
  9
$DIMLIM
 70
     0
  9
$DIMTIH
 70
     1
  9
$DIMTOH
 70
     1
  9
$DIMSE1
 70
     0
  9
$DIMSE2
 70
     0
  9
$DIMTAD
 70
     0
  9
$DIMZIN
 70
     0
  9
$DIMBLK
  1

  9
$DIMASO
 70
     1
  9
$DIMSHO
 70
     1
  9
$DIMPOST
  1

  9
$DIMAPOST
  1

  9
$DIMALT
 70
     0
  9
$DIMALTD
 70
     2
  9
$DIMALTF
 40
25.399999999999999
  9
$DIMLFAC
 40
1.0
  9
$DIMTOFL
 70
     0
  9
$DIMTVP
 40
0.0
  9
$DIMTIX
 70
     0
  9
$DIMSOXD
 70
     0
  9
$DIMSAH
 70
     0
  9
$DIMBLK1
  1

  9
$DIMBLK2
  1

  9
$DIMSTYLE
  2
STANDARD
  9
$DIMCLRD
 70
     0
  9
$DIMCLRE
 70
     0
  9
$DIMCLRT
 70
     0
  9
$DIMTFAC
 40
1.0
  9
$DIMGAP
 40
0.09
  9
$LUNITS
 70
     2
  9
$LUPREC
 70
     4
  9
$SKETCHINC
 40
0.1
  9
$FILLETRAD
 40
0.5
  9
$AUNITS
 70
     0
  9
$AUPREC
 70
     0
  9
$MENU
  1
.
  9
$ELEVATION
 40
0.0
  9
$PELEVATION
 40
0.0
  9
$THICKNESS
 40
0.0
  9
$LIMCHECK
 70
     0
  9
$BLIPMODE
 70
     0
  9
$CHAMFERA
 40
0.5
  9
$CHAMFERB
 40
0.5
  9
$SKPOLY
 70
     1
  9
$TDCREATE
 40
2452609.6632042821
  9
$TDUPDATE
 40
2452617.4749096059
  9
$TDINDWG
 40
0.1842789352
  9
$TDUSRTIMER
 40
0.1842789352
  9
$USRTIMER
 70
     1
  9
$ANGBASE
 50
0.0
  9
$ANGDIR
 70
     0
  9
$PDMODE
 70
     0
  9
$PDSIZE
 40
0.0
  9
$PLINEWID
 40
0.0
  9
$COORDS
 70
     1
  9
$SPLFRAME
 70
     0
  9
$SPLINETYPE
 70
     6
  9
$SPLINESEGS
 70
     8
  9
$ATTDIA
 70
     0
  9
$ATTREQ
 70
     1
  9
$HANDLING
 70
 22529
  9
$HANDSEED
  5
1C4A
  9
$SURFTAB1
 70
     6
  9
$SURFTAB2
 70
     6
  9
$SURFTYPE
 70
     6
  9
$SURFU
 70
     6
  9
$SURFV
 70
     6
  9
$UCSNAME
  2

  9
$UCSORG
 10
0.0
 20
0.0
 30
0.0
  9
$UCSXDIR
 10
1.0
 20
0.0
 30
0.0
  9
$UCSYDIR
 10
0.0
 20
1.0
 30
0.0
  9
$PUCSNAME
  2

  9
$PUCSORG
 10
0.0
 20
0.0
 30
0.0
  9
$PUCSXDIR
 10
1.0
 20
0.0
 30
0.0
  9
$PUCSYDIR
 10
0.0
 20
1.0
 30
0.0
  9
$USERI1
 70
     0
  9
$USERI2
 70
     0
  9
$USERI3
 70
     0
  9
$USERI4
 70
     0
  9
$USERI5
 70
     0
  9
$USERR1
 40
0.0
  9
$USERR2
 40
0.0
  9
$USERR3
 40
0.0
  9
$USERR4
 40
0.0
  9
$USERR5
 40
0.0
  9
$WORLDVIEW
 70
     1
  9
$SHADEDGE
 70
     3
  9
$SHADEDIF
 70
    70
  9
$TILEMODE
 70
     1
  9
$MAXACTVP
 70
    48
  9
$PLIMCHECK
 70
     0
  9
$PEXTMIN
 10
1.0000000000000000E+020
 20
1.0000000000000000E+020
 30
1.0000000000000000E+020
  9
$PEXTMAX
 10
-1.0000000000000000E+020
 20
-1.0000000000000000E+020
 30
-1.0000000000000000E+020
  9
$PLIMMIN
 10
0.0
 20
0.0
  9
$PLIMMAX
 10
12.0
 20
9.0
  9
$UNITMODE
 70
     0
  9
$VISRETAIN
 70
     1
  9
$PLINEGEN
 70
     0
  9
$PSLTSCALE
 70
     1
  0
ENDSEC
  0
SECTION
  2
TABLES
  0
TABLE
  2
VPORT
 70
     3
  0
VPORT
  2
*ACTIVE
 70
     0
 10
0.0
 20
0.0
 11
1.0
 21
1.0
 12
-34.11791984089799
 22
108.7180521370082
 13
0.0
 23
0.0
 14
0.5
 24
0.5
 15
0.5
 25
0.5
 16
-1.0
 26
-1.0
 36
1.0
 17
0.0
 27
0.0
 37
0.0
 40
220.05589986024219
 41
1.9325153374233119
 42
50.0
 43
0.0
 44
0.0
 50
0.0
 51
0.0
 71
     0
 72
   100
 73
     1
 74
     1
 75
     0
 76
     0
 77
     0
 78
     0
  0
ENDTAB
  0
TABLE
  2
LTYPE
 70
     1
  0
LTYPE
  2
CONTINUOUS
 70
     0
  3
Solid line
 72
    65
 73
     0
 40
0.0
  0
ENDTAB
  0
TABLE
  2
LAYER
 70
     3
  0
LAYER
  2
0
 70
     0
 62
     7
  6
CONTINUOUS
  0
LAYER
  2
ASHADE
 70
     4
 62
     7
  6
CONTINUOUS
  0
LAYER
  2
LAYER1
 70
     0
 62
     7
  6
CONTINUOUS
  0
ENDTAB
  0
TABLE
  2
STYLE
 70
     2
  0
STYLE
  2
STANDARD
 70
     0
 40
0.0
 41
1.0
 50
0.0
 71
     0
 42
0.2
  3
txt
  4

  0
STYLE
  2
ASHADE
 70
     0
 40
0.2
 41
1.0
 50
0.0
 71
     0
 42
0.2
  3
simplex.shx
  4

  0
ENDTAB
  0
TABLE
  2
VIEW
 70
     0
  0
ENDTAB
  0
TABLE
  2
UCS
 70
     0
  0
ENDTAB
  0
TABLE
  2
APPID
 70
     6
  0
APPID
  2
ACAD
 70
     0
  0
APPID
  2
AVE_RENDER
 70
     0
  0
APPID
  2
AVE_ENTITY_MATERIAL
 70
     0
  0
APPID
  2
AVE_FINISH
 70
     0
  0
APPID
  2
AVE_MATERIAL
 70
     0
  0
APPID
  2
AVE_GLOBAL
 70
     0
  0
ENDTAB
  0
TABLE
  2
DIMSTYLE
 70
     1
  0
DIMSTYLE
  2
STANDARD
 70
     0
  3

  4

  5

  6

  7

 40
1.0
 41
0.18
 42
0.0625
 43
0.38
 44
0.18
 45
0.0
 46
0.0
 47
0.0
 48
0.0
140
0.18
141
0.09
142
0.0
143
25.399999999999999
144
1.0
145
0.0
146
1.0
147
0.09
 71
     0
 72
     0
 73
     1
 74
     1
 75
     0
 76
     0
 77
     0
 78
     0
170
     0
171
     2
172
     0
173
     0
174
     0
175
     0
176
     0
177
     0
178
     0
  0
ENDTAB
  0
ENDSEC
  0
SECTION
  2
BLOCKS
  0
BLOCK
  8
0
  2
$MODEL_SPACE
 70
     0
 10
0.0
 20
0.0
 30
0.0
  3
$MODEL_SPACE
  1

  0
ENDBLK
  5
1B
  8
0
  0
BLOCK
 67
     1
  8
0
  2
$PAPER_SPACE
 70
     0
 10
0.0
 20
0.0
 30
0.0
  3
$PAPER_SPACE
  1

  0
ENDBLK
  5
18
 67
     1
  8
0
  0
BLOCK
  8
ASHADE
  2
AVE_RENDER
 70
     0
 10
0.0
 20
0.0
 30
0.0
  3
AVE_RENDER
  1
AVE_RENDER
  0
ENDBLK
  5
EB
  8
0
  0
BLOCK
  8
ASHADE
  2
AVE_GLOBAL
 70
     0
 10
0.0
 20
0.0
 30
0.0
  3
AVE_GLOBAL
  1
AVE_GLOBAL
  0
ENDBLK
  5
F9
  8
0
  0
ENDSEC
  0
SECTION
  2
ENTITIES
  0
INSERT
  5
EC
  8
ASHADE
 62
     1
  2
AVE_RENDER
 10
0.0
 20
0.0
 30
0.0
1001
AVE_RENDER
1002
{
1070
     7
1000
Pref
1070
    30
1070
    20
1070
     1
1070
     0
1000

1070
    10
1070
     1
1070
    10
1040
1.0
1070
     1
1040
0.3
1040
0.7
1040
0.0
1040
10.0
1010
-1.0
1020
-1.0
1030
-1.0
1040
0.3
1070
    49
1070
     0
1070
     0
1010
1.0
1020
1.0
1030
1.0
1040
45.0
1070
     1
1070
     0
1000
WCS
1040
0.0
1070
     0
1040
10.0
1002
}
  0
INSERT
  5
ED
  8
ASHADE
 62
     3
  2
AVE_RENDER
 10
0.0
 20
0.0
 30
0.0
1001
AVE_RENDER
1002
{
1070
     0
1000
Full Opt
1070
     0
1070
     1
1070
     1
1070
     1
1070
     0
1070
     0
1070
     0
1070
     1
1070
     1
1040
0.0001
1040
0.0001
1002
}
  0
INSERT
  5
EE
  8
ASHADE
 62
     4
  2
AVE_RENDER
 10
0.0
 20
0.0
 30
0.0
1001
AVE_RENDER
1002
{
1070
     0
1000
Quick Opt
1070
     0
1070
     1
1070
     1
1070
     1
1070
     0
1070
     0
1070
     1
1002
}
  0
INSERT
  5
EF
  8
ASHADE
 62
     5
  2
AVE_RENDER
 10
0.0
 20
0.0
 30
0.0
1001
AVE_RENDER
1002
{
1070
     1
1000
Scanl Opt
1070
     2
1070
     0
1070
     2
1040
2.0
1040
4.0
1070
     0
1070
     1
1070
     0
1040
0.03
1002
}
  0
INSERT
  5
F0
  8
ASHADE
 62
     6
  2
AVE_RENDER
 10
0.0
 20
0.0
 30
0.0
1001
AVE_RENDER
1002
{
1070
     2
1000
Raytr Opt
1070
     2
1070
     0
1070
     2
1040
2.0
1040
4.0
1070
     0
1070
     1
1070
     1
1040
0.03
1070
     3
1040
0.03
1002
}
  0
INSERT
  5
F1
  8
ASHADE
 62
     7
  2
AVE_RENDER
 10
0.0
 20
0.0
 30
0.0
1001
AVE_RENDER
1002
{
1070
     0
1000
RFile Opt
1070
     1
1070
   640
1070
   480
1070
 10000
1070
     1
1070
     8
1070
     8
1070
     0
1070
     0
1070
     0
1070
     0
1070
     0
1070
     0
1070
     0
1002
}
  0
INSERT
  5
F2
  8
ASHADE
 62
     8
  2
AVE_RENDER
 10
0.0
 20
0.0
 30
0.0
1001
AVE_RENDER
1002
{
1070
     0
1000
Fog Opt
1070
     0
1070
     0
1040
0.0
1040
1.0
1040
0.0
1040
1.0
1010
0.5
1020
0.5
1030
0.5
1002
}
  0
INSERT
  5
F3
  8
ASHADE
 62
     9
  2
AVE_RENDER
 10
0.0
 20
0.0
 30
0.0
1001
AVE_RENDER
1002
{
1070
     0
1000
BG Opt
1070
     0
1070
     1
1010
0.0
1020
0.0
1030
0.0
1010
1.0
1020
0.0
1030
0.0
1010
0.0
1020
1.0
1030
0.0
1010
0.0
1020
0.0
1030
1.0
1040
0.5
1040
0.33
1040
0.0
1000

1070
     1
1000

1070
     1
1070
     1
1040
1.0
1040
1.0
1040
0.0
1040
0.0
1070
     0
1002
}
  0
INSERT
  5
FA
  8
ASHADE
 62
     1
  2
AVE_GLOBAL
 10
0.0
 20
0.0
 30
0.0
1001
AVE_MATERIAL
1002
{
1000
*GLOBAL*
1000
1
1000
Global finish.
1002
{
1002
}
1002
{
1070
    63
1002
{
1002
{
1010
-1.0
1020
-1.0
1030
-1.0
1002
}
1040
0.1000000014901161
1000

1040
0.0
1002
{
1002
}
1040
0.0
1002
{
1002
}
1040
0.0
1002
}
1002
{
1002
{
1010
-1.0
1020
-1.0
1030
-1.0
1002
}
1040
0.699999988079071
1000

1040
0.0
1002
{
1002
}
1040
0.0
1002
{
1002
}
1040
0.0
1002
}
1002
{
1002
{
1010
-1.0
1020
-1.0
1030
-1.0
1002
}
1040
0.2000000029802322
1000

1040
0.0
1002
{
1002
}
1040
0.0
1002
{
1002
}
1040
0.0
1002
}
1002
{
1070
     0
1002
{
1070
     1
1002
{
1040
1.0
1040
1.0
1000

1040
0.0
1002
{
1002
}
1040
0.0
1002
{
1002
}
1040
0.0
1002
}
1002
}
1040
1.0
1040
0.0
1040
0.0
1002
}
1002
{
1040
1.0
1040
1.0
1000

1040
0.0
1002
{
1002
}
1040
0.0
1002
{
1002
}
1040
0.0
1002
}
1002
{
1040
0.5
1040
1.0
1000

1040
0.0
1002
{
1002
}
1040
0.0
1002
{
1002
}
1040
0.0
1002
}
1002
{
1070
     0
1040
0.0
1002
{
1002
}
1040
1.0
1002
{
1002
}
1040
0.0
1002
}
1002
{
1040
0.0
1002
{
1002
{
1010
0.0
1020
0.0
1030
0.0
1002
}
1040
1.0
1000

1040
0.0
1002
{
1002
}
1040
0.0
1002
{
1002
}
1040
0.0
1002
}
1002
}
1002
{
1002
{
1070
     1
1002
{
1040
0.0
1040
1.0
1000

1040
0.0
1002
{
1002
}
1040
0.0
1002
{
1002
}
1040
0.0
1002
}
1002
}
1040
0.0
1002
{
1002
}
1010
1.0
1020
0.0
1030
0.0
1010
0.0
1020
1.0
1030
0.0
1010
0.0
1020
0.0
1030
1.0
1070
     0
1002
}
1002
{
1002
{
1040
1.0
1040
1.0
1002
{
1070
     1
1002
{
1040
1.0
1040
1.0
1000

1040
0.0
1002
{
1002
}
1040
0.0
1002
{
1002
}
1040
0.0
1002
}
1002
}
1002
}
1070
     0
1040
0.0
1002
{
1002
}
1002
}
1002
{
1002
}
1002
}
1002
{
1071
        3
1070
     3
1070
     0
1002
{
1070
     2
1070
     0
1070
     0
1040
0.0
1002
}
1070
     0
1070
     2
1002
{
1002
}
1002
}
1002
{
1040
8030.0
1040
190.30000305175781
1040
0.3050000071525574
1040
228.0
1040
545.0
1040
14.0
1040
17.39999961853027
1040
0.4560000002384186
1002
}
1002
}
  0
POLYLINE
  5
1451
  8
LAYER1
 62
   252
 66
     1
 10
0.0
 20
0.0
 30
0.0
 70
    64
 71
    73
 72
    72
  0
VERTEX
  5
1452
  8
LAYER1
 10
25.499999999999979
 20
18.678248538779538
 30
46.914792571488938
 70
   192
  0
VERTEX
  5
1453
  8
LAYER1
 10
25.499999999999979
 20
22.167261889578011
 30
50.403805922287397
 70
   192
  0
VERTEX
  5
1454
  8
LAYER1
 10
25.499999999999979
 20
18.454951288348639
 30
47.045048711651319
 70
   192
  0
VERTEX
  5
1455
  8
LAYER1
 10
28.449999999999971
 20
18.395405826304899
 30
47.197635283963578
 70
   192
  0
VERTEX
  5
1456
  8
LAYER1
 10
22.549999999999979
 20
18.395405826304899
 30
47.197635283963578
 70
   192
  0
VERTEX
  5
1457
  8
LAYER1
 10
28.449999999999971
 20
21.88441917710341
 30
50.686648634762037
 70
   192
  0
VERTEX
  5
1458
  8
LAYER1
 10
22.549999999999979
 20
21.88441917710341
 30
50.686648634762037
 70
   192
  0
VERTEX
  5
1459
  8
LAYER1
 10
28.399999999999991
 20
18.172108575873999
 30
47.327891424125937
 70
   192
  0
VERTEX
  5
145A
  8
LAYER1
 10
22.59999999999998
 20
18.172108575873999
 30
47.327891424125937
 70
   192
  0
VERTEX
  5
145B
  8
LAYER1
 10
31.199999999999971
 20
17.58223302794039
 30
48.01080808232809
 70
   192
  0
VERTEX
  5
145C
  8
LAYER1
 10
19.799999999999979
 20
17.58223302794039
 30
48.010808082328097
 70
   192
  0
VERTEX
  5
145D
  8
LAYER1
 10
31.199999999999971
 20
21.071246378738891
 30
51.499821433126549
 70
   192
  0
VERTEX
  5
145E
  8
LAYER1
 10
19.799999999999979
 20
21.071246378738891
 30
51.499821433126549
 70
   192
  0
VERTEX
  5
145F
  8
LAYER1
 10
31.09999999999998
 20
17.394291116568802
 30
48.105708883431141
 70
   192
  0
VERTEX
  5
1460
  8
LAYER1
 10
19.899999999999981
 20
17.394291116568802
 30
48.105708883431141
 70
   192
  0
VERTEX
  5
1461
  8
LAYER1
 10
33.59999999999998
 20
16.274085482745271
 30
49.318955627523202
 70
   192
  0
VERTEX
  5
1462
  8
LAYER1
 10
17.399999999999991
 20
16.274085482745271
 30
49.318955627523223
 70
   192
  0
VERTEX
  5
1463
  8
LAYER1
 10
33.59999999999998
 20
19.763098833543751
 30
52.807968978321682
 70
   192
  0
VERTEX
  5
1464
  8
LAYER1
 10
17.399999999999991
 20
19.763098833543751
 30
52.807968978321689
 70
   192
  0
VERTEX
  5
1465
  8
LAYER1
 10
33.449999999999967
 20
16.12149891043304
 30
49.378501089566903
 70
   192
  0
VERTEX
  5
1466
  8
LAYER1
 10
17.549999999999979
 20
16.12149891043304
 30
49.378501089566917
 70
   192
  0
VERTEX
  5
1467
  8
LAYER1
 10
35.449999999999967
 20
14.57702920789756
 30
51.016011902370913
 70
   192
  0
VERTEX
  5
1468
  8
LAYER1
 10
15.549999999999979
 20
14.57702920789756
 30
51.016011902370941
 70
   192
  0
VERTEX
  5
1469
  8
LAYER1
 10
35.449999999999967
 20
18.066042558696061
 30
54.505025253169379
 70
   192
  0
VERTEX
  5
146A
  8
LAYER1
 10
15.549999999999979
 20
18.066042558696061
 30
54.505025253169407
 70
   192
  0
VERTEX
  5
146B
  8
LAYER1
 10
35.249999999999979
 20
14.459797974644619
 30
51.04020202535532
 70
   192
  0
VERTEX
  5
146C
  8
LAYER1
 10
15.74999999999998
 20
14.459797974644619
 30
51.040202025355342
 70
   192
  0
VERTEX
  5
146D
  8
LAYER1
 10
36.59999999999998
 20
12.632485559634571
 30
52.960555550633927
 70
   192
  0
VERTEX
  5
146E
  8
LAYER1
 10
14.39999999999997
 20
12.632485559634571
 30
52.960555550633963
 70
   192
  0
VERTEX
  5
146F
  8
LAYER1
 10
36.59999999999998
 20
16.12149891043304
 30
56.449568901432372
 70
   192
  0
VERTEX
  5
1470
  8
LAYER1
 10
14.39999999999999
 20
16.12149891043304
 30
56.4495689014324
 70
   192
  0
VERTEX
  5
1471
  8
LAYER1
 10
36.34999999999998
 20
12.55060966544098
 30
52.949390334558991
 70
   192
  0
VERTEX
  5
1472
  8
LAYER1
 10
14.649999999999981
 20
12.55060966544098
 30
52.949390334559013
 70
   192
  0
VERTEX
  5
1473
  8
LAYER1
 10
36.749999999999979
 20
10.5
 30
54.999999999999979
 70
   192
  0
VERTEX
  5
1474
  8
LAYER1
 10
25.499999999999979
 20
10.5
 30
54.999999999999993
 70
   192
  0
VERTEX
  5
1475
  8
LAYER1
 10
14.24999999999998
 20
10.5
 30
55.0
 70
   192
  0
VERTEX
  5
1476
  8
LAYER1
 10
36.999999999999979
 20
10.54652055513426
 30
55.046520555134251
 70
   192
  0
VERTEX
  5
1477
  8
LAYER1
 10
13.99999999999998
 20
10.54652055513426
 30
55.046520555134258
 70
   192
  0
VERTEX
  5
1478
  8
LAYER1
 10
36.999999999999979
 20
14.035533905932731
 30
58.535533905932724
 70
   192
  0
VERTEX
  5
1479
  8
LAYER1
 10
13.99999999999998
 20
14.035533905932731
 30
58.535533905932731
 70
   192
  0
VERTEX
  5
147A
  8
LAYER1
 10
36.34999999999998
 20
8.4493903345590127
 30
57.050609665440959
 70
   192
  0
VERTEX
  5
147B
  8
LAYER1
 10
14.64999999999999
 20
8.4493903345590127
 30
57.050609665440987
 70
   192
  0
VERTEX
  5
147C
  8
LAYER1
 10
36.59999999999998
 20
8.4605555506339556
 30
57.132485559634553
 70
   192
  0
VERTEX
  5
147D
  8
LAYER1
 10
14.39999999999999
 20
8.4605555506339556
 30
57.132485559634567
 70
   192
  0
VERTEX
  5
147E
  8
LAYER1
 10
36.59999999999998
 20
11.94956890143242
 30
60.621498910433019
 70
   192
  0
VERTEX
  5
147F
  8
LAYER1
 10
14.39999999999999
 20
11.94956890143242
 30
60.62149891043304
 70
   192
  0
VERTEX
  5
1480
  8
LAYER1
 10
35.249999999999979
 20
6.5402020253553408
 30
58.959797974644658
 70
   192
  0
VERTEX
  5
1481
  8
LAYER1
 10
15.74999999999998
 20
6.5402020253553408
 30
58.959797974644687
 70
   192
  0
VERTEX
  5
1482
  8
LAYER1
 10
35.450000000000003
 20
6.5160119023709617
 30
59.077029207897567
 70
   192
  0
VERTEX
  5
1483
  8
LAYER1
 10
15.549999999999979
 20
6.5160119023709617
 30
59.077029207897588
 70
   192
  0
VERTEX
  5
1484
  8
LAYER1
 10
35.450000000000003
 20
10.00502525316943
 30
62.56604255869604
 70
   192
  0
VERTEX
  5
1485
  8
LAYER1
 10
15.549999999999979
 20
10.00502525316943
 30
62.566042558696068
 70
   192
  0
VERTEX
  5
1486
  8
LAYER1
 10
33.450000000000003
 20
4.8785010895669521
 30
60.621498910433019
 70
   192
  0
VERTEX
  5
1487
  8
LAYER1
 10
17.549999999999979
 20
4.8785010895669521
 30
60.62149891043304
 70
   192
  0
VERTEX
  5
1488
  8
LAYER1
 10
33.59999999999998
 20
4.8189556275232226
 30
60.774085482745292
 70
   192
  0
VERTEX
  5
1489
  8
LAYER1
 10
17.399999999999991
 20
4.8189556275232226
 30
60.774085482745299
 70
   192
  0
VERTEX
  5
148A
  8
LAYER1
 10
33.59999999999998
 20
8.3079689783217248
 30
64.263098833543765
 70
   192
  0
VERTEX
  5
148B
  8
LAYER1
 10
17.399999999999991
 20
8.3079689783217248
 30
64.263098833543765
 70
   192
  0
VERTEX
  5
148C
  8
LAYER1
 10
31.09999999999998
 20
3.6057088834311908
 30
61.894291116568851
 70
   192
  0
VERTEX
  5
148D
  8
LAYER1
 10
19.899999999999991
 20
3.6057088834311908
 30
61.894291116568851
 70
   192
  0
VERTEX
  5
148E
  8
LAYER1
 10
31.199999999999971
 20
3.5108080823281389
 30
62.08223302794039
 70
   192
  0
VERTEX
  5
148F
  8
LAYER1
 10
19.799999999999979
 20
3.5108080823281389
 30
62.082233027940397
 70
   192
  0
VERTEX
  5
1490
  8
LAYER1
 10
31.199999999999971
 20
6.9998214331266118
 30
65.571246378738891
 70
   192
  0
VERTEX
  5
1491
  8
LAYER1
 10
19.799999999999979
 20
6.9998214331266118
 30
65.571246378738891
 70
   192
  0
VERTEX
  5
1492
  8
LAYER1
 10
28.399999999999991
 20
2.827891424125994
 30
62.672108575874049
 70
   192
  0
VERTEX
  5
1493
  8
LAYER1
 10
22.59999999999998
 20
2.827891424125994
 30
62.672108575874049
 70
   192
  0
VERTEX
  5
1494
  8
LAYER1
 10
28.449999999999971
 20
2.6976352839636202
 30
62.895405826304952
 70
   192
  0
VERTEX
  5
1495
  8
LAYER1
 10
22.549999999999979
 20
2.6976352839636202
 30
62.895405826304952
 70
   192
  0
VERTEX
  5
1496
  8
LAYER1
 10
28.449999999999971
 20
6.1866486347620926
 30
66.38441917710341
 70
   192
  0
VERTEX
  5
1497
  8
LAYER1
 10
22.549999999999979
 20
6.1866486347620926
 30
66.38441917710341
 70
   192
  0
VERTEX
  5
1498
  8
LAYER1
 10
25.499999999999979
 20
2.5450487116513609
 30
62.954951288348653
 70
   192
  0
VERTEX
  5
1499
  8
LAYER1
 10
25.499999999999979
 20
2.4147925714889871
 30
63.178248538779549
 70
   192
  0
VERTEX
  5
149A
  8
LAYER1
 10
25.499999999999979
 20
5.9038059222874599
 30
66.667261889578043
 70
   192
  0
VERTEX
  5
149B
  8
LAYER1
 10
0.0
 20
0.0
 30
0.0
 70
   128
 71
    72
 72
    67
 73
    69
 74
    73
  0
VERTEX
  5
149C
  8
LAYER1
 10
0.0
 20
0.0
 30
0.0
 70
   128
 71
    67
 72
    61
 73
    63
 74
    69
  0
VERTEX
  5
149D
  8
LAYER1
 10
0.0
 20
0.0
 30
0.0
 70
   128
 71
    61
 72
    55
 73
    57
 74
    63
  0
VERTEX
  5
149E
  8
LAYER1
 10
0.0
 20
0.0
 30
0.0
 70
   128
 71
    55
 72
    49
 73
    51
 74
    57
  0
VERTEX
  5
149F
  8
LAYER1
 10
0.0
 20
0.0
 30
0.0
 70
   128
 71
    49
 72
    43
 73
    45
 74
    51
  0
VERTEX
  5
14A0
  8
LAYER1
 10
0.0
 20
0.0
 30
0.0
 70
   128
 71
    43
 72
    37
 73
    39
 74
    45
  0
VERTEX
  5
14A1
  8
LAYER1
 10
0.0
 20
0.0
 30
0.0
 70
   128
 71
    71
 72
    65
 73
    67
 74
    72
  0
VERTEX
  5
14A2
  8
LAYER1
 10
0.0
 20
0.0
 30
0.0
 70
   128
 71
    65
 72
    59
 73
    61
 74
    67
  0
VERTEX
  5
14A3
  8
LAYER1
 10
0.0
 20
0.0
 30
0.0
 70
   128
 71
    59
 72
    53
 73
    55
 74
    61
  0
VERTEX
  5
14A4
  8
LAYER1
 10
0.0
 20
0.0
 30
0.0
 70
   128
 71
    53
 72
    47
 73
    49
 74
    55
  0
VERTEX
  5
14A5
  8
LAYER1
 10
0.0
 20
0.0
 30
0.0
 70
   128
 71
    47
 72
    41
 73
    43
 74
    49
  0
VERTEX
  5
14A6
  8
LAYER1
 10
0.0
 20
0.0
 30
0.0
 70
   128
 71
    41
 72
    34
 73
    37
 74
    43
  0
VERTEX
  5
14A7
  8
LAYER1
 10
0.0
 20
0.0
 30
0.0
 70
   128
 71
    35
 72
    65
 73
    71
  0
VERTEX
  5
14A8
  8
LAYER1
 10
0.0
 20
0.0
 30
0.0
 70
   128
 71
    35
 72
    59
 73
    65
  0
VERTEX
  5
14A9
  8
LAYER1
 10
0.0
 20
0.0
 30
0.0
 70
   128
 71
    35
 72
    53
 73
    59
  0
VERTEX
  5
14AA
  8
LAYER1
 10
0.0
 20
0.0
 30
0.0
 70
   128
 71
    35
 72
    47
 73
    53
  0
VERTEX
  5
14AB
  8
LAYER1
 10
0.0
 20
0.0
 30
0.0
 70
   128
 71
    35
 72
    41
 73
    47
  0
VERTEX
  5
14AC
  8
LAYER1
 10
0.0
 20
0.0
 30
0.0
 70
   128
 71
    35
 72
    34
 73
    41
  0
VERTEX
  5
14AD
  8
LAYER1
 10
0.0
 20
0.0
 30
0.0
 70
   128
 71
    73
 72
    70
 73
    68
 74
    72
  0
VERTEX
  5
14AE
  8
LAYER1
 10
0.0
 20
0.0
 30
0.0
 70
   128
 71
    70
 72
    64
 73
    62
 74
    68
  0
VERTEX
  5
14AF
  8
LAYER1
 10
0.0
 20
0.0
 30
0.0
 70
   128
 71
    64
 72
    58
 73
    56
 74
    62
  0
VERTEX
  5
14B0
  8
LAYER1
 10
0.0
 20
0.0
 30
0.0
 70
   128
 71
    58
 72
    52
 73
    50
 74
    56
  0
VERTEX
  5
14B1
  8
LAYER1
 10
0.0
 20
0.0
 30
0.0
 70
   128
 71
    52
 72
    46
 73
    44
 74
    50
  0
VERTEX
  5
14B2
  8
LAYER1
 10
0.0
 20
0.0
 30
0.0
 70
   128
 71
    46
 72
    40
 73
    38
 74
    44
  0
VERTEX
  5
14B3
  8
LAYER1
 10
0.0
 20
0.0
 30
0.0
 70
   128
 71
    72
 72
    68
 73
    66
 74
    71
  0
VERTEX
  5
14B4
  8
LAYER1
 10
0.0
 20
0.0
 30
0.0
 70
   128
 71
    68
 72
    62
 73
    60
 74
    66
  0
VERTEX
  5
14B5
  8
LAYER1
 10
0.0
 20
0.0
 30
0.0
 70
   128
 71
    62
 72
    56
 73
    54
 74
    60
  0
VERTEX
  5
14B6
  8
LAYER1
 10
0.0
 20
0.0
 30
0.0
 70
   128
 71
    56
 72
    50
 73
    48
 74
    54
  0
VERTEX
  5
14B7
  8
LAYER1
 10
0.0
 20
0.0
 30
0.0
 70
   128
 71
    50
 72
    44
 73
    42
 74
    48
  0
VERTEX
  5
14B8
  8
LAYER1
 10
0.0
 20
0.0
 30
0.0
 70
   128
 71
    44
 72
    38
 73
    36
 74
    42
  0
VERTEX
  5
14B9
  8
LAYER1
 10
0.0
 20
0.0
 30
0.0
 70
   128
 71
    71
 72
    66
 73
    35
  0
VERTEX
  5
14BA
  8
LAYER1
 10
0.0
 20
0.0
 30
0.0
 70
   128
 71
    66
 72
    60
 73
    35
  0
VERTEX
  5
14BB
  8
LAYER1
 10
0.0
 20
0.0
 30
0.0
 70
   128
 71
    60
 72
    54
 73
    35
  0
VERTEX
  5
14BC
  8
LAYER1
 10
0.0
 20
0.0
 30
0.0
 70
   128
 71
    54
 72
    48
 73
    35
  0
VERTEX
  5
14BD
  8
LAYER1
 10
0.0
 20
0.0
 30
0.0
 70
   128
 71
    48
 72
    42
 73
    35
  0
VERTEX
  5
14BE
  8
LAYER1
 10
0.0
 20
0.0
 30
0.0
 70
   128
 71
    42
 72
    36
 73
    35
  0
VERTEX
  5
14BF
  8
LAYER1
 10
0.0
 20
0.0
 30
0.0
 70
   128
 71
     1
 72
     5
 73
     7
 74
     2
  0
VERTEX
  5
14C0
  8
LAYER1
 10
0.0
 20
0.0
 30
0.0
 70
   128
 71
     5
 72
    11
 73
    13
 74
     7
  0
VERTEX
  5
14C1
  8
LAYER1
 10
0.0
 20
0.0
 30
0.0
 70
   128
 71
    11
 72
    17
 73
    19
 74
    13
  0
VERTEX
  5
14C2
  8
LAYER1
 10
0.0
 20
0.0
 30
0.0
 70
   128
 71
    17
 72
    23
 73
    25
 74
    19
  0
VERTEX
  5
14C3
  8
LAYER1
 10
0.0
 20
0.0
 30
0.0
 70
   128
 71
    23
 72
    29
 73
    31
 74
    25
  0
VERTEX
  5
14C4
  8
LAYER1
 10
0.0
 20
0.0
 30
0.0
 70
   128
 71
    29
 72
    38
 73
    40
 74
    31
  0
VERTEX
  5
14C5
  8
LAYER1
 10
0.0
 20
0.0
 30
0.0
 70
   128
 71
     3
 72
     9
 73
     5
 74
     1
  0
VERTEX
  5
14C6
  8
LAYER1
 10
0.0
 20
0.0
 30
0.0
 70
   128
 71
     9
 72
    15
 73
    11
 74
     5
  0
VERTEX
  5
14C7
  8
LAYER1
 10
0.0
 20
0.0
 30
0.0
 70
   128
 71
    15
 72
    21
 73
    17
 74
    11
  0
VERTEX
  5
14C8
  8
LAYER1
 10
0.0
 20
0.0
 30
0.0
 70
   128
 71
    21
 72
    27
 73
    23
 74
    17
  0
VERTEX
  5
14C9
  8
LAYER1
 10
0.0
 20
0.0
 30
0.0
 70
   128
 71
    27
 72
    33
 73
    29
 74
    23
  0
VERTEX
  5
14CA
  8
LAYER1
 10
0.0
 20
0.0
 30
0.0
 70
   128
 71
    33
 72
    36
 73
    38
 74
    29
  0
VERTEX
  5
14CB
  8
LAYER1
 10
0.0
 20
0.0
 30
0.0
 70
   128
 71
    35
 72
     9
 73
     3
  0
VERTEX
  5
14CC
  8
LAYER1
 10
0.0
 20
0.0
 30
0.0
 70
   128
 71
    35
 72
    15
 73
     9
  0
VERTEX
  5
14CD
  8
LAYER1
 10
0.0
 20
0.0
 30
0.0
 70
   128
 71
    35
 72
    21
 73
    15
  0
VERTEX
  5
14CE
  8
LAYER1
 10
0.0
 20
0.0
 30
0.0
 70
   128
 71
    35
 72
    27
 73
    21
  0
VERTEX
  5
14CF
  8
LAYER1
 10
0.0
 20
0.0
 30
0.0
 70
   128
 71
    35
 72
    33
 73
    27
  0
VERTEX
  5
14D0
  8
LAYER1
 10
0.0
 20
0.0
 30
0.0
 70
   128
 71
    35
 72
    36
 73
    33
  0
VERTEX
  5
14D1
  8
LAYER1
 10
0.0
 20
0.0
 30
0.0
 70
   128
 71
     2
 72
     6
 73
     4
 74
     1
  0
VERTEX
  5
14D2
  8
LAYER1
 10
0.0
 20
0.0
 30
0.0
 70
   128
 71
     6
 72
    12
 73
    10
 74
     4
  0
VERTEX
  5
14D3
  8
LAYER1
 10
0.0
 20
0.0
 30
0.0
 70
   128
 71
    12
 72
    18
 73
    16
 74
    10
  0
VERTEX
  5
14D4
  8
LAYER1
 10
0.0
 20
0.0
 30
0.0
 70
   128
 71
    18
 72
    24
 73
    22
 74
    16
  0
VERTEX
  5
14D5
  8
LAYER1
 10
0.0
 20
0.0
 30
0.0
 70
   128
 71
    24
 72
    30
 73
    28
 74
    22
  0
VERTEX
  5
14D6
  8
LAYER1
 10
0.0
 20
0.0
 30
0.0
 70
   128
 71
    30
 72
    39
 73
    37
 74
    28
  0
VERTEX
  5
14D7
  8
LAYER1
 10
0.0
 20
0.0
 30
0.0
 70
   128
 71
     1
 72
     4
 73
     8
 74
     3
  0
VERTEX
  5
14D8
  8
LAYER1
 10
0.0
 20
0.0
 30
0.0
 70
   128
 71
     4
 72
    10
 73
    14
 74
     8
  0
VERTEX
  5
14D9
  8
LAYER1
 10
0.0
 20
0.0
 30
0.0
 70
   128
 71
    10
 72
    16
 73
    20
 74
    14
  0
VERTEX
  5
14DA
  8
LAYER1
 10
0.0
 20
0.0
 30
0.0
 70
   128
 71
    16
 72
    22
 73
    26
 74
    20
  0
VERTEX
  5
14DB
  8
LAYER1
 10
0.0
 20
0.0
 30
0.0
 70
   128
 71
    22
 72
    28
 73
    32
 74
    26
  0
VERTEX
  5
14DC
  8
LAYER1
 10
0.0
 20
0.0
 30
0.0
 70
   128
 71
    28
 72
    37
 73
    34
 74
    32
  0
VERTEX
  5
14DD
  8
LAYER1
 10
0.0
 20
0.0
 30
0.0
 70
   128
 71
     3
 72
     8
 73
    35
  0
VERTEX
  5
14DE
  8
LAYER1
 10
0.0
 20
0.0
 30
0.0
 70
   128
 71
     8
 72
    14
 73
    35
  0
VERTEX
  5
14DF
  8
LAYER1
 10
0.0
 20
0.0
 30
0.0
 70
   128
 71
    14
 72
    20
 73
    35
  0
VERTEX
  5
14E0
  8
LAYER1
 10
0.0
 20
0.0
 30
0.0
 70
   128
 71
    20
 72
    26
 73
    35
  0
VERTEX
  5
14E1
  8
LAYER1
 10
0.0
 20
0.0
 30
0.0
 70
   128
 71
    26
 72
    32
 73
    35
  0
VERTEX
  5
14E2
  8
LAYER1
 10
0.0
 20
0.0
 30
0.0
 70
   128
 71
    32
 72
    34
 73
    35
  0
SEQEND
  5
14E3
  8
LAYER1
  0
POLYLINE
  5
14E5
  8
0
 66
     1
 10
0.0
 20
0.0
 30
0.0
 70
    16
 71
     2
 72
    13
  0
VERTEX
  5
14E6
  8
0
 10
25.499999999999972
 20
109.40000000000001
 30
-0.0000000000000125
 70
    64
  0
VERTEX
  5
14E7
  8
0
 10
25.499999999999972
 20
109.40000000000001
 30
-0.0000000000000125
 70
    64
  0
VERTEX
  5
14E8
  8
0
 10
25.499999999999972
 20
109.40000000000001
 30
-0.0000000000000125
 70
    64
  0
VERTEX
  5
14E9
  8
0
 10
25.499999999999972
 20
109.40000000000001
 30
-0.0000000000000125
 70
    64
  0
VERTEX
  5
14EA
  8
0
 10
25.499999999999972
 20
109.40000000000001
 30
-0.0000000000000125
 70
    64
  0
VERTEX
  5
14EB
  8
0
 10
25.499999999999972
 20
109.40000000000001
 30
-0.0000000000000125
 70
    64
  0
VERTEX
  5
14EC
  8
0
 10
25.499999999999972
 20
109.40000000000001
 30
-0.0000000000000125
 70
    64
  0
VERTEX
  5
14ED
  8
0
 10
25.499999999999972
 20
109.40000000000001
 30
-0.0000000000000125
 70
    64
  0
VERTEX
  5
14EE
  8
0
 10
25.499999999999972
 20
109.40000000000001
 30
-0.0000000000000125
 70
    64
  0
VERTEX
  5
14EF
  8
0
 10
25.499999999999972
 20
109.40000000000001
 30
-0.0000000000000125
 70
    64
  0
VERTEX
  5
14F0
  8
0
 10
25.499999999999972
 20
109.40000000000001
 30
-0.0000000000000125
 70
    64
  0
VERTEX
  5
14F1
  8
0
 10
25.499999999999972
 20
109.40000000000001
 30
-0.0000000000000125
 70
    64
  0
VERTEX
  5
14F2
  8
0
 10
25.499999999999972
 20
109.40000000000001
 30
-0.0000000000000125
 70
    64
  0
VERTEX
  5
14F3
  8
0
 10
25.499999999999979
 20
136.0
 30
-0.0000000000000125
 70
    64
  0
VERTEX
  5
14F4
  8
0
 10
18.899999999999981
 20
134.59999999999991
 30
-0.0000000000000093
 70
    64
  0
VERTEX
  5
14F5
  8
0
 10
12.799999999999971
 20
132.09999999999991
 30
-0.0000000000000063
 70
    64
  0
VERTEX
  5
14F6
  8
0
 10
7.4999999999999796
 20
127.90000000000001
 30
-0.0000000000000037
 70
    64
  0
VERTEX
  5
14F7
  8
0
 10
3.3999999999999839
 20
122.39999999999991
 30
-0.0000000000000017
 70
    64
  0
VERTEX
  5
14F8
  8
0
 10
0.8999999999999836
 20
116.09999999999999
 30
-0.0000000000000004
 70
    64
  0
VERTEX
  5
14F9
  8
0
 10
-0.0000000000000233
 20
109.40000000000001
 30
0.0
 70
    64
  0
VERTEX
  5
14FA
  8
0
 10
0.8999999999999812
 20
102.4999999999999
 30
-0.0000000000000004
 70
    64
  0
VERTEX
  5
14FB
  8
0
 10
3.399999999999979
 20
96.199999999999989
 30
-0.0000000000000017
 70
    64
  0
VERTEX
  5
14FC
  8
0
 10
7.4999999999999734
 20
90.699999999999974
 30
-0.0000000000000037
 70
    64
  0
VERTEX
  5
14FD
  8
0
 10
12.799999999999971
 20
86.5
 30
-0.0000000000000063
 70
    64
  0
VERTEX
  5
14FE
  8
0
 10
18.89999999999997
 20
83.900000000000006
 30
-0.0000000000000093
 70
    64
  0
VERTEX
  5
14FF
  8
0
 10
25.499999999999972
 20
82.900000000000006
 30
-0.0000000000000125
 70
    64
  0
SEQEND
  5
1500
  8
0
  0
POLYLINE
  5
1501
  8
0
 66
     1
 10
0.0
 20
0.0
 30
0.0
 70
    16
 71
     2
 72
    13
  0
VERTEX
  5
1502
  8
0
 10
25.499999999999979
 20
136.0
 30
-0.0000000000000125
 70
    64
  0
VERTEX
  5
1503
  8
0
 10
18.899999999999981
 20
134.59999999999991
 30
-0.0000000000000093
 70
    64
  0
VERTEX
  5
1504
  8
0
 10
12.799999999999971
 20
132.09999999999991
 30
-0.0000000000000063
 70
    64
  0
VERTEX
  5
1505
  8
0
 10
7.4999999999999796
 20
127.90000000000001
 30
-0.0000000000000037
 70
    64
  0
VERTEX
  5
1506
  8
0
 10
3.3999999999999839
 20
122.39999999999991
 30
-0.0000000000000017
 70
    64
  0
VERTEX
  5
1507
  8
0
 10
0.8999999999999836
 20
116.09999999999999
 30
-0.0000000000000004
 70
    64
  0
VERTEX
  5
1508
  8
0
 10
-0.0000000000000233
 20
109.40000000000001
 30
0.0
 70
    64
  0
VERTEX
  5
1509
  8
0
 10
0.8999999999999812
 20
102.4999999999999
 30
-0.0000000000000004
 70
    64
  0
VERTEX
  5
150A
  8
0
 10
3.399999999999979
 20
96.199999999999989
 30
-0.0000000000000017
 70
    64
  0
VERTEX
  5
150B
  8
0
 10
7.4999999999999734
 20
90.699999999999974
 30
-0.0000000000000037
 70
    64
  0
VERTEX
  5
150C
  8
0
 10
12.799999999999971
 20
86.5
 30
-0.0000000000000063
 70
    64
  0
VERTEX
  5
150D
  8
0
 10
18.89999999999997
 20
83.900000000000006
 30
-0.0000000000000093
 70
    64
  0
VERTEX
  5
150E
  8
0
 10
25.499999999999972
 20
82.900000000000006
 30
-0.0000000000000125
 70
    64
  0
VERTEX
  5
150F
  8
0
 10
25.500000000000028
 20
104.09999999999989
 30
120.09999999999999
 70
    64
  0
VERTEX
  5
1510
  8
0
 10
18.900000000000031
 20
103.3
 30
119.90000000000001
 70
    64
  0
VERTEX
  5
1511
  8
0
 10
12.80000000000002
 20
100.90000000000001
 30
119.1999999999999
 70
    64
  0
VERTEX
  5
1512
  8
0
 10
7.5000000000000311
 20
96.900000000000006
 30
118.2
 70
    64
  0
VERTEX
  5
1513
  8
0
 10
3.400000000000035
 20
91.800000000000011
 30
116.7999999999999
 70
    64
  0
VERTEX
  5
1514
  8
0
 10
0.9000000000000349
 20
85.900000000000006
 30
115.2
 70
    64
  0
VERTEX
  5
1515
  8
0
 10
0.0000000000000281
 20
79.5
 30
113.5
 70
    64
  0
VERTEX
  5
1516
  8
0
 10
0.9000000000000185
 20
73.199999999999989
 30
111.8
 70
    64
  0
VERTEX
  5
1517
  8
0
 10
3.4000000000000168
 20
67.300000000000011
 30
110.2
 70
    64
  0
VERTEX
  5
1518
  8
0
 10
7.500000000000024
 20
62.099999999999987
 30
108.90000000000001
 70
    64
  0
VERTEX
  5
1519
  8
0
 10
12.80000000000002
 20
58.199999999999989
 30
107.8
 70
    64
  0
VERTEX
  5
151A
  8
0
 10
18.900000000000031
 20
55.800000000000011
 30
107.2
 70
    64
  0
VERTEX
  5
151B
  8
0
 10
25.500000000000021
 20
54.900000000000013
 30
106.90000000000001
 70
    64
  0
SEQEND
  5
151C
  8
0
  0
POLYLINE
  5
151D
  8
0
 66
     1
 10
0.0
 20
0.0
 30
0.0
 70
    16
 71
     4
 72
    13
  0
VERTEX
  5
151E
  8
0
 10
25.500000000000028
 20
104.09999999999989
 30
120.09999999999999
 70
    64
  0
VERTEX
  5
151F
  8
0
 10
18.900000000000031
 20
103.3
 30
119.90000000000001
 70
    64
  0
VERTEX
  5
1520
  8
0
 10
12.80000000000002
 20
100.90000000000001
 30
119.1999999999999
 70
    64
  0
VERTEX
  5
1521
  8
0
 10
7.5000000000000311
 20
96.900000000000006
 30
118.2
 70
    64
  0
VERTEX
  5
1522
  8
0
 10
3.400000000000035
 20
91.800000000000011
 30
116.7999999999999
 70
    64
  0
VERTEX
  5
1523
  8
0
 10
0.9000000000000349
 20
85.900000000000006
 30
115.2
 70
    64
  0
VERTEX
  5
1524
  8
0
 10
0.0000000000000281
 20
79.5
 30
113.5
 70
    64
  0
VERTEX
  5
1525
  8
0
 10
0.9000000000000185
 20
73.199999999999989
 30
111.8
 70
    64
  0
VERTEX
  5
1526
  8
0
 10
3.4000000000000168
 20
67.300000000000011
 30
110.2
 70
    64
  0
VERTEX
  5
1527
  8
0
 10
7.500000000000024
 20
62.099999999999987
 30
108.90000000000001
 70
    64
  0
VERTEX
  5
1528
  8
0
 10
12.80000000000002
 20
58.199999999999989
 30
107.8
 70
    64
  0
VERTEX
  5
1529
  8
0
 10
18.900000000000031
 20
55.800000000000011
 30
107.2
 70
    64
  0
VERTEX
  5
152A
  8
0
 10
25.500000000000021
 20
54.900000000000013
 30
106.90000000000001
 70
    64
  0
VERTEX
  5
152B
  8
0
 10
25.500000000000028
 20
103.3
 30
121.40000000000001
 70
    64
  0
VERTEX
  5
152C
  8
0
 10
19.100000000000019
 20
102.40000000000001
 30
121.1999999999999
 70
    64
  0
VERTEX
  5
152D
  8
0
 10
13.100000000000019
 20
100.09999999999989
 30
120.59999999999989
 70
    64
  0
VERTEX
  5
152E
  8
0
 10
7.8000000000000282
 20
96.199999999999989
 30
119.5
 70
    64
  0
VERTEX
  5
152F
  8
0
 10
3.900000000000035
 20
91.199999999999989
 30
118.2
 70
    64
  0
VERTEX
  5
1530
  8
0
 10
1.4000000000000341
 20
85.400000000000006
 30
116.59999999999989
 70
    64
  0
VERTEX
  5
1531
  8
0
 10
0.5000000000000281
 20
79.199999999999989
 30
114.90000000000001
 70
    64
  0
VERTEX
  5
1532
  8
0
 10
1.4000000000000321
 20
72.900000000000006
 30
113.3
 70
    64
  0
VERTEX
  5
1533
  8
0
 10
3.9000000000000168
 20
67.099999999999994
 30
111.6999999999999
 70
    64
  0
VERTEX
  5
1534
  8
0
 10
7.800000000000022
 20
62.099999999999987
 30
110.40000000000001
 70
    64
  0
VERTEX
  5
1535
  8
0
 10
13.100000000000019
 20
58.199999999999989
 30
109.40000000000001
 70
    64
  0
VERTEX
  5
1536
  8
0
 10
19.100000000000009
 20
55.899999999999999
 30
108.6999999999999
 70
    64
  0
VERTEX
  5
1537
  8
0
 10
25.500000000000021
 20
55.0
 30
108.4999999999999
 70
    64
  0
VERTEX
  5
1538
  8
0
 10
25.500000000000028
 20
101.6999999999999
 30
121.5
 70
    64
  0
VERTEX
  5
1539
  8
0
 10
19.500000000000028
 20
100.90000000000001
 30
121.3
 70
    64
  0
VERTEX
  5
153A
  8
0
 10
13.800000000000029
 20
98.699999999999989
 30
120.7
 70
    64
  0
VERTEX
  5
153B
  8
0
 10
8.9000000000000359
 20
95.0
 30
119.7
 70
    64
  0
VERTEX
  5
153C
  8
0
 10
5.1000000000000236
 20
90.300000000000011
 30
118.5
 70
    64
  0
VERTEX
  5
153D
  8
0
 10
2.9000000000000341
 20
84.900000000000006
 30
117.0
 70
    64
  0
VERTEX
  5
153E
  8
0
 10
2.0000000000000271
 20
79.099999999999994
 30
115.5
 70
    64
  0
VERTEX
  5
153F
  8
0
 10
2.9000000000000319
 20
73.199999999999989
 30
113.90000000000001
 70
    64
  0
VERTEX
  5
1540
  8
0
 10
5.1000000000000201
 20
67.699999999999989
 30
112.40000000000001
 70
    64
  0
VERTEX
  5
1541
  8
0
 10
8.9000000000000163
 20
63.0
 30
111.2
 70
    64
  0
VERTEX
  5
1542
  8
0
 10
13.80000000000002
 20
59.400000000000013
 30
110.2
 70
    64
  0
VERTEX
  5
1543
  8
0
 10
19.500000000000021
 20
57.099999999999987
 30
109.59999999999989
 70
    64
  0
VERTEX
  5
1544
  8
0
 10
25.500000000000021
 20
56.300000000000011
 30
109.40000000000001
 70
    64
  0
VERTEX
  5
1545
  8
0
 10
25.500000000000021
 20
79.099999999999994
 30
115.5
 70
    64
  0
VERTEX
  5
1546
  8
0
 10
25.500000000000021
 20
79.099999999999994
 30
115.5
 70
    64
  0
VERTEX
  5
1547
  8
0
 10
25.500000000000021
 20
79.099999999999994
 30
115.5
 70
    64
  0
VERTEX
  5
1548
  8
0
 10
25.500000000000021
 20
79.099999999999994
 30
115.5
 70
    64
  0
VERTEX
  5
1549
  8
0
 10
25.500000000000021
 20
79.099999999999994
 30
115.5
 70
    64
  0
VERTEX
  5
154A
  8
0
 10
25.500000000000021
 20
79.099999999999994
 30
115.5
 70
    64
  0
VERTEX
  5
154B
  8
0
 10
25.500000000000021
 20
79.099999999999994
 30
115.5
 70
    64
  0
VERTEX
  5
154C
  8
0
 10
25.500000000000021
 20
79.099999999999994
 30
115.5
 70
    64
  0
VERTEX
  5
154D
  8
0
 10
25.500000000000021
 20
79.099999999999994
 30
115.5
 70
    64
  0
VERTEX
  5
154E
  8
0
 10
25.500000000000021
 20
79.099999999999994
 30
115.5
 70
    64
  0
VERTEX
  5
154F
  8
0
 10
25.500000000000021
 20
79.099999999999994
 30
115.5
 70
    64
  0
VERTEX
  5
1550
  8
0
 10
25.500000000000021
 20
79.099999999999994
 30
115.5
 70
    64
  0
VERTEX
  5
1551
  8
0
 10
25.500000000000021
 20
79.099999999999994
 30
115.5
 70
    64
  0
SEQEND
  5
1552
  8
0
  0
POLYLINE
  5
15D9
  8
0
 66
     1
 10
0.0
 20
0.0
 30
0.0
 70
    16
 71
     5
 72
    13
  0
VERTEX
  5
15DA
  8
0
 10
25.499999999999989
 20
34.115152289067559
 30
51.32918077290887
 70
    64
  0
VERTEX
  5
15DB
  8
0
 10
21.59999999999998
 20
33.861581332023142
 30
51.872965445130859
 70
    64
  0
VERTEX
  5
15DC
  8
0
 10
17.999999999999989
 20
33.26991576558617
 30
53.141796346982183
 70
    64
  0
VERTEX
  5
15DD
  8
0
 10
14.89999999999999
 20
32.255631937408481
 30
55.316935035870138
 70
    64
  0
VERTEX
  5
15DE
  8
0
 10
12.499999999999989
 20
30.945515326012291
 30
58.126489175683759
 70
    64
  0
VERTEX
  5
15DF
  8
0
 10
10.999999999999989
 20
29.424089583745801
 30
61.389197209015698
 70
    64
  0
VERTEX
  5
15E0
  8
0
 10
10.49999999999998
 20
27.77587836295708
 30
64.923797578458647
 70
    64
  0
VERTEX
  5
15E1
  8
0
 10
10.99999999999998
 20
26.127667142168349
 30
68.458397947901574
 70
    64
  0
VERTEX
  5
15E2
  8
0
 10
12.499999999999989
 20
24.606241399901819
 30
71.721105981233507
 70
    64
  0
VERTEX
  5
15E3
  8
0
 10
14.89999999999999
 20
23.296124788505661
 30
74.53066012104712
 70
    64
  0
VERTEX
  5
15E4
  8
0
 10
18.0
 20
22.28184096032799
 30
76.705798809935089
 70
    64
  0
VERTEX
  5
15E5
  8
0
 10
21.599999999999991
 20
21.647913567716952
 30
78.065260490490061
 70
    64
  0
VERTEX
  5
15E6
  8
0
 10
25.5
 20
21.436604436846579
 30
78.518414384008395
 70
    64
  0
VERTEX
  5
15E7
  8
0
 10
25.499999999999979
 20
27.045951550181709
 30
48.032758331331422
 70
    64
  0
VERTEX
  5
15E8
  8
0
 10
21.59999999999998
 20
26.611119035729949
 30
48.492019351205272
 70
    64
  0
VERTEX
  5
15E9
  8
0
 10
17.999999999999979
 20
25.566299575774622
 30
49.549541122186241
 70
    64
  0
VERTEX
  5
15EA
  8
0
 10
14.899999999999981
 20
23.736338739263971
 30
51.344323375507557
 70
    64
  0
VERTEX
  5
15EB
  8
0
 10
12.499999999999989
 20
21.42928356212752
 30
53.688997427406413
 70
    64
  0
VERTEX
  5
15EC
  8
0
 10
10.99999999999998
 20
18.729657696713328
 30
56.402301720475442
 70
    64
  0
VERTEX
  5
15ED
  8
0
 10
10.49999999999998
 20
15.81261557407327
 30
59.345236523481397
 70
    64
  0
VERTEX
  5
15EE
  8
0
 10
10.99999999999998
 20
12.80494267272959
 30
62.245909500313289
 70
    64
  0
VERTEX
  5
15EF
  8
0
 10
12.49999999999998
 20
10.105316807315431
 30
64.959213793382304
 70
    64
  0
VERTEX
  5
15F0
  8
0
 10
14.89999999999999
 20
7.7982616301789562
 30
67.303887845281153
 70
    64
  0
VERTEX
  5
15F1
  8
0
 10
17.999999999999979
 20
5.968300793668277
 30
69.098670098602497
 70
    64
  0
VERTEX
  5
15F2
  8
0
 10
21.599999999999991
 20
4.8812195075389013
 30
70.246822648287122
 70
    64
  0
VERTEX
  5
15F3
  8
0
 10
25.499999999999979
 20
4.4886488192612433
 30
70.615452889457316
 70
    64
  0
VERTEX
  5
15F4
  8
0
 10
25.499999999999979
 20
25.29391918134905
 30
47.767461179890553
 70
    64
  0
VERTEX
  5
15F5
  8
0
 10
21.799999999999979
 20
24.90134849307136
 30
48.13609142106074
 70
    64
  0
VERTEX
  5
15F6
  8
0
 10
18.299999999999979
 20
23.814267206941992
 30
49.284243970745372
 70
    64
  0
VERTEX
  5
15F7
  8
0
 10
15.299999999999979
 20
22.117198975309059
 30
51.030657271537109
 70
    64
  0
VERTEX
  5
15F8
  8
0
 10
12.99999999999998
 20
19.852405624346659
 30
53.284700544732281
 70
    64
  0
VERTEX
  5
15F9
  8
0
 10
11.49999999999998
 20
17.19504158510653
 30
55.907374059097648
 70
    64
  0
VERTEX
  5
15FA
  8
0
 10
10.99999999999998
 20
14.4531538935183
 30
58.711309130870362
 70
    64
  0
VERTEX
  5
15FB
  8
0
 10
11.49999999999998
 20
11.62063542322641
 30
61.472982376468977
 70
    64
  0
VERTEX
  5
15FC
  8
0
 10
12.99999999999998
 20
8.9632713839863527
 30
64.095655890834351
 70
    64
  0
VERTEX
  5
15FD
  8
0
 10
15.29999999999999
 20
6.6984780330239451
 30
66.349699164029531
 70
    64
  0
VERTEX
  5
15FE
  8
0
 10
18.29999999999999
 20
4.9591479752169221
 30
68.186743243524916
 70
    64
  0
VERTEX
  5
15FF
  8
0
 10
21.79999999999999
 20
3.914328515261615
 30
69.244265014505885
 70
    64
  0
VERTEX
  5
1600
  8
0
 10
25.499999999999979
 20
3.5217578269839569
 30
69.612895255676065
 70
    64
  0
VERTEX
  5
1601
  8
0
 10
25.499999999999979
 20
23.753684001701341
 30
48.70430459870483
 70
    64
  0
VERTEX
  5
1602
  8
0
 10
22.09999999999998
 20
23.361113313423651
 30
49.07293483987501
 70
    64
  0
VERTEX
  5
1603
  8
0
 10
18.999999999999979
 20
22.449186458346102
 30
50.082087658326401
 70
    64
  0
VERTEX
  5
1604
  8
0
 10
16.299999999999979
 20
20.878903705235359
 30
51.556608623007122
 70
    64
  0
VERTEX
  5
1605
  8
0
 10
14.19999999999999
 20
18.831526611498809
 30
53.581021386265377
 70
    64
  0
VERTEX
  5
1606
  8
0
 10
12.99999999999998
 20
16.482209608188271
 30
56.016326216867888
 70
    64
  0
VERTEX
  5
1607
  8
0
 10
12.49999999999998
 20
14.0
 30
58.5
 70
    64
  0
VERTEX
  5
1608
  8
0
 10
12.99999999999998
 20
11.384897786933999
 30
61.032042735661697
 70
    64
  0
VERTEX
  5
1609
  8
0
 10
14.19999999999999
 20
9.0778426097974716
 30
63.37671678756054
 70
    64
  0
VERTEX
  5
160A
  8
0
 10
16.299999999999979
 20
7.0304655160609277
 30
65.401129550818794
 70
    64
  0
VERTEX
  5
160B
  8
0
 10
18.999999999999979
 20
5.5085517154798254
 30
67.008543120377283
 70
    64
  0
VERTEX
  5
160C
  8
0
 10
22.099999999999991
 20
4.5482559078726581
 30
67.884803333950941
 70
    64
  0
VERTEX
  5
160D
  8
0
 10
25.499999999999979
 20
4.155685219595
 30
68.253433575121093
 70
    64
  0
VERTEX
  5
160E
  8
0
 10
25.499999999999979
 20
14.0
 30
58.499999999999979
 70
    64
  0
VERTEX
  5
160F
  8
0
 10
25.499999999999979
 20
14.0
 30
58.499999999999979
 70
    64
  0
VERTEX
  5
1610
  8
0
 10
25.499999999999979
 20
14.0
 30
58.499999999999979
 70
    64
  0
VERTEX
  5
1611
  8
0
 10
25.499999999999979
 20
14.0
 30
58.499999999999979
 70
    64
  0
VERTEX
  5
1612
  8
0
 10
25.499999999999979
 20
14.0
 30
58.499999999999979
 70
    64
  0
VERTEX
  5
1613
  8
0
 10
25.499999999999979
 20
14.0
 30
58.499999999999979
 70
    64
  0
VERTEX
  5
1614
  8
0
 10
25.499999999999979
 20
14.0
 30
58.499999999999979
 70
    64
  0
VERTEX
  5
1615
  8
0
 10
25.499999999999979
 20
14.0
 30
58.499999999999979
 70
    64
  0
VERTEX
  5
1616
  8
0
 10
25.499999999999979
 20
14.0
 30
58.499999999999979
 70
    64
  0
VERTEX
  5
1617
  8
0
 10
25.499999999999979
 20
14.0
 30
58.499999999999979
 70
    64
  0
VERTEX
  5
1618
  8
0
 10
25.499999999999979
 20
14.0
 30
58.499999999999979
 70
    64
  0
VERTEX
  5
1619
  8
0
 10
25.499999999999979
 20
14.0
 30
58.499999999999979
 70
    64
  0
VERTEX
  5
161A
  8
0
 10
25.499999999999979
 20
14.0
 30
58.499999999999979
 70
    64
  0
SEQEND
  5
161B
  8
0
  0
POLYLINE
  5
16AB
  8
0
 66
     1
 10
0.0
 20
0.0
 30
0.0
 70
    16
 71
     5
 72
     7
  0
VERTEX
  5
16AC
  8
0
 10
25.500000000000011
 20
57.352363847938591
 30
98.11969997803196
 70
    64
  0
VERTEX
  5
16AD
  8
0
 10
20.899999999999999
 20
58.320020249404593
 30
97.71268573993612
 70
    64
  0
VERTEX
  5
16AE
  8
0
 10
16.59999999999993
 20
59.939999999999991
 30
96.817999999999998
 70
    64
  0
VERTEX
  5
16AF
  8
0
 10
12.79999999999993
 20
62.156999999999982
 30
95.140000000000015
 70
    64
  0
VERTEX
  5
16B0
  8
0
 10
9.9000000000000021
 20
64.635254496157131
 30
91.963606797939832
 70
    64
  0
VERTEX
  5
16B1
  8
0
 10
8.2000000000000153
 20
67.232649240307751
 30
88.402230517265664
 70
    64
  0
VERTEX
  5
16B2
  8
0
 10
7.5000000000000124
 20
69.240913172861639
 30
84.186399107295756
 70
    64
  0
VERTEX
  5
16B3
  8
0
 10
25.500000000000011
 20
56.435635959749668
 30
96.033751159122986
 70
    64
  0
VERTEX
  5
16B4
  8
0
 10
21.300000000000001
 20
57.199575490953301
 30
95.779366977423848
 70
    64
  0
VERTEX
  5
16B5
  8
0
 10
17.300000000000001
 20
58.472808606389997
 30
95.16884533739082
 70
    64
  0
VERTEX
  5
16B6
  8
0
 10
13.900000000000009
 20
60.051616745505036
 30
93.184650078005831
 70
    64
  0
VERTEX
  5
16B7
  8
0
 10
11.20000000000001
 20
62.292506262407763
 30
90.539056115936631
 70
    64
  0
VERTEX
  5
16B8
  8
0
 10
9.6000000000000032
 20
64.482466702602665
 30
86.977679835262464
 70
    64
  0
VERTEX
  5
16B9
  8
0
 10
9.0000000000000107
 20
66.720537938463053
 30
83.209501907541025
 70
    64
  0
VERTEX
  5
16BA
  8
0
 10
25.500000000000011
 20
55.213332484451712
 30
94.761831099294994
 70
    64
  0
VERTEX
  5
16BB
  8
0
 10
21.500000000000011
 20
55.82448422210075
 30
94.253063018785923
 70
    64
  0
VERTEX
  5
16BC
  8
0
 10
17.800000000000001
 20
56.893999903844133
 30
93.388157197053744
 70
    64
  0
VERTEX
  5
16BD
  8
0
 10
14.6
 20
58.421878966251263
 30
91.454838717430761
 70
    64
  0
VERTEX
  5
16BE
  8
0
 10
12.1
 20
60.408121972752831
 30
88.860121535123525
 70
    64
  0
VERTEX
  5
16BF
  8
0
 10
10.6
 20
62.59808241294774
 30
85.858390114720436
 70
    64
  0
VERTEX
  5
16C0
  8
0
 10
10.000000000000011
 20
64.603423471070414
 30
82.202391346290227
 70
    64
  0
VERTEX
  5
16C1
  8
0
 10
25.500000000000011
 20
54.098603980859878
 30
93.799952196815184
 70
    64
  0
VERTEX
  5
16C2
  8
0
 10
21.600000000000001
 20
54.551251670094757
 30
93.286403637529787
 70
    64
  0
VERTEX
  5
16C3
  8
0
 10
18.000000000000011
 20
55.366120841437123
 30
92.167113916987745
 70
    64
  0
VERTEX
  5
16C4
  8
0
 10
14.9
 20
56.741212110289673
 30
90.335548996888662
 70
    64
  0
VERTEX
  5
16C5
  8
0
 10
12.500000000000011
 20
58.52373768309792
 30
87.639078255057456
 70
    64
  0
VERTEX
  5
16C6
  8
0
 10
11.1
 20
60.306263255906167
 30
84.332086156082511
 70
    64
  0
VERTEX
  5
16C7
  8
0
 10
10.500000000000011
 20
61.780603993403361
 30
80.792436617116905
 70
    64
  0
VERTEX
  5
16C8
  8
0
 10
25.5
 20
21.436604436846579
 30
78.518414384008395
 70
    64
  0
VERTEX
  5
16C9
  8
0
 10
21.599999999999991
 20
21.647913567716952
 30
78.065260490490061
 70
    64
  0
VERTEX
  5
16CA
  8
0
 10
18.0
 20
22.28184096032799
 30
76.705798809935089
 70
    64
  0
VERTEX
  5
16CB
  8
0
 10
14.89999999999999
 20
23.296124788505661
 30
74.53066012104712
 70
    64
  0
VERTEX
  5
16CC
  8
0
 10
12.499999999999989
 20
24.606241399901819
 30
71.721105981233507
 70
    64
  0
VERTEX
  5
16CD
  8
0
 10
10.99999999999998
 20
26.127667142168349
 30
68.458397947901574
 70
    64
  0
VERTEX
  5
16CE
  8
0
 10
10.49999999999998
 20
27.77587836295708
 30
64.923797578458647
 70
    64
  0
SEQEND
  5
16CF
  8
0
  0
POLYLINE
  5
16EC
  8
0
 66
     1
 10
0.0
 20
0.0
 30
0.0
 70
    16
 71
     4
 72
    13
  0
VERTEX
  5
16ED
  8
0
 10
25.499999999999911
 20
104.09999999999989
 30
120.09999999999999
 70
    64
  0
VERTEX
  5
16EE
  8
0
 10
32.099999999999909
 20
103.3
 30
119.90000000000001
 70
    64
  0
VERTEX
  5
16EF
  8
0
 10
38.19999999999991
 20
100.90000000000001
 30
119.1999999999999
 70
    64
  0
VERTEX
  5
16F0
  8
0
 10
43.499999999999908
 20
96.900000000000006
 30
118.2
 70
    64
  0
VERTEX
  5
16F1
  8
0
 10
47.599999999999902
 20
91.800000000000011
 30
116.7999999999999
 70
    64
  0
VERTEX
  5
16F2
  8
0
 10
50.099999999999902
 20
85.900000000000006
 30
115.2
 70
    64
  0
VERTEX
  5
16F3
  8
0
 10
50.999999999999908
 20
79.5
 30
113.5
 70
    64
  0
VERTEX
  5
16F4
  8
0
 10
50.099999999999902
 20
73.199999999999989
 30
111.8
 70
    64
  0
VERTEX
  5
16F5
  8
0
 10
47.599999999999902
 20
67.300000000000011
 30
110.2
 70
    64
  0
VERTEX
  5
16F6
  8
0
 10
43.499999999999908
 20
62.099999999999987
 30
108.90000000000001
 70
    64
  0
VERTEX
  5
16F7
  8
0
 10
38.199999999999889
 20
58.199999999999989
 30
107.8
 70
    64
  0
VERTEX
  5
16F8
  8
0
 10
32.099999999999902
 20
55.800000000000011
 30
107.2
 70
    64
  0
VERTEX
  5
16F9
  8
0
 10
25.499999999999911
 20
54.900000000000013
 30
106.90000000000001
 70
    64
  0
VERTEX
  5
16FA
  8
0
 10
25.499999999999911
 20
103.3
 30
121.40000000000001
 70
    64
  0
VERTEX
  5
16FB
  8
0
 10
31.89999999999992
 20
102.40000000000001
 30
121.1999999999999
 70
    64
  0
VERTEX
  5
16FC
  8
0
 10
37.89999999999992
 20
100.09999999999989
 30
120.59999999999989
 70
    64
  0
VERTEX
  5
16FD
  8
0
 10
43.199999999999903
 20
96.199999999999989
 30
119.5
 70
    64
  0
VERTEX
  5
16FE
  8
0
 10
47.099999999999909
 20
91.199999999999989
 30
118.2
 70
    64
  0
VERTEX
  5
16FF
  8
0
 10
49.599999999999909
 20
85.400000000000006
 30
116.59999999999989
 70
    64
  0
VERTEX
  5
1700
  8
0
 10
50.499999999999908
 20
79.199999999999989
 30
114.90000000000001
 70
    64
  0
VERTEX
  5
1701
  8
0
 10
49.599999999999909
 20
72.900000000000006
 30
113.3
 70
    64
  0
VERTEX
  5
1702
  8
0
 10
47.099999999999909
 20
67.099999999999994
 30
111.6999999999999
 70
    64
  0
VERTEX
  5
1703
  8
0
 10
43.199999999999903
 20
62.099999999999987
 30
110.40000000000001
 70
    64
  0
VERTEX
  5
1704
  8
0
 10
37.899999999999913
 20
58.199999999999989
 30
109.40000000000001
 70
    64
  0
VERTEX
  5
1705
  8
0
 10
31.89999999999991
 20
55.899999999999999
 30
108.6999999999999
 70
    64
  0
VERTEX
  5
1706
  8
0
 10
25.499999999999911
 20
55.0
 30
108.4999999999999
 70
    64
  0
VERTEX
  5
1707
  8
0
 10
25.499999999999911
 20
101.6999999999999
 30
121.5
 70
    64
  0
VERTEX
  5
1708
  8
0
 10
31.499999999999911
 20
100.90000000000001
 30
121.3
 70
    64
  0
VERTEX
  5
1709
  8
0
 10
37.199999999999903
 20
98.699999999999989
 30
120.7
 70
    64
  0
VERTEX
  5
170A
  8
0
 10
42.099999999999909
 20
95.0
 30
119.7
 70
    64
  0
VERTEX
  5
170B
  8
0
 10
45.899999999999913
 20
90.300000000000011
 30
118.5
 70
    64
  0
VERTEX
  5
170C
  8
0
 10
48.099999999999909
 20
84.900000000000006
 30
117.0
 70
    64
  0
VERTEX
  5
170D
  8
0
 10
48.999999999999908
 20
79.099999999999994
 30
115.5
 70
    64
  0
VERTEX
  5
170E
  8
0
 10
48.099999999999909
 20
73.199999999999989
 30
113.90000000000001
 70
    64
  0
VERTEX
  5
170F
  8
0
 10
45.899999999999913
 20
67.699999999999989
 30
112.40000000000001
 70
    64
  0
VERTEX
  5
1710
  8
0
 10
42.099999999999909
 20
63.0
 30
111.2
 70
    64
  0
VERTEX
  5
1711
  8
0
 10
37.199999999999889
 20
59.400000000000013
 30
110.2
 70
    64
  0
VERTEX
  5
1712
  8
0
 10
31.499999999999911
 20
57.099999999999987
 30
109.59999999999989
 70
    64
  0
VERTEX
  5
1713
  8
0
 10
25.499999999999911
 20
56.300000000000011
 30
109.40000000000001
 70
    64
  0
VERTEX
  5
1714
  8
0
 10
25.499999999999911
 20
79.099999999999994
 30
115.5
 70
    64
  0
VERTEX
  5
1715
  8
0
 10
25.499999999999911
 20
79.099999999999994
 30
115.5
 70
    64
  0
VERTEX
  5
1716
  8
0
 10
25.499999999999911
 20
79.099999999999994
 30
115.5
 70
    64
  0
VERTEX
  5
1717
  8
0
 10
25.499999999999911
 20
79.099999999999994
 30
115.5
 70
    64
  0
VERTEX
  5
1718
  8
0
 10
25.499999999999911
 20
79.099999999999994
 30
115.5
 70
    64
  0
VERTEX
  5
1719
  8
0
 10
25.499999999999911
 20
79.099999999999994
 30
115.5
 70
    64
  0
VERTEX
  5
171A
  8
0
 10
25.499999999999911
 20
79.099999999999994
 30
115.5
 70
    64
  0
VERTEX
  5
171B
  8
0
 10
25.499999999999911
 20
79.099999999999994
 30
115.5
 70
    64
  0
VERTEX
  5
171C
  8
0
 10
25.499999999999911
 20
79.099999999999994
 30
115.5
 70
    64
  0
VERTEX
  5
171D
  8
0
 10
25.499999999999911
 20
79.099999999999994
 30
115.5
 70
    64
  0
VERTEX
  5
171E
  8
0
 10
25.499999999999911
 20
79.099999999999994
 30
115.5
 70
    64
  0
VERTEX
  5
171F
  8
0
 10
25.499999999999911
 20
79.099999999999994
 30
115.5
 70
    64
  0
VERTEX
  5
1720
  8
0
 10
25.499999999999911
 20
79.099999999999994
 30
115.5
 70
    64
  0
SEQEND
  5
1721
  8
0
  0
POLYLINE
  5
176C
  8
0
 66
     1
 10
0.0
 20
0.0
 30
0.0
 70
    16
 71
     2
 72
    13
  0
VERTEX
  5
176D
  8
0
 10
25.499999999999972
 20
109.40000000000001
 30
-0.0000000000000125
 70
    64
  0
VERTEX
  5
176E
  8
0
 10
25.499999999999972
 20
109.40000000000001
 30
-0.0000000000000125
 70
    64
  0
VERTEX
  5
176F
  8
0
 10
25.499999999999972
 20
109.40000000000001
 30
-0.0000000000000125
 70
    64
  0
VERTEX
  5
1770
  8
0
 10
25.499999999999972
 20
109.40000000000001
 30
-0.0000000000000125
 70
    64
  0
VERTEX
  5
1771
  8
0
 10
25.499999999999972
 20
109.40000000000001
 30
-0.0000000000000125
 70
    64
  0
VERTEX
  5
1772
  8
0
 10
25.499999999999972
 20
109.40000000000001
 30
-0.0000000000000125
 70
    64
  0
VERTEX
  5
1773
  8
0
 10
25.499999999999972
 20
109.40000000000001
 30
-0.0000000000000125
 70
    64
  0
VERTEX
  5
1774
  8
0
 10
25.499999999999972
 20
109.40000000000001
 30
-0.0000000000000125
 70
    64
  0
VERTEX
  5
1775
  8
0
 10
25.499999999999972
 20
109.40000000000001
 30
-0.0000000000000125
 70
    64
  0
VERTEX
  5
1776
  8
0
 10
25.499999999999972
 20
109.40000000000001
 30
-0.0000000000000125
 70
    64
  0
VERTEX
  5
1777
  8
0
 10
25.499999999999972
 20
109.40000000000001
 30
-0.0000000000000125
 70
    64
  0
VERTEX
  5
1778
  8
0
 10
25.499999999999972
 20
109.40000000000001
 30
-0.0000000000000125
 70
    64
  0
VERTEX
  5
1779
  8
0
 10
25.499999999999972
 20
109.40000000000001
 30
-0.0000000000000125
 70
    64
  0
VERTEX
  5
177A
  8
0
 10
25.499999999999979
 20
136.0
 30
-0.0000000000000125
 70
    64
  0
VERTEX
  5
177B
  8
0
 10
32.099999999999973
 20
134.59999999999991
 30
-0.0000000000000093
 70
    64
  0
VERTEX
  5
177C
  8
0
 10
38.19999999999996
 20
132.09999999999991
 30
-0.0000000000000063
 70
    64
  0
VERTEX
  5
177D
  8
0
 10
43.499999999999972
 20
127.89999999999991
 30
-0.0000000000000037
 70
    64
  0
VERTEX
  5
177E
  8
0
 10
47.599999999999973
 20
122.39999999999991
 30
-0.0000000000000017
 70
    64
  0
VERTEX
  5
177F
  8
0
 10
50.09999999999998
 20
116.09999999999989
 30
-0.0000000000000004
 70
    64
  0
VERTEX
  5
1780
  8
0
 10
50.999999999999972
 20
109.39999999999991
 30
0.0
 70
    64
  0
VERTEX
  5
1781
  8
0
 10
50.09999999999998
 20
102.4999999999999
 30
-0.0000000000000004
 70
    64
  0
VERTEX
  5
1782
  8
0
 10
47.599999999999973
 20
96.199999999999989
 30
-0.0000000000000017
 70
    64
  0
VERTEX
  5
1783
  8
0
 10
43.499999999999957
 20
90.699999999999974
 30
-0.0000000000000037
 70
    64
  0
VERTEX
  5
1784
  8
0
 10
38.19999999999996
 20
86.5
 30
-0.0000000000000063
 70
    64
  0
VERTEX
  5
1785
  8
0
 10
32.099999999999959
 20
83.900000000000006
 30
-0.0000000000000093
 70
    64
  0
VERTEX
  5
1786
  8
0
 10
25.499999999999972
 20
82.900000000000006
 30
-0.0000000000000125
 70
    64
  0
SEQEND
  5
1787
  8
0
  0
POLYLINE
  5
1788
  8
0
 66
     1
 10
0.0
 20
0.0
 30
0.0
 70
    16
 71
     5
 72
    13
  0
VERTEX
  5
1789
  8
0
 10
25.499999999999929
 20
34.115152289067559
 30
51.32918077290887
 70
    64
  0
VERTEX
  5
178A
  8
0
 10
29.399999999999942
 20
33.861581332023142
 30
51.872965445130859
 70
    64
  0
VERTEX
  5
178B
  8
0
 10
32.999999999999929
 20
33.26991576558617
 30
53.141796346982183
 70
    64
  0
VERTEX
  5
178C
  8
0
 10
36.09999999999993
 20
32.255631937408481
 30
55.316935035870138
 70
    64
  0
VERTEX
  5
178D
  8
0
 10
38.499999999999929
 20
30.945515326012291
 30
58.126489175683759
 70
    64
  0
VERTEX
  5
178E
  8
0
 10
39.999999999999929
 20
29.424089583745801
 30
61.389197209015698
 70
    64
  0
VERTEX
  5
178F
  8
0
 10
40.499999999999929
 20
27.77587836295708
 30
64.923797578458647
 70
    64
  0
VERTEX
  5
1790
  8
0
 10
39.999999999999929
 20
26.127667142168349
 30
68.458397947901574
 70
    64
  0
VERTEX
  5
1791
  8
0
 10
38.499999999999929
 20
24.606241399901819
 30
71.721105981233507
 70
    64
  0
VERTEX
  5
1792
  8
0
 10
36.09999999999993
 20
23.296124788505661
 30
74.53066012104712
 70
    64
  0
VERTEX
  5
1793
  8
0
 10
32.999999999999901
 20
22.28184096032799
 30
76.705798809935089
 70
    64
  0
VERTEX
  5
1794
  8
0
 10
29.399999999999899
 20
21.647913567716952
 30
78.065260490490061
 70
    64
  0
VERTEX
  5
1795
  8
0
 10
25.499999999999911
 20
21.436604436846579
 30
78.518414384008395
 70
    64
  0
VERTEX
  5
1796
  8
0
 10
25.499999999999929
 20
27.045951550181709
 30
48.032758331331422
 70
    64
  0
VERTEX
  5
1797
  8
0
 10
29.399999999999942
 20
26.611119035729949
 30
48.492019351205272
 70
    64
  0
VERTEX
  5
1798
  8
0
 10
32.999999999999929
 20
25.566299575774622
 30
49.549541122186241
 70
    64
  0
VERTEX
  5
1799
  8
0
 10
36.09999999999993
 20
23.736338739263971
 30
51.344323375507557
 70
    64
  0
VERTEX
  5
179A
  8
0
 10
38.499999999999922
 20
21.42928356212752
 30
53.688997427406413
 70
    64
  0
VERTEX
  5
179B
  8
0
 10
39.999999999999922
 20
18.729657696713328
 30
56.402301720475442
 70
    64
  0
VERTEX
  5
179C
  8
0
 10
40.499999999999922
 20
15.81261557407327
 30
59.345236523481397
 70
    64
  0
VERTEX
  5
179D
  8
0
 10
39.999999999999922
 20
12.80494267272959
 30
62.245909500313289
 70
    64
  0
VERTEX
  5
179E
  8
0
 10
38.499999999999922
 20
10.105316807315431
 30
64.959213793382304
 70
    64
  0
VERTEX
  5
179F
  8
0
 10
36.099999999999923
 20
7.7982616301789562
 30
67.303887845281153
 70
    64
  0
VERTEX
  5
17A0
  8
0
 10
32.999999999999929
 20
5.968300793668277
 30
69.098670098602497
 70
    64
  0
VERTEX
  5
17A1
  8
0
 10
29.399999999999931
 20
4.8812195075389013
 30
70.246822648287122
 70
    64
  0
VERTEX
  5
17A2
  8
0
 10
25.499999999999929
 20
4.4886488192612433
 30
70.615452889457316
 70
    64
  0
VERTEX
  5
17A3
  8
0
 10
25.499999999999929
 20
25.29391918134905
 30
47.767461179890553
 70
    64
  0
VERTEX
  5
17A4
  8
0
 10
29.199999999999939
 20
24.90134849307136
 30
48.13609142106074
 70
    64
  0
VERTEX
  5
17A5
  8
0
 10
32.699999999999953
 20
23.814267206941992
 30
49.284243970745372
 70
    64
  0
VERTEX
  5
17A6
  8
0
 10
35.699999999999939
 20
22.117198975309059
 30
51.030657271537109
 70
    64
  0
VERTEX
  5
17A7
  8
0
 10
37.999999999999929
 20
19.852405624346659
 30
53.284700544732281
 70
    64
  0
VERTEX
  5
17A8
  8
0
 10
39.499999999999929
 20
17.19504158510653
 30
55.907374059097648
 70
    64
  0
VERTEX
  5
17A9
  8
0
 10
39.999999999999922
 20
14.4531538935183
 30
58.711309130870362
 70
    64
  0
VERTEX
  5
17AA
  8
0
 10
39.499999999999929
 20
11.62063542322641
 30
61.472982376468977
 70
    64
  0
VERTEX
  5
17AB
  8
0
 10
37.999999999999929
 20
8.9632713839863527
 30
64.095655890834351
 70
    64
  0
VERTEX
  5
17AC
  8
0
 10
35.69999999999991
 20
6.6984780330239451
 30
66.349699164029531
 70
    64
  0
VERTEX
  5
17AD
  8
0
 10
32.699999999999918
 20
4.9591479752169221
 30
68.186743243524916
 70
    64
  0
VERTEX
  5
17AE
  8
0
 10
29.19999999999991
 20
3.914328515261615
 30
69.244265014505885
 70
    64
  0
VERTEX
  5
17AF
  8
0
 10
25.499999999999929
 20
3.5217578269839569
 30
69.612895255676065
 70
    64
  0
VERTEX
  5
17B0
  8
0
 10
25.499999999999929
 20
23.753684001701341
 30
48.70430459870483
 70
    64
  0
VERTEX
  5
17B1
  8
0
 10
28.899999999999931
 20
23.361113313423651
 30
49.07293483987501
 70
    64
  0
VERTEX
  5
17B2
  8
0
 10
31.999999999999929
 20
22.449186458346102
 30
50.082087658326401
 70
    64
  0
VERTEX
  5
17B3
  8
0
 10
34.699999999999939
 20
20.878903705235359
 30
51.556608623007122
 70
    64
  0
VERTEX
  5
17B4
  8
0
 10
36.799999999999912
 20
18.831526611498809
 30
53.581021386265377
 70
    64
  0
VERTEX
  5
17B5
  8
0
 10
37.999999999999929
 20
16.482209608188271
 30
56.016326216867888
 70
    64
  0
VERTEX
  5
17B6
  8
0
 10
38.499999999999922
 20
14.0
 30
58.5
 70
    64
  0
VERTEX
  5
17B7
  8
0
 10
37.999999999999929
 20
11.384897786933999
 30
61.032042735661697
 70
    64
  0
VERTEX
  5
17B8
  8
0
 10
36.799999999999912
 20
9.0778426097974716
 30
63.37671678756054
 70
    64
  0
VERTEX
  5
17B9
  8
0
 10
34.699999999999939
 20
7.0304655160609277
 30
65.401129550818794
 70
    64
  0
VERTEX
  5
17BA
  8
0
 10
31.999999999999929
 20
5.5085517154798254
 30
67.008543120377283
 70
    64
  0
VERTEX
  5
17BB
  8
0
 10
28.899999999999931
 20
4.5482559078726581
 30
67.884803333950941
 70
    64
  0
VERTEX
  5
17BC
  8
0
 10
25.499999999999929
 20
4.155685219595
 30
68.253433575121093
 70
    64
  0
VERTEX
  5
17BD
  8
0
 10
25.499999999999929
 20
14.0
 30
58.499999999999979
 70
    64
  0
VERTEX
  5
17BE
  8
0
 10
25.499999999999929
 20
14.0
 30
58.499999999999979
 70
    64
  0
VERTEX
  5
17BF
  8
0
 10
25.499999999999929
 20
14.0
 30
58.499999999999979
 70
    64
  0
VERTEX
  5
17C0
  8
0
 10
25.499999999999929
 20
14.0
 30
58.499999999999979
 70
    64
  0
VERTEX
  5
17C1
  8
0
 10
25.499999999999929
 20
14.0
 30
58.499999999999979
 70
    64
  0
VERTEX
  5
17C2
  8
0
 10
25.499999999999929
 20
14.0
 30
58.499999999999979
 70
    64
  0
VERTEX
  5
17C3
  8
0
 10
25.499999999999929
 20
14.0
 30
58.499999999999979
 70
    64
  0
VERTEX
  5
17C4
  8
0
 10
25.499999999999929
 20
14.0
 30
58.499999999999979
 70
    64
  0
VERTEX
  5
17C5
  8
0
 10
25.499999999999929
 20
14.0
 30
58.499999999999979
 70
    64
  0
VERTEX
  5
17C6
  8
0
 10
25.499999999999929
 20
14.0
 30
58.499999999999979
 70
    64
  0
VERTEX
  5
17C7
  8
0
 10
25.499999999999929
 20
14.0
 30
58.499999999999979
 70
    64
  0
VERTEX
  5
17C8
  8
0
 10
25.499999999999929
 20
14.0
 30
58.499999999999979
 70
    64
  0
VERTEX
  5
17C9
  8
0
 10
25.499999999999929
 20
14.0
 30
58.499999999999979
 70
    64
  0
SEQEND
  5
17CA
  8
0
  0
POLYLINE
  5
17F2
  8
0
 66
     1
 10
0.0
 20
0.0
 30
0.0
 70
    16
 71
     5
 72
     7
  0
VERTEX
  5
17F3
  8
0
 10
25.49999999999994
 20
67.5
 30
62.000000000000007
 70
    64
  0
VERTEX
  5
17F4
  8
0
 10
21.09674536465365
 20
68.234772869104745
 30
63.0
 70
    64
  0
VERTEX
  5
17F5
  8
0
 10
16.837999999999941
 20
69.811000000000007
 30
65.299999999999997
 70
    64
  0
VERTEX
  5
17F6
  8
0
 10
12.799999999999949
 20
71.358027677021596
 30
68.6768977337954
 70
    64
  0
VERTEX
  5
17F7
  8
0
 10
9.8999999999999471
 20
72.063732512137392
 30
73.208894883982779
 70
    64
  0
VERTEX
  5
17F8
  8
0
 10
8.1999999999999584
 20
71.358027677318432
 30
79.553690902961833
 70
    64
  0
VERTEX
  5
17F9
  8
0
 10
7.4999999999999547
 20
69.240913172861639
 30
84.186399107295742
 70
    64
  0
VERTEX
  5
17FA
  8
0
 10
25.49999999999994
 20
65.009999999999991
 30
63.799999999999997
 70
    64
  0
VERTEX
  5
17FB
  8
0
 10
21.37446213203031
 20
65.640073199419248
 30
64.959999999999994
 70
    64
  0
VERTEX
  5
17FC
  8
0
 10
17.57899799594826
 20
66.752087421749252
 30
66.662676862555614
 70
    64
  0
VERTEX
  5
17FD
  8
0
 10
13.89999999999994
 20
68.232763334933907
 30
69.079741850762687
 70
    64
  0
VERTEX
  5
17FE
  8
0
 10
11.19999999999995
 20
68.938468243653503
 30
73.410316979823364
 70
    64
  0
VERTEX
  5
17FF
  8
0
 10
9.5999999999999481
 20
68.535207803902949
 30
78.778215494615282
 70
    64
  0
VERTEX
  5
1800
  8
0
 10
8.9999999999999538
 20
66.720537938463053
 30
83.209501907540997
 70
    64
  0
VERTEX
  5
1801
  8
0
 10
25.499999999999911
 20
63.199999999999989
 30
64.299999999999983
 70
    64
  0
VERTEX
  5
1802
  8
0
 10
21.499999999999911
 20
63.699999999999989
 30
65.200000000000003
 70
    64
  0
VERTEX
  5
1803
  8
0
 10
17.799999999999951
 20
64.401794399020673
 30
66.864098921039286
 70
    64
  0
VERTEX
  5
1804
  8
0
 10
14.599999999999939
 20
65.309128876796422
 30
69.180453023206169
 70
    64
  0
VERTEX
  5
1805
  8
0
 10
12.099999999999939
 20
65.914018951572359
 30
73.10818383606248
 70
    64
  0
VERTEX
  5
1806
  8
0
 10
10.599999999999939
 20
65.611573646728516
 30
77.670394103550734
 70
    64
  0
VERTEX
  5
1807
  8
0
 10
9.9999999999999538
 20
64.603423471070414
 30
82.202391346290213
 70
    64
  0
VERTEX
  5
1808
  8
0
 10
25.49999999999994
 20
61.478159940883081
 30
64.144900415501724
 70
    64
  0
VERTEX
  5
1809
  8
0
 10
21.599999999999941
 20
61.578974882858233
 30
65.05129982187978
 70
    64
  0
VERTEX
  5
180A
  8
0
 10
17.99999999999995
 20
61.881419708783483
 30
66.461254517668593
 70
    64
  0
VERTEX
  5
180B
  8
0
 10
14.89999999999994
 20
62.183864401725032
 30
69.109954898697325
 70
    64
  0
VERTEX
  5
180C
  8
0
 10
12.49999999999995
 20
62.486309003677782
 30
72.534130467482953
 70
    64
  0
VERTEX
  5
180D
  8
0
 10
11.099999999999939
 20
62.284679081232412
 30
76.763994655002875
 70
    64
  0
VERTEX
  5
180E
  8
0
 10
10.49999999999995
 20
61.780603993403361
 30
80.792436617116905
 70
    64
  0
VERTEX
  5
180F
  8
0
 10
25.499999999999961
 20
34.115152289067559
 30
51.32918077290887
 70
    64
  0
VERTEX
  5
1810
  8
0
 10
21.599999999999959
 20
33.861581332023142
 30
51.872965445130852
 70
    64
  0
VERTEX
  5
1811
  8
0
 10
17.99999999999995
 20
33.26991576558617
 30
53.141796346982169
 70
    64
  0
VERTEX
  5
1812
  8
0
 10
14.899999999999951
 20
32.255631937408481
 30
55.316935035870138
 70
    64
  0
VERTEX
  5
1813
  8
0
 10
12.49999999999994
 20
30.945515326012291
 30
58.126489175683751
 70
    64
  0
VERTEX
  5
1814
  8
0
 10
10.99999999999994
 20
29.424089583745801
 30
61.389197209015691
 70
    64
  0
VERTEX
  5
1815
  8
0
 10
10.49999999999994
 20
27.77587836295708
 30
64.923797578458633
 70
    64
  0
SEQEND
  5
1816
  8
0
  0
POLYLINE
  5
1886
  8
0
 66
     1
 10
0.0
 20
0.0
 30
0.0
 70
    16
 71
     5
 72
     7
  0
VERTEX
  5
1887
  8
0
 10
25.499999999999918
 20
57.352363847938591
 30
98.11969997803196
 70
    64
  0
VERTEX
  5
1888
  8
0
 10
30.09999999999993
 20
58.320020249404593
 30
97.71268573993612
 70
    64
  0
VERTEX
  5
1889
  8
0
 10
34.399999999999991
 20
59.939999999999991
 30
96.817999999999998
 70
    64
  0
VERTEX
  5
188A
  8
0
 10
38.200000000000017
 20
62.156999999999982
 30
95.140000000000015
 70
    64
  0
VERTEX
  5
188B
  8
0
 10
41.099999999999937
 20
64.635254496157131
 30
91.963606797939832
 70
    64
  0
VERTEX
  5
188C
  8
0
 10
42.799999999999933
 20
67.232649240307751
 30
88.402230517265664
 70
    64
  0
VERTEX
  5
188D
  8
0
 10
43.499999999999908
 20
69.240913172861639
 30
84.186399107295756
 70
    64
  0
VERTEX
  5
188E
  8
0
 10
25.499999999999918
 20
56.435635959749668
 30
96.033751159122986
 70
    64
  0
VERTEX
  5
188F
  8
0
 10
29.699999999999928
 20
57.199575490953301
 30
95.779366977423848
 70
    64
  0
VERTEX
  5
1890
  8
0
 10
33.699999999999918
 20
58.472808606389997
 30
95.16884533739082
 70
    64
  0
VERTEX
  5
1891
  8
0
 10
37.09999999999993
 20
60.051616745505036
 30
93.184650078005831
 70
    64
  0
VERTEX
  5
1892
  8
0
 10
39.799999999999919
 20
62.292506262407763
 30
90.539056115936631
 70
    64
  0
VERTEX
  5
1893
  8
0
 10
41.399999999999949
 20
64.482466702602665
 30
86.977679835262464
 70
    64
  0
VERTEX
  5
1894
  8
0
 10
41.999999999999908
 20
66.720537938463053
 30
83.209501907541025
 70
    64
  0
VERTEX
  5
1895
  8
0
 10
25.499999999999918
 20
55.213332484451712
 30
94.761831099294994
 70
    64
  0
VERTEX
  5
1896
  8
0
 10
29.499999999999929
 20
55.82448422210075
 30
94.253063018785923
 70
    64
  0
VERTEX
  5
1897
  8
0
 10
33.199999999999918
 20
56.893999903844133
 30
93.388157197053744
 70
    64
  0
VERTEX
  5
1898
  8
0
 10
36.399999999999942
 20
58.421878966251263
 30
91.454838717430761
 70
    64
  0
VERTEX
  5
1899
  8
0
 10
38.899999999999942
 20
60.408121972752831
 30
88.860121535123525
 70
    64
  0
VERTEX
  5
189A
  8
0
 10
40.399999999999942
 20
62.59808241294774
 30
85.858390114720436
 70
    64
  0
VERTEX
  5
189B
  8
0
 10
40.999999999999908
 20
64.603423471070414
 30
82.202391346290227
 70
    64
  0
VERTEX
  5
189C
  8
0
 10
25.499999999999918
 20
54.098603980859878
 30
93.799952196815184
 70
    64
  0
VERTEX
  5
189D
  8
0
 10
29.39999999999992
 20
54.551251670094757
 30
93.286403637529787
 70
    64
  0
VERTEX
  5
189E
  8
0
 10
32.999999999999901
 20
55.366120841437123
 30
92.167113916987745
 70
    64
  0
VERTEX
  5
189F
  8
0
 10
36.09999999999993
 20
56.741212110289673
 30
90.335548996888662
 70
    64
  0
VERTEX
  5
18A0
  8
0
 10
38.499999999999901
 20
58.52373768309792
 30
87.639078255057456
 70
    64
  0
VERTEX
  5
18A1
  8
0
 10
39.899999999999942
 20
60.306263255906167
 30
84.332086156082511
 70
    64
  0
VERTEX
  5
18A2
  8
0
 10
40.499999999999901
 20
61.780603993403361
 30
80.792436617116905
 70
    64
  0
VERTEX
  5
18A3
  8
0
 10
25.499999999999911
 20
21.436604436846579
 30
78.518414384008395
 70
    64
  0
VERTEX
  5
18A4
  8
0
 10
29.399999999999899
 20
21.647913567716952
 30
78.065260490490061
 70
    64
  0
VERTEX
  5
18A5
  8
0
 10
32.999999999999901
 20
22.28184096032799
 30
76.705798809935089
 70
    64
  0
VERTEX
  5
18A6
  8
0
 10
36.09999999999993
 20
23.296124788505661
 30
74.53066012104712
 70
    64
  0
VERTEX
  5
18A7
  8
0
 10
38.499999999999929
 20
24.606241399901819
 30
71.721105981233507
 70
    64
  0
VERTEX
  5
18A8
  8
0
 10
39.999999999999929
 20
26.127667142168349
 30
68.458397947901574
 70
    64
  0
VERTEX
  5
18A9
  8
0
 10
40.499999999999929
 20
27.77587836295708
 30
64.923797578458647
 70
    64
  0
SEQEND
  5
18AA
  8
0
  0
POLYLINE
  5
18AB
  8
0
 66
     1
 10
0.0
 20
0.0
 30
0.0
 70
    16
 71
     5
 72
     7
  0
VERTEX
  5
18AC
  8
0
 10
25.499999999999989
 20
67.5
 30
62.000000000000007
 70
    64
  0
VERTEX
  5
18AD
  8
0
 10
29.903254635346279
 20
68.234772869104745
 30
63.0
 70
    64
  0
VERTEX
  5
18AE
  8
0
 10
34.161999999999999
 20
69.811000000000007
 30
65.299999999999997
 70
    64
  0
VERTEX
  5
18AF
  8
0
 10
38.199999999999982
 20
71.358027677021596
 30
68.6768977337954
 70
    64
  0
VERTEX
  5
18B0
  8
0
 10
41.099999999999987
 20
72.063732512137392
 30
73.208894883982779
 70
    64
  0
VERTEX
  5
18B1
  8
0
 10
42.799999999999983
 20
71.358027677318432
 30
79.553690902961833
 70
    64
  0
VERTEX
  5
18B2
  8
0
 10
43.499999999999957
 20
69.240913172861639
 30
84.186399107295742
 70
    64
  0
VERTEX
  5
18B3
  8
0
 10
25.499999999999989
 20
65.009999999999991
 30
63.799999999999997
 70
    64
  0
VERTEX
  5
18B4
  8
0
 10
29.625537867969619
 20
65.640073199419248
 30
64.959999999999994
 70
    64
  0
VERTEX
  5
18B5
  8
0
 10
33.421002004051672
 20
66.752087421749252
 30
66.662676862555614
 70
    64
  0
VERTEX
  5
18B6
  8
0
 10
37.099999999999987
 20
68.232763334933907
 30
69.079741850762687
 70
    64
  0
VERTEX
  5
18B7
  8
0
 10
39.799999999999983
 20
68.938468243653503
 30
73.410316979823364
 70
    64
  0
VERTEX
  5
18B8
  8
0
 10
41.399999999999999
 20
68.535207803902949
 30
78.778215494615282
 70
    64
  0
VERTEX
  5
18B9
  8
0
 10
41.999999999999972
 20
66.720537938463053
 30
83.209501907540997
 70
    64
  0
VERTEX
  5
18BA
  8
0
 10
25.500000000000021
 20
63.199999999999989
 30
64.299999999999983
 70
    64
  0
VERTEX
  5
18BB
  8
0
 10
29.500000000000021
 20
63.699999999999989
 30
65.200000000000003
 70
    64
  0
VERTEX
  5
18BC
  8
0
 10
33.199999999999982
 20
64.401794399020673
 30
66.864098921039286
 70
    64
  0
VERTEX
  5
18BD
  8
0
 10
36.399999999999999
 20
65.309128876796422
 30
69.180453023206169
 70
    64
  0
VERTEX
  5
18BE
  8
0
 10
38.899999999999999
 20
65.914018951572359
 30
73.10818383606248
 70
    64
  0
VERTEX
  5
18BF
  8
0
 10
40.399999999999999
 20
65.611573646728516
 30
77.670394103550734
 70
    64
  0
VERTEX
  5
18C0
  8
0
 10
40.999999999999957
 20
64.603423471070414
 30
82.202391346290213
 70
    64
  0
VERTEX
  5
18C1
  8
0
 10
25.499999999999989
 20
61.478159940883081
 30
64.144900415501724
 70
    64
  0
VERTEX
  5
18C2
  8
0
 10
29.399999999999999
 20
61.578974882858233
 30
65.05129982187978
 70
    64
  0
VERTEX
  5
18C3
  8
0
 10
32.999999999999957
 20
61.881419708783483
 30
66.461254517668593
 70
    64
  0
VERTEX
  5
18C4
  8
0
 10
36.099999999999987
 20
62.183864401725032
 30
69.109954898697325
 70
    64
  0
VERTEX
  5
18C5
  8
0
 10
38.5
 20
62.486309003677782
 30
72.534130467482953
 70
    64
  0
VERTEX
  5
18C6
  8
0
 10
39.899999999999999
 20
62.284679081232412
 30
76.763994655002875
 70
    64
  0
VERTEX
  5
18C7
  8
0
 10
40.499999999999957
 20
61.780603993403361
 30
80.792436617116905
 70
    64
  0
VERTEX
  5
18C8
  8
0
 10
25.499999999999961
 20
34.115152289067559
 30
51.32918077290887
 70
    64
  0
VERTEX
  5
18C9
  8
0
 10
29.39999999999997
 20
33.861581332023142
 30
51.872965445130852
 70
    64
  0
VERTEX
  5
18CA
  8
0
 10
32.999999999999957
 20
33.26991576558617
 30
53.141796346982169
 70
    64
  0
VERTEX
  5
18CB
  8
0
 10
36.09999999999998
 20
32.255631937408481
 30
55.316935035870138
 70
    64
  0
VERTEX
  5
18CC
  8
0
 10
38.499999999999957
 20
30.945515326012291
 30
58.126489175683751
 70
    64
  0
VERTEX
  5
18CD
  8
0
 10
39.999999999999957
 20
29.424089583745801
 30
61.389197209015691
 70
    64
  0
VERTEX
  5
18CE
  8
0
 10
40.499999999999957
 20
27.77587836295708
 30
64.923797578458633
 70
    64
  0
SEQEND
  5
18CF
  8
0
  0
POLYLINE
  5
18D0
  8
0
 66
     1
 10
0.0
 20
0.0
 30
0.0
 70
    16
 71
     2
 72
    13
  0
VERTEX
  5
18D1
  8
0
 10
25.499999999999979
 20
136.0
 30
-0.0000000000000125
 70
    64
  0
VERTEX
  5
18D2
  8
0
 10
32.099999999999973
 20
134.59999999999991
 30
-0.0000000000000093
 70
    64
  0
VERTEX
  5
18D3
  8
0
 10
38.19999999999996
 20
132.09999999999991
 30
-0.0000000000000063
 70
    64
  0
VERTEX
  5
18D4
  8
0
 10
43.499999999999972
 20
127.89999999999991
 30
-0.0000000000000037
 70
    64
  0
VERTEX
  5
18D5
  8
0
 10
47.599999999999973
 20
122.39999999999991
 30
-0.0000000000000017
 70
    64
  0
VERTEX
  5
18D6
  8
0
 10
50.09999999999998
 20
116.09999999999989
 30
-0.0000000000000004
 70
    64
  0
VERTEX
  5
18D7
  8
0
 10
50.999999999999972
 20
109.39999999999991
 30
0.0
 70
    64
  0
VERTEX
  5
18D8
  8
0
 10
50.09999999999998
 20
102.4999999999999
 30
-0.0000000000000004
 70
    64
  0
VERTEX
  5
18D9
  8
0
 10
47.599999999999973
 20
96.199999999999989
 30
-0.0000000000000017
 70
    64
  0
VERTEX
  5
18DA
  8
0
 10
43.499999999999957
 20
90.699999999999974
 30
-0.0000000000000037
 70
    64
  0
VERTEX
  5
18DB
  8
0
 10
38.19999999999996
 20
86.5
 30
-0.0000000000000063
 70
    64
  0
VERTEX
  5
18DC
  8
0
 10
32.099999999999959
 20
83.900000000000006
 30
-0.0000000000000093
 70
    64
  0
VERTEX
  5
18DD
  8
0
 10
25.499999999999972
 20
82.900000000000006
 30
-0.0000000000000125
 70
    64
  0
VERTEX
  5
18DE
  8
0
 10
25.499999999999911
 20
104.09999999999989
 30
120.09999999999999
 70
    64
  0
VERTEX
  5
18DF
  8
0
 10
32.099999999999909
 20
103.3
 30
119.90000000000001
 70
    64
  0
VERTEX
  5
18E0
  8
0
 10
38.19999999999991
 20
100.90000000000001
 30
119.1999999999999
 70
    64
  0
VERTEX
  5
18E1
  8
0
 10
43.499999999999908
 20
96.900000000000006
 30
118.2
 70
    64
  0
VERTEX
  5
18E2
  8
0
 10
47.599999999999902
 20
91.800000000000011
 30
116.7999999999999
 70
    64
  0
VERTEX
  5
18E3
  8
0
 10
50.099999999999902
 20
85.900000000000006
 30
115.2
 70
    64
  0
VERTEX
  5
18E4
  8
0
 10
50.999999999999908
 20
79.5
 30
113.5
 70
    64
  0
VERTEX
  5
18E5
  8
0
 10
50.099999999999902
 20
73.199999999999989
 30
111.8
 70
    64
  0
VERTEX
  5
18E6
  8
0
 10
47.599999999999902
 20
67.300000000000011
 30
110.2
 70
    64
  0
VERTEX
  5
18E7
  8
0
 10
43.499999999999908
 20
62.099999999999987
 30
108.90000000000001
 70
    64
  0
VERTEX
  5
18E8
  8
0
 10
38.199999999999889
 20
58.199999999999989
 30
107.8
 70
    64
  0
VERTEX
  5
18E9
  8
0
 10
32.099999999999902
 20
55.800000000000011
 30
107.2
 70
    64
  0
VERTEX
  5
18EA
  8
0
 10
25.499999999999911
 20
54.900000000000013
 30
106.90000000000001
 70
    64
  0
SEQEND
  5
18EB
  8
0
  0
POLYLINE
  5
18EC
  8
0
 66
     1
 10
0.0
 20
0.0
 30
0.0
 70
    16
 71
     2
 72
    13
  0
VERTEX
  5
18ED
  8
0
 10
25.499999999999972
 20
109.40000000000001
 30
-0.0000000000000125
 70
    64
  0
VERTEX
  5
18EE
  8
0
 10
25.499999999999972
 20
109.40000000000001
 30
-0.0000000000000125
 70
    64
  0
VERTEX
  5
18EF
  8
0
 10
25.499999999999972
 20
109.40000000000001
 30
-0.0000000000000125
 70
    64
  0
VERTEX
  5
18F0
  8
0
 10
25.499999999999972
 20
109.40000000000001
 30
-0.0000000000000125
 70
    64
  0
VERTEX
  5
18F1
  8
0
 10
25.499999999999972
 20
109.40000000000001
 30
-0.0000000000000125
 70
    64
  0
VERTEX
  5
18F2
  8
0
 10
25.499999999999972
 20
109.40000000000001
 30
-0.0000000000000125
 70
    64
  0
VERTEX
  5
18F3
  8
0
 10
25.499999999999972
 20
109.40000000000001
 30
-0.0000000000000125
 70
    64
  0
VERTEX
  5
18F4
  8
0
 10
25.499999999999972
 20
109.40000000000001
 30
-0.0000000000000125
 70
    64
  0
VERTEX
  5
18F5
  8
0
 10
25.499999999999972
 20
109.40000000000001
 30
-0.0000000000000125
 70
    64
  0
VERTEX
  5
18F6
  8
0
 10
25.499999999999972
 20
109.40000000000001
 30
-0.0000000000000125
 70
    64
  0
VERTEX
  5
18F7
  8
0
 10
25.499999999999972
 20
109.40000000000001
 30
-0.0000000000000125
 70
    64
  0
VERTEX
  5
18F8
  8
0
 10
25.499999999999972
 20
109.40000000000001
 30
-0.0000000000000125
 70
    64
  0
VERTEX
  5
18F9
  8
0
 10
25.499999999999972
 20
109.40000000000001
 30
-0.0000000000000125
 70
    64
  0
VERTEX
  5
18FA
  8
0
 10
25.499999999999979
 20
136.0
 30
-0.0000000000000125
 70
    64
  0
VERTEX
  5
18FB
  8
0
 10
18.899999999999981
 20
134.59999999999991
 30
-0.0000000000000093
 70
    64
  0
VERTEX
  5
18FC
  8
0
 10
12.799999999999971
 20
132.09999999999991
 30
-0.0000000000000063
 70
    64
  0
VERTEX
  5
18FD
  8
0
 10
7.4999999999999796
 20
127.90000000000001
 30
-0.0000000000000037
 70
    64
  0
VERTEX
  5
18FE
  8
0
 10
3.3999999999999839
 20
122.39999999999991
 30
-0.0000000000000017
 70
    64
  0
VERTEX
  5
18FF
  8
0
 10
0.8999999999999836
 20
116.09999999999999
 30
-0.0000000000000004
 70
    64
  0
VERTEX
  5
1900
  8
0
 10
-0.0000000000000233
 20
109.40000000000001
 30
0.0
 70
    64
  0
VERTEX
  5
1901
  8
0
 10
0.8999999999999812
 20
102.4999999999999
 30
-0.0000000000000004
 70
    64
  0
VERTEX
  5
1902
  8
0
 10
3.399999999999979
 20
96.199999999999989
 30
-0.0000000000000017
 70
    64
  0
VERTEX
  5
1903
  8
0
 10
7.4999999999999734
 20
90.699999999999974
 30
-0.0000000000000037
 70
    64
  0
VERTEX
  5
1904
  8
0
 10
12.799999999999971
 20
86.5
 30
-0.0000000000000063
 70
    64
  0
VERTEX
  5
1905
  8
0
 10
18.89999999999997
 20
83.900000000000006
 30
-0.0000000000000093
 70
    64
  0
VERTEX
  5
1906
  8
0
 10
25.499999999999972
 20
82.900000000000006
 30
-0.0000000000000125
 70
    64
  0
SEQEND
  5
1907
  8
0
  0
POLYLINE
  5
1908
  8
0
 66
     1
 10
0.0
 20
0.0
 30
0.0
 70
    16
 71
     2
 72
    13
  0
VERTEX
  5
1909
  8
0
 10
25.499999999999972
 20
109.40000000000001
 30
-0.0000000000000125
 70
    64
  0
VERTEX
  5
190A
  8
0
 10
25.499999999999972
 20
109.40000000000001
 30
-0.0000000000000125
 70
    64
  0
VERTEX
  5
190B
  8
0
 10
25.499999999999972
 20
109.40000000000001
 30
-0.0000000000000125
 70
    64
  0
VERTEX
  5
190C
  8
0
 10
25.499999999999972
 20
109.40000000000001
 30
-0.0000000000000125
 70
    64
  0
VERTEX
  5
190D
  8
0
 10
25.499999999999972
 20
109.40000000000001
 30
-0.0000000000000125
 70
    64
  0
VERTEX
  5
190E
  8
0
 10
25.499999999999972
 20
109.40000000000001
 30
-0.0000000000000125
 70
    64
  0
VERTEX
  5
190F
  8
0
 10
25.499999999999972
 20
109.40000000000001
 30
-0.0000000000000125
 70
    64
  0
VERTEX
  5
1910
  8
0
 10
25.499999999999972
 20
109.40000000000001
 30
-0.0000000000000125
 70
    64
  0
VERTEX
  5
1911
  8
0
 10
25.499999999999972
 20
109.40000000000001
 30
-0.0000000000000125
 70
    64
  0
VERTEX
  5
1912
  8
0
 10
25.499999999999972
 20
109.40000000000001
 30
-0.0000000000000125
 70
    64
  0
VERTEX
  5
1913
  8
0
 10
25.499999999999972
 20
109.40000000000001
 30
-0.0000000000000125
 70
    64
  0
VERTEX
  5
1914
  8
0
 10
25.499999999999972
 20
109.40000000000001
 30
-0.0000000000000125
 70
    64
  0
VERTEX
  5
1915
  8
0
 10
25.499999999999972
 20
109.40000000000001
 30
-0.0000000000000125
 70
    64
  0
VERTEX
  5
1916
  8
0
 10
25.499999999999979
 20
136.0
 30
-0.0000000000000125
 70
    64
  0
VERTEX
  5
1917
  8
0
 10
32.099999999999973
 20
134.59999999999991
 30
-0.0000000000000093
 70
    64
  0
VERTEX
  5
1918
  8
0
 10
38.19999999999996
 20
132.09999999999991
 30
-0.0000000000000063
 70
    64
  0
VERTEX
  5
1919
  8
0
 10
43.499999999999972
 20
127.89999999999991
 30
-0.0000000000000037
 70
    64
  0
VERTEX
  5
191A
  8
0
 10
47.599999999999973
 20
122.39999999999991
 30
-0.0000000000000017
 70
    64
  0
VERTEX
  5
191B
  8
0
 10
50.09999999999998
 20
116.09999999999989
 30
-0.0000000000000004
 70
    64
  0
VERTEX
  5
191C
  8
0
 10
50.999999999999972
 20
109.39999999999991
 30
0.0
 70
    64
  0
VERTEX
  5
191D
  8
0
 10
50.09999999999998
 20
102.4999999999999
 30
-0.0000000000000004
 70
    64
  0
VERTEX
  5
191E
  8
0
 10
47.599999999999973
 20
96.199999999999989
 30
-0.0000000000000017
 70
    64
  0
VERTEX
  5
191F
  8
0
 10
43.499999999999957
 20
90.699999999999974
 30
-0.0000000000000037
 70
    64
  0
VERTEX
  5
1920
  8
0
 10
38.19999999999996
 20
86.5
 30
-0.0000000000000063
 70
    64
  0
VERTEX
  5
1921
  8
0
 10
32.099999999999959
 20
83.900000000000006
 30
-0.0000000000000093
 70
    64
  0
VERTEX
  5
1922
  8
0
 10
25.499999999999972
 20
82.900000000000006
 30
-0.0000000000000125
 70
    64
  0
SEQEND
  5
1923
  8
0
  0
POLYLINE
  5
1926
  8
0
 66
     1
 10
0.0
 20
0.0
 30
0.0
 70
    16
 71
     8
 72
     8
  0
VERTEX
  5
1927
  8
0
 10
25.499999999999979
 20
147.5
 30
48.0
 70
    64
  0
VERTEX
  5
1928
  8
0
 10
25.499999999999979
 20
147.5
 30
48.0
 70
    64
  0
VERTEX
  5
1929
  8
0
 10
25.499999999999979
 20
147.5
 30
48.0
 70
    64
  0
VERTEX
  5
192A
  8
0
 10
25.499999999999979
 20
147.5
 30
48.0
 70
    64
  0
VERTEX
  5
192B
  8
0
 10
25.499999999999979
 20
147.5
 30
48.0
 70
    64
  0
VERTEX
  5
192C
  8
0
 10
25.499999999999979
 20
147.5
 30
48.0
 70
    64
  0
VERTEX
  5
192D
  8
0
 10
25.499999999999979
 20
147.5
 30
48.0
 70
    64
  0
VERTEX
  5
192E
  8
0
 10
25.499999999999979
 20
147.5
 30
48.0
 70
    64
  0
VERTEX
  5
192F
  8
0
 10
25.499999999999979
 20
147.5
 30
50.0
 70
    64
  0
VERTEX
  5
1930
  8
0
 10
24.799999999999979
 20
147.5
 30
50.0
 70
    64
  0
VERTEX
  5
1931
  8
0
 10
23.699999999999982
 20
147.5
 30
49.29999999999999
 70
    64
  0
VERTEX
  5
1932
  8
0
 10
22.999999999999979
 20
147.5
 30
48.200000000000003
 70
    64
  0
VERTEX
  5
1933
  8
0
 10
22.999999999999979
 20
147.5
 30
46.79999999999999
 70
    64
  0
VERTEX
  5
1934
  8
0
 10
23.699999999999982
 20
147.5
 30
45.700000000000003
 70
    64
  0
VERTEX
  5
1935
  8
0
 10
24.799999999999979
 20
147.5
 30
45.0
 70
    64
  0
VERTEX
  5
1936
  8
0
 10
25.499999999999979
 20
147.5
 30
45.0
 70
    64
  0
VERTEX
  5
1937
  8
0
 10
25.499999999999979
 20
133.49999999999989
 30
50.0
 70
    64
  0
VERTEX
  5
1938
  8
0
 10
24.799999999999979
 20
133.49999999999989
 30
50.0
 70
    64
  0
VERTEX
  5
1939
  8
0
 10
23.699999999999982
 20
133.49999999999989
 30
49.29999999999999
 70
    64
  0
VERTEX
  5
193A
  8
0
 10
22.999999999999979
 20
133.49999999999989
 30
48.200000000000003
 70
    64
  0
VERTEX
  5
193B
  8
0
 10
22.999999999999979
 20
133.49999999999989
 30
46.79999999999999
 70
    64
  0
VERTEX
  5
193C
  8
0
 10
23.699999999999982
 20
133.49999999999989
 30
45.700000000000003
 70
    64
  0
VERTEX
  5
193D
  8
0
 10
24.799999999999979
 20
133.49999999999989
 30
45.0
 70
    64
  0
VERTEX
  5
193E
  8
0
 10
25.499999999999979
 20
133.49999999999989
 30
45.0
 70
    64
  0
VERTEX
  5
193F
  8
0
 10
25.499999999999979
 20
131.59999999999999
 30
49.600000000000001
 70
    64
  0
VERTEX
  5
1940
  8
0
 10
24.799999999999979
 20
131.59999999999999
 30
49.600000000000001
 70
    64
  0
VERTEX
  5
1941
  8
0
 10
23.699999999999982
 20
131.80000000000001
 30
49.0
 70
    64
  0
VERTEX
  5
1942
  8
0
 10
22.999999999999979
 20
132.30000000000001
 30
47.899999999999999
 70
    64
  0
VERTEX
  5
1943
  8
0
 10
22.999999999999979
 20
132.80000000000001
 30
46.700000000000003
 70
    64
  0
VERTEX
  5
1944
  8
0
 10
23.699999999999982
 20
133.1999999999999
 30
45.600000000000001
 70
    64
  0
VERTEX
  5
1945
  8
0
 10
24.799999999999979
 20
133.49999999999989
 30
45.0
 70
    64
  0
VERTEX
  5
1946
  8
0
 10
25.499999999999979
 20
133.49999999999989
 30
45.0
 70
    64
  0
VERTEX
  5
1947
  8
0
 10
25.499999999999979
 20
129.6999999999999
 30
48.299999999999997
 70
    64
  0
VERTEX
  5
1948
  8
0
 10
24.799999999999979
 20
129.6999999999999
 30
48.299999999999997
 70
    64
  0
VERTEX
  5
1949
  8
0
 10
23.699999999999982
 20
130.09999999999991
 30
47.799999999999997
 70
    64
  0
VERTEX
  5
194A
  8
0
 10
22.999999999999979
 20
131.0
 30
47.0
 70
    64
  0
VERTEX
  5
194B
  8
0
 10
22.999999999999979
 20
131.90000000000001
 30
46.100000000000001
 70
    64
  0
VERTEX
  5
194C
  8
0
 10
23.699999999999982
 20
132.6999999999999
 30
45.200000000000003
 70
    64
  0
VERTEX
  5
194D
  8
0
 10
24.799999999999979
 20
133.1999999999999
 30
44.79999999999999
 70
    64
  0
VERTEX
  5
194E
  8
0
 10
25.499999999999979
 20
133.1999999999999
 30
44.79999999999999
 70
    64
  0
VERTEX
  5
194F
  8
0
 10
25.499999999999979
 20
128.49999999999989
 30
46.399999999999991
 70
    64
  0
VERTEX
  5
1950
  8
0
 10
24.799999999999969
 20
128.49999999999989
 30
46.399999999999991
 70
    64
  0
VERTEX
  5
1951
  8
0
 10
23.699999999999982
 20
129.09999999999991
 30
46.100000000000001
 70
    64
  0
VERTEX
  5
1952
  8
0
 10
22.999999999999979
 20
130.1999999999999
 30
45.700000000000003
 70
    64
  0
VERTEX
  5
1953
  8
0
 10
22.999999999999979
 20
131.40000000000001
 30
45.200000000000003
 70
    64
  0
VERTEX
  5
1954
  8
0
 10
23.699999999999982
 20
132.49999999999989
 30
44.700000000000003
 70
    64
  0
VERTEX
  5
1955
  8
0
 10
24.799999999999979
 20
133.09999999999991
 30
44.5
 70
    64
  0
VERTEX
  5
1956
  8
0
 10
25.499999999999979
 20
133.09999999999991
 30
44.5
 70
    64
  0
VERTEX
  5
1957
  8
0
 10
25.499999999999979
 20
128.09999999999991
 30
45.0
 70
    64
  0
VERTEX
  5
1958
  8
0
 10
24.799999999999969
 20
128.09999999999991
 30
45.0
 70
    64
  0
VERTEX
  5
1959
  8
0
 10
23.699999999999982
 20
128.80000000000001
 30
44.899999999999999
 70
    64
  0
VERTEX
  5
195A
  8
0
 10
22.999999999999979
 20
129.90000000000001
 30
44.700000000000003
 70
    64
  0
VERTEX
  5
195B
  8
0
 10
22.999999999999979
 20
131.30000000000001
 30
44.599999999999987
 70
    64
  0
VERTEX
  5
195C
  8
0
 10
23.699999999999982
 20
132.40000000000001
 30
44.399999999999999
 70
    64
  0
VERTEX
  5
195D
  8
0
 10
24.799999999999979
 20
133.09999999999991
 30
44.29999999999999
 70
    64
  0
VERTEX
  5
195E
  8
0
 10
25.499999999999979
 20
133.09999999999991
 30
44.29999999999999
 70
    64
  0
VERTEX
  5
195F
  8
0
 10
25.499999999999979
 20
122.90000000000001
 30
15.0
 70
    64
  0
VERTEX
  5
1960
  8
0
 10
24.799999999999969
 20
122.90000000000001
 30
15.0
 70
    64
  0
VERTEX
  5
1961
  8
0
 10
23.699999999999982
 20
123.5
 30
15.0
 70
    64
  0
VERTEX
  5
1962
  8
0
 10
22.999999999999979
 20
124.59999999999989
 30
15.0
 70
    64
  0
VERTEX
  5
1963
  8
0
 10
22.999999999999979
 20
126.0
 30
15.0
 70
    64
  0
VERTEX
  5
1964
  8
0
 10
23.699999999999982
 20
127.2
 30
15.0
 70
    64
  0
VERTEX
  5
1965
  8
0
 10
24.799999999999969
 20
127.90000000000001
 30
15.0
 70
    64
  0
VERTEX
  5
1966
  8
0
 10
25.499999999999979
 20
127.90000000000001
 30
15.0
 70
    64
  0
SEQEND
  5
1967
  8
0
  0
POLYLINE
  5
1968
  8
0
 66
     1
 10
0.0
 20
0.0
 30
0.0
 70
    16
 71
     8
 72
     8
  0
VERTEX
  5
1969
  8
0
 10
25.499999999999979
 20
147.5
 30
48.0
 70
    64
  0
VERTEX
  5
196A
  8
0
 10
25.499999999999979
 20
147.5
 30
48.0
 70
    64
  0
VERTEX
  5
196B
  8
0
 10
25.499999999999979
 20
147.5
 30
48.0
 70
    64
  0
VERTEX
  5
196C
  8
0
 10
25.499999999999979
 20
147.5
 30
48.0
 70
    64
  0
VERTEX
  5
196D
  8
0
 10
25.499999999999979
 20
147.5
 30
48.0
 70
    64
  0
VERTEX
  5
196E
  8
0
 10
25.499999999999979
 20
147.5
 30
48.0
 70
    64
  0
VERTEX
  5
196F
  8
0
 10
25.499999999999979
 20
147.5
 30
48.0
 70
    64
  0
VERTEX
  5
1970
  8
0
 10
25.499999999999979
 20
147.5
 30
48.0
 70
    64
  0
VERTEX
  5
1971
  8
0
 10
25.499999999999979
 20
147.5
 30
50.0
 70
    64
  0
VERTEX
  5
1972
  8
0
 10
26.199999999999982
 20
147.5
 30
50.0
 70
    64
  0
VERTEX
  5
1973
  8
0
 10
27.299999999999979
 20
147.5
 30
49.29999999999999
 70
    64
  0
VERTEX
  5
1974
  8
0
 10
27.999999999999979
 20
147.5
 30
48.200000000000003
 70
    64
  0
VERTEX
  5
1975
  8
0
 10
27.999999999999979
 20
147.5
 30
46.79999999999999
 70
    64
  0
VERTEX
  5
1976
  8
0
 10
27.299999999999979
 20
147.5
 30
45.700000000000003
 70
    64
  0
VERTEX
  5
1977
  8
0
 10
26.199999999999982
 20
147.5
 30
45.0
 70
    64
  0
VERTEX
  5
1978
  8
0
 10
25.499999999999979
 20
147.5
 30
45.0
 70
    64
  0
VERTEX
  5
1979
  8
0
 10
25.499999999999979
 20
133.49999999999989
 30
50.0
 70
    64
  0
VERTEX
  5
197A
  8
0
 10
26.199999999999982
 20
133.49999999999989
 30
50.0
 70
    64
  0
VERTEX
  5
197B
  8
0
 10
27.299999999999979
 20
133.49999999999989
 30
49.29999999999999
 70
    64
  0
VERTEX
  5
197C
  8
0
 10
27.999999999999979
 20
133.49999999999989
 30
48.200000000000003
 70
    64
  0
VERTEX
  5
197D
  8
0
 10
27.999999999999979
 20
133.49999999999989
 30
46.79999999999999
 70
    64
  0
VERTEX
  5
197E
  8
0
 10
27.299999999999979
 20
133.49999999999989
 30
45.700000000000003
 70
    64
  0
VERTEX
  5
197F
  8
0
 10
26.199999999999982
 20
133.49999999999989
 30
45.0
 70
    64
  0
VERTEX
  5
1980
  8
0
 10
25.499999999999979
 20
133.49999999999989
 30
45.0
 70
    64
  0
VERTEX
  5
1981
  8
0
 10
25.499999999999979
 20
131.59999999999999
 30
49.600000000000001
 70
    64
  0
VERTEX
  5
1982
  8
0
 10
26.199999999999982
 20
131.59999999999999
 30
49.600000000000001
 70
    64
  0
VERTEX
  5
1983
  8
0
 10
27.299999999999979
 20
131.80000000000001
 30
49.0
 70
    64
  0
VERTEX
  5
1984
  8
0
 10
27.999999999999979
 20
132.30000000000001
 30
47.899999999999999
 70
    64
  0
VERTEX
  5
1985
  8
0
 10
27.999999999999979
 20
132.80000000000001
 30
46.700000000000003
 70
    64
  0
VERTEX
  5
1986
  8
0
 10
27.299999999999979
 20
133.1999999999999
 30
45.600000000000001
 70
    64
  0
VERTEX
  5
1987
  8
0
 10
26.199999999999982
 20
133.49999999999989
 30
45.0
 70
    64
  0
VERTEX
  5
1988
  8
0
 10
25.499999999999979
 20
133.49999999999989
 30
45.0
 70
    64
  0
VERTEX
  5
1989
  8
0
 10
25.499999999999979
 20
129.6999999999999
 30
48.299999999999997
 70
    64
  0
VERTEX
  5
198A
  8
0
 10
26.199999999999982
 20
129.6999999999999
 30
48.299999999999997
 70
    64
  0
VERTEX
  5
198B
  8
0
 10
27.299999999999979
 20
130.09999999999991
 30
47.799999999999997
 70
    64
  0
VERTEX
  5
198C
  8
0
 10
27.999999999999979
 20
131.0
 30
47.0
 70
    64
  0
VERTEX
  5
198D
  8
0
 10
27.999999999999979
 20
131.90000000000001
 30
46.100000000000001
 70
    64
  0
VERTEX
  5
198E
  8
0
 10
27.299999999999979
 20
132.6999999999999
 30
45.200000000000003
 70
    64
  0
VERTEX
  5
198F
  8
0
 10
26.199999999999982
 20
133.1999999999999
 30
44.79999999999999
 70
    64
  0
VERTEX
  5
1990
  8
0
 10
25.499999999999979
 20
133.1999999999999
 30
44.79999999999999
 70
    64
  0
VERTEX
  5
1991
  8
0
 10
25.499999999999979
 20
128.49999999999989
 30
46.399999999999991
 70
    64
  0
VERTEX
  5
1992
  8
0
 10
26.199999999999982
 20
128.49999999999989
 30
46.399999999999991
 70
    64
  0
VERTEX
  5
1993
  8
0
 10
27.299999999999969
 20
129.09999999999991
 30
46.100000000000001
 70
    64
  0
VERTEX
  5
1994
  8
0
 10
27.999999999999979
 20
130.1999999999999
 30
45.700000000000003
 70
    64
  0
VERTEX
  5
1995
  8
0
 10
27.999999999999979
 20
131.40000000000001
 30
45.200000000000003
 70
    64
  0
VERTEX
  5
1996
  8
0
 10
27.299999999999979
 20
132.49999999999989
 30
44.700000000000003
 70
    64
  0
VERTEX
  5
1997
  8
0
 10
26.199999999999982
 20
133.09999999999991
 30
44.5
 70
    64
  0
VERTEX
  5
1998
  8
0
 10
25.499999999999979
 20
133.09999999999991
 30
44.5
 70
    64
  0
VERTEX
  5
1999
  8
0
 10
25.499999999999979
 20
128.09999999999991
 30
45.0
 70
    64
  0
VERTEX
  5
199A
  8
0
 10
26.199999999999982
 20
128.09999999999991
 30
45.0
 70
    64
  0
VERTEX
  5
199B
  8
0
 10
27.299999999999969
 20
128.80000000000001
 30
44.899999999999999
 70
    64
  0
VERTEX
  5
199C
  8
0
 10
27.999999999999979
 20
129.90000000000001
 30
44.700000000000003
 70
    64
  0
VERTEX
  5
199D
  8
0
 10
27.999999999999979
 20
131.30000000000001
 30
44.599999999999987
 70
    64
  0
VERTEX
  5
199E
  8
0
 10
27.299999999999979
 20
132.40000000000001
 30
44.399999999999999
 70
    64
  0
VERTEX
  5
199F
  8
0
 10
26.199999999999982
 20
133.09999999999991
 30
44.29999999999999
 70
    64
  0
VERTEX
  5
19A0
  8
0
 10
25.499999999999979
 20
133.09999999999991
 30
44.29999999999999
 70
    64
  0
VERTEX
  5
19A1
  8
0
 10
25.499999999999979
 20
122.90000000000001
 30
15.0
 70
    64
  0
VERTEX
  5
19A2
  8
0
 10
26.199999999999982
 20
122.90000000000001
 30
15.0
 70
    64
  0
VERTEX
  5
19A3
  8
0
 10
27.299999999999969
 20
123.5
 30
15.0
 70
    64
  0
VERTEX
  5
19A4
  8
0
 10
27.999999999999979
 20
124.59999999999989
 30
15.0
 70
    64
  0
VERTEX
  5
19A5
  8
0
 10
27.999999999999979
 20
126.0
 30
15.0
 70
    64
  0
VERTEX
  5
19A6
  8
0
 10
27.299999999999969
 20
127.2
 30
15.0
 70
    64
  0
VERTEX
  5
19A7
  8
0
 10
26.199999999999982
 20
127.90000000000001
 30
15.0
 70
    64
  0
VERTEX
  5
19A8
  8
0
 10
25.499999999999979
 20
127.90000000000001
 30
15.0
 70
    64
  0
SEQEND
  5
19A9
  8
0
  0
POLYLINE
  5
19AB
  8
0
 66
     1
 10
0.0
 20
0.0
 30
0.0
 70
    16
 71
     4
 72
     7
  0
VERTEX
  5
19AC
  8
0
 10
25.499999999999972
 20
101.8273148717209
 30
121.3737233957194
 70
    64
  0
VERTEX
  5
19AD
  8
0
 10
19.499999999999972
 20
100.95798162806079
 30
121.1407862551271
 70
    64
  0
VERTEX
  5
19AE
  8
0
 10
13.799999999999971
 20
98.832944810224831
 30
120.5713843559016
 70
    64
  0
VERTEX
  5
19AF
  8
0
 10
8.8999999999999737
 20
95.162426670326397
 30
119.58787198451201
 70
    64
  0
VERTEX
  5
19B0
  8
0
 10
5.0999999999999721
 20
90.429390121509954
 30
118.3196586635096
 70
    64
  0
VERTEX
  5
19B1
  8
0
 10
2.8999999999999719
 20
84.923612911662246
 30
116.84439010642529
 70
    64
  0
VERTEX
  5
19B2
  8
0
 10
1.9999999999999709
 20
79.128057953927851
 30
115.2914758358101
 70
    64
  0
VERTEX
  5
19B3
  8
0
 10
25.499999999999972
 20
100.79203869131079
 30
125.2374267008756
 70
    64
  0
VERTEX
  5
19B4
  8
0
 10
19.499999999999972
 20
99.922705447650713
 30
125.0044895602834
 70
    64
  0
VERTEX
  5
19B5
  8
0
 10
13.799999999999971
 20
97.797668629814751
 30
124.43508766105781
 70
    64
  0
VERTEX
  5
19B6
  8
0
 10
8.8999999999999737
 20
94.127150489916275
 30
123.4515752896683
 70
    64
  0
VERTEX
  5
19B7
  8
0
 10
5.0999999999999721
 20
89.394113941099874
 30
122.18336196866591
 70
    64
  0
VERTEX
  5
19B8
  8
0
 10
2.899999999999971
 20
83.888336731252167
 30
120.7080934115815
 70
    64
  0
VERTEX
  5
19B9
  8
0
 10
1.99999999999997
 20
78.092781773517771
 30
119.1551791409664
 70
    64
  0
VERTEX
  5
19BA
  8
0
 10
25.499999999999972
 20
99.532618642858765
 30
128.00579465719159
 70
    64
  0
VERTEX
  5
19BB
  8
0
 10
19.599999999999969
 20
98.759877981827515
 30
127.7987394211096
 70
    64
  0
VERTEX
  5
19BC
  8
0
 10
14.099999999999969
 20
96.53824858136268
 30
127.20345561737381
 70
    64
  0
VERTEX
  5
19BD
  8
0
 10
9.2999999999999741
 20
92.964323024093119
 30
126.2458251504945
 70
    64
  0
VERTEX
  5
19BE
  8
0
 10
5.5999999999999721
 20
88.327879057905577
 30
125.0034937340024
 70
    64
  0
VERTEX
  5
19BF
  8
0
 10
3.299999999999971
 20
83.015287013315714
 30
123.5799889859385
 70
    64
  0
VERTEX
  5
19C0
  8
0
 10
2.4999999999999698
 20
77.316324638210205
 30
122.05295661983359
 70
    64
  0
VERTEX
  5
19C1
  8
0
 10
25.499999999999972
 20
97.531416636159634
 30
131.61067891724539
 70
    64
  0
VERTEX
  5
19C2
  8
0
 10
19.799999999999969
 20
96.758675975128369
 30
131.40362368116331
 70
    64
  0
VERTEX
  5
19C3
  8
0
 10
14.599999999999969
 20
94.730231739921322
 30
130.86010368644801
 70
    64
  0
VERTEX
  5
19C4
  8
0
 10
9.9999999999999734
 20
91.252898765280705
 30
129.92835512407899
 70
    64
  0
VERTEX
  5
19C5
  8
0
 10
6.3999999999999719
 20
86.809639964350964
 30
128.7377875166074
 70
    64
  0
VERTEX
  5
19C6
  8
0
 10
4.2999999999999714
 20
81.786825667647804
 30
127.39192848207431
 70
    64
  0
VERTEX
  5
19C7
  8
0
 10
3.4999999999999698
 20
76.281048457800125
 30
125.9166599249899
 70
    64
  0
SEQEND
  5
19C8
  8
0
  0
POLYLINE
  5
19CB
  8
0
 66
     1
 10
0.0
 20
0.0
 30
0.0
 70
    16
 71
     6
 72
     7
  0
VERTEX
  5
19CC
  8
0
 10
25.499999999999972
 20
69.034115194929541
 30
152.96258306108379
 70
    64
  0
VERTEX
  5
19CD
  8
0
 10
25.499999999999972
 20
69.034115194929541
 30
152.96258306108379
 70
    64
  0
VERTEX
  5
19CE
  8
0
 10
25.499999999999972
 20
69.034115194929541
 30
152.96258306108379
 70
    64
  0
VERTEX
  5
19CF
  8
0
 10
25.499999999999972
 20
69.034115194929541
 30
152.96258306108379
 70
    64
  0
VERTEX
  5
19D0
  8
0
 10
25.499999999999972
 20
69.034115194929541
 30
152.96258306108379
 70
    64
  0
VERTEX
  5
19D1
  8
0
 10
25.499999999999972
 20
69.034115194929541
 30
152.96258306108379
 70
    64
  0
VERTEX
  5
19D2
  8
0
 10
25.499999999999972
 20
69.034115194929541
 30
152.96258306108379
 70
    64
  0
VERTEX
  5
19D3
  8
0
 10
25.499999999999972
 20
91.733372112722634
 30
159.044830620993
 70
    64
  0
VERTEX
  5
19D4
  8
0
 10
19.499999999999972
 20
90.864038869062483
 30
158.81189348040081
 70
    64
  0
VERTEX
  5
19D5
  8
0
 10
13.799999999999971
 20
88.739002051226521
 30
158.24249158117519
 70
    64
  0
VERTEX
  5
19D6
  8
0
 10
8.8999999999999702
 20
85.068483911328087
 30
157.25897920978571
 70
    64
  0
VERTEX
  5
19D7
  8
0
 10
5.0999999999999712
 20
80.335447362511644
 30
155.9907658887833
 70
    64
  0
VERTEX
  5
19D8
  8
0
 10
2.8999999999999702
 20
74.829670152663937
 30
154.5154973316989
 70
    64
  0
VERTEX
  5
19D9
  8
0
 10
1.9999999999999689
 20
69.034115194929541
 30
152.96258306108379
 70
    64
  0
VERTEX
  5
19DA
  8
0
 10
25.499999999999972
 20
93.311670374707475
 30
158.95009627550229
 70
    64
  0
VERTEX
  5
19DB
  8
0
 10
19.099999999999969
 20
92.442337131047324
 30
158.71715913490999
 70
    64
  0
VERTEX
  5
19DC
  8
0
 10
13.099999999999969
 20
90.027522565324688
 30
158.0701115221537
 70
    64
  0
VERTEX
  5
19DD
  8
0
 10
7.7999999999999723
 20
86.260411842797311
 30
157.06071724625389
 70
    64
  0
VERTEX
  5
19DE
  8
0
 10
3.899999999999971
 20
81.141004963465264
 30
155.68897630721051
 70
    64
  0
VERTEX
  5
19DF
  8
0
 10
1.3999999999999699
 20
75.345450005730839
 30
154.1360620365954
 70
    64
  0
VERTEX
  5
19E0
  8
0
 10
0.4999999999999694
 20
69.163524717480811
 30
152.4796201479393
 70
    64
  0
VERTEX
  5
19E1
  8
0
 10
25.499999999999972
 20
94.182861855505834
 30
157.63061705862
 70
    64
  0
VERTEX
  5
19E2
  8
0
 10
18.89999999999997
 20
93.313528611845669
 30
157.39767991802771
 70
    64
  0
VERTEX
  5
19E3
  8
0
 10
12.799999999999971
 20
90.89871404612299
 30
156.75063230527141
 70
    64
  0
VERTEX
  5
19E4
  8
0
 10
7.4999999999999716
 20
86.938418158337811
 30
155.689474220351
 70
    64
  0
VERTEX
  5
19E5
  8
0
 10
3.399999999999971
 20
81.819011279005736
 30
154.31773328130771
 70
    64
  0
VERTEX
  5
19E6
  8
0
 10
0.8999999999999705
 20
75.926863738642425
 30
152.73893710618231
 70
    64
  0
VERTEX
  5
19E7
  8
0
 10
-0.0000000000000306
 20
69.551753285134566
 30
151.03073140850569
 70
    64
  0
VERTEX
  5
19E8
  8
0
 10
25.499999999999972
 20
100.91215702817129
 30
132.5165455751042
 70
    64
  0
VERTEX
  5
19E9
  8
0
 10
18.89999999999997
 20
100.1204694980419
 30
131.99383068662519
 70
    64
  0
VERTEX
  5
19EA
  8
0
 10
12.799999999999971
 20
97.86094635938079
 30
130.7672275780954
 70
    64
  0
VERTEX
  5
19EB
  8
0
 10
7.4999999999999742
 20
94.185351421208395
 30
128.6435510842571
 70
    64
  0
VERTEX
  5
19EC
  8
0
 10
3.3999999999999719
 20
89.454173109530089
 30
125.82292140578021
 70
    64
  0
VERTEX
  5
19ED
  8
0
 10
0.899999999999972
 20
84.002017945841089
 30
122.6020513259634
 70
    64
  0
VERTEX
  5
19EE
  8
0
 10
-0.000000000000029
 20
78.092781773517771
 30
119.1551791409664
 70
    64
  0
VERTEX
  5
19EF
  8
0
 10
25.499999999999972
 20
100.2826959605155
 30
131.00202295582591
 70
    64
  0
VERTEX
  5
19F0
  8
0
 10
19.199999999999971
 20
99.465126525875931
 30
130.57590064997581
 70
    64
  0
VERTEX
  5
19F1
  8
0
 10
13.299999999999971
 20
97.328077874353895
 30
129.2785868633274
 70
    64
  0
VERTEX
  5
19F2
  8
0
 10
8.1999999999999726
 20
93.819786196929059
 30
127.3032667611385
 70
    64
  0
VERTEX
  5
19F3
  8
0
 10
4.2999999999999732
 20
89.25591114599834
 30
124.6309934743109
 70
    64
  0
VERTEX
  5
19F4
  8
0
 10
1.899999999999971
 20
83.971059243056885
 30
121.55847978614359
 70
    64
  0
VERTEX
  5
19F5
  8
0
 10
0.999999999999971
 20
78.351600818620284
 30
118.1892533146774
 70
    64
  0
SEQEND
  5
19F6
  8
0
  0
POLYLINE
  5
1A23
  8
0
 66
     1
 10
0.0
 20
0.0
 30
0.0
 70
    16
 71
     6
 72
     7
  0
VERTEX
  5
1A24
  8
0
 10
25.499999999999972
 20
69.034115194929541
 30
152.96258306108379
 70
    64
  0
VERTEX
  5
1A25
  8
0
 10
25.499999999999972
 20
69.034115194929541
 30
152.96258306108379
 70
    64
  0
VERTEX
  5
1A26
  8
0
 10
25.499999999999972
 20
69.034115194929541
 30
152.96258306108379
 70
    64
  0
VERTEX
  5
1A27
  8
0
 10
25.499999999999972
 20
69.034115194929541
 30
152.96258306108379
 70
    64
  0
VERTEX
  5
1A28
  8
0
 10
25.499999999999972
 20
69.034115194929541
 30
152.96258306108379
 70
    64
  0
VERTEX
  5
1A29
  8
0
 10
25.499999999999972
 20
69.034115194929541
 30
152.96258306108379
 70
    64
  0
VERTEX
  5
1A2A
  8
0
 10
25.499999999999972
 20
69.034115194929541
 30
152.96258306108379
 70
    64
  0
VERTEX
  5
1A2B
  8
0
 10
25.499999999999961
 20
46.334858277136441
 30
146.88033550117461
 70
    64
  0
VERTEX
  5
1A2C
  8
0
 10
19.499999999999961
 20
47.204191520796591
 30
147.1132726417668
 70
    64
  0
VERTEX
  5
1A2D
  8
0
 10
13.79999999999996
 20
49.329228338632561
 30
147.68267454099239
 70
    64
  0
VERTEX
  5
1A2E
  8
0
 10
8.8999999999999666
 20
52.999746478530987
 30
148.66618691238199
 70
    64
  0
VERTEX
  5
1A2F
  8
0
 10
5.0999999999999659
 20
57.732783027347438
 30
149.93440023338431
 70
    64
  0
VERTEX
  5
1A30
  8
0
 10
2.8999999999999679
 20
63.238560237195138
 30
151.40966879046869
 70
    64
  0
VERTEX
  5
1A31
  8
0
 10
1.9999999999999689
 20
69.034115194929541
 30
152.96258306108379
 70
    64
  0
VERTEX
  5
1A32
  8
0
 10
25.499999999999961
 20
45.01537906025407
 30
146.00914402037631
 70
    64
  0
VERTEX
  5
1A33
  8
0
 10
19.099999999999959
 20
45.88471230391422
 30
146.2420811609685
 70
    64
  0
VERTEX
  5
1A34
  8
0
 10
13.099999999999961
 20
48.299526869636928
 30
146.88912877372479
 70
    64
  0
VERTEX
  5
1A35
  8
0
 10
7.7999999999999661
 20
52.066637592164291
 30
147.89852304962471
 70
    64
  0
VERTEX
  5
1A36
  8
0
 10
3.8999999999999662
 20
57.186044471496359
 30
149.27026398866801
 70
    64
  0
VERTEX
  5
1A37
  8
0
 10
1.3999999999999679
 20
62.981599429230748
 30
150.82317825928311
 70
    64
  0
VERTEX
  5
1A38
  8
0
 10
0.4999999999999694
 20
69.163524717480811
 30
152.4796201479393
 70
    64
  0
VERTEX
  5
1A39
  8
0
 10
25.499999999999961
 20
44.920644714763341
 30
144.4308457583914
 70
    64
  0
VERTEX
  5
1A3A
  8
0
 10
18.899999999999959
 20
45.789977958423492
 30
144.66378289898361
 70
    64
  0
VERTEX
  5
1A3B
  8
0
 10
12.79999999999996
 20
48.204792524146171
 30
145.31083051173991
 70
    64
  0
VERTEX
  5
1A3C
  8
0
 10
7.4999999999999662
 20
52.16508841193135
 30
146.37198859666029
 70
    64
  0
VERTEX
  5
1A3D
  8
0
 10
3.399999999999967
 20
57.284495291263397
 30
147.74372953570361
 70
    64
  0
VERTEX
  5
1A3E
  8
0
 10
0.8999999999999682
 20
63.176642831626737
 30
149.32252571082901
 70
    64
  0
VERTEX
  5
1A3F
  8
0
 10
-0.0000000000000306
 20
69.551753285134566
 30
151.03073140850569
 70
    64
  0
VERTEX
  5
1A40
  8
0
 10
25.499999999999972
 20
53.461673203146518
 30
112.55529349085209
 70
    64
  0
VERTEX
  5
1A41
  8
0
 10
18.899999999999959
 20
54.331006446806697
 30
112.78823063144441
 70
    64
  0
VERTEX
  5
1A42
  8
0
 10
12.79999999999996
 20
56.745821012529341
 30
113.4352782442007
 70
    64
  0
VERTEX
  5
1A43
  8
0
 10
7.499999999999968
 20
60.706116900314548
 30
114.496436329121
 70
    64
  0
VERTEX
  5
1A44
  8
0
 10
3.3999999999999679
 20
65.825523779646602
 30
115.8681772681644
 70
    64
  0
VERTEX
  5
1A45
  8
0
 10
0.8999999999999698
 20
71.717671320009913
 30
117.44697344328981
 70
    64
  0
VERTEX
  5
1A46
  8
0
 10
-0.000000000000029
 20
78.092781773517771
 30
119.1551791409664
 70
    64
  0
VERTEX
  5
1A47
  8
0
 10
25.499999999999972
 20
54.686418074538132
 30
111.8481867096656
 70
    64
  0
VERTEX
  5
1A48
  8
0
 10
19.19999999999996
 20
55.555751318198283
 30
112.0811238502579
 70
    64
  0
VERTEX
  5
1A49
  8
0
 10
13.29999999999996
 20
57.87397330129204
 30
112.70228955850391
 70
    64
  0
VERTEX
  5
1A4A
  8
0
 10
8.1999999999999673
 20
61.64108402381941
 30
113.7116838344037
 70
    64
  0
VERTEX
  5
1A4B
  8
0
 10
4.2999999999999678
 20
66.567305737893662
 30
115.03166096442661
 70
    64
  0
VERTEX
  5
1A4C
  8
0
 10
1.899999999999969
 20
72.266268112999171
 30
116.5586933305315
 70
    64
  0
VERTEX
  5
1A4D
  8
0
 10
0.999999999999971
 20
78.351600818620284
 30
118.1892533146774
 70
    64
  0
SEQEND
  5
1A4E
  8
0
  0
POLYLINE
  5
1A4F
  8
0
 66
     1
 10
0.0
 20
0.0
 30
0.0
 70
    16
 71
     4
 72
     7
  0
VERTEX
  5
1A50
  8
0
 10
25.499999999999972
 20
56.42880103613475
 30
109.2092282759009
 70
    64
  0
VERTEX
  5
1A51
  8
0
 10
19.499999999999961
 20
57.298134279794908
 30
109.4421654164932
 70
    64
  0
VERTEX
  5
1A52
  8
0
 10
13.799999999999971
 20
59.42317109763087
 30
110.01156731571869
 70
    64
  0
VERTEX
  5
1A53
  8
0
 10
8.8999999999999684
 20
63.093689237529311
 30
110.9950796871083
 70
    64
  0
VERTEX
  5
1A54
  8
0
 10
5.0999999999999677
 20
67.826725786345733
 30
112.26329300811059
 70
    64
  0
VERTEX
  5
1A55
  8
0
 10
2.8999999999999702
 20
73.332502996193426
 30
113.738561565195
 70
    64
  0
VERTEX
  5
1A56
  8
0
 10
1.9999999999999709
 20
79.128057953927851
 30
115.2914758358101
 70
    64
  0
VERTEX
  5
1A57
  8
0
 10
25.499999999999972
 20
55.393524855724642
 30
113.0729315810572
 70
    64
  0
VERTEX
  5
1A58
  8
0
 10
19.499999999999961
 20
56.262858099384829
 30
113.3058687216494
 70
    64
  0
VERTEX
  5
1A59
  8
0
 10
13.799999999999971
 20
58.387894917220763
 30
113.875270620875
 70
    64
  0
VERTEX
  5
1A5A
  8
0
 10
8.8999999999999684
 20
62.058413057119218
 30
114.85878299226459
 70
    64
  0
VERTEX
  5
1A5B
  8
0
 10
5.0999999999999677
 20
66.791449605935668
 30
116.1269963132669
 70
    64
  0
VERTEX
  5
1A5C
  8
0
 10
2.8999999999999688
 20
72.297226815783347
 30
117.60226487035131
 70
    64
  0
VERTEX
  5
1A5D
  8
0
 10
1.99999999999997
 20
78.092781773517771
 30
119.1551791409664
 70
    64
  0
VERTEX
  5
1A5E
  8
0
 10
25.499999999999972
 20
55.10003063356163
 30
116.1001185824756
 70
    64
  0
VERTEX
  5
1A5F
  8
0
 10
19.599999999999969
 20
55.872771294592887
 30
116.3071738185577
 70
    64
  0
VERTEX
  5
1A60
  8
0
 10
14.099999999999961
 20
58.094400695057743
 30
116.9024576222935
 70
    64
  0
VERTEX
  5
1A61
  8
0
 10
9.2999999999999687
 20
61.66832625232729
 30
117.86008808917281
 70
    64
  0
VERTEX
  5
1A62
  8
0
 10
5.5999999999999677
 20
66.304770218514818
 30
119.1024195056649
 70
    64
  0
VERTEX
  5
1A63
  8
0
 10
3.2999999999999692
 20
71.617362263104724
 30
120.5259242537287
 70
    64
  0
VERTEX
  5
1A64
  8
0
 10
2.4999999999999698
 20
77.316324638210205
 30
122.05295661983359
 70
    64
  0
VERTEX
  5
1A65
  8
0
 10
25.499999999999972
 20
55.030680279440617
 30
120.22264093273439
 70
    64
  0
VERTEX
  5
1A66
  8
0
 10
19.799999999999962
 20
55.803420940471881
 30
120.42969616881651
 70
    64
  0
VERTEX
  5
1A67
  8
0
 10
14.599999999999961
 20
57.8318651756789
 30
120.9732161635317
 70
    64
  0
VERTEX
  5
1A68
  8
0
 10
9.999999999999968
 20
61.30919815031956
 30
121.9049647259008
 70
    64
  0
VERTEX
  5
1A69
  8
0
 10
6.3999999999999693
 20
65.752456951249286
 30
123.0955323333724
 70
    64
  0
VERTEX
  5
1A6A
  8
0
 10
4.2999999999999687
 20
70.775271247952446
 30
124.4413913679055
 70
    64
  0
VERTEX
  5
1A6B
  8
0
 10
3.4999999999999698
 20
76.281048457800125
 30
125.9166599249899
 70
    64
  0
SEQEND
  5
1A6C
  8
0
  0
POLYLINE
  5
1B01
  8
0
 66
     1
 10
0.0
 20
0.0
 30
0.0
 70
    16
 71
     4
 72
     7
  0
VERTEX
  5
1B02
  8
0
 10
25.49999999999995
 20
0.0000499179120936
 30
143.03260717308009
 70
    64
  0
VERTEX
  5
1B03
  8
0
 10
25.49999999999995
 20
0.0000499179120936
 30
143.03260717308009
 70
    64
  0
VERTEX
  5
1B04
  8
0
 10
25.49999999999995
 20
0.0000499179120936
 30
143.03260717308009
 70
    64
  0
VERTEX
  5
1B05
  8
0
 10
25.49999999999995
 20
0.0000499179120936
 30
143.03260717308009
 70
    64
  0
VERTEX
  5
1B06
  8
0
 10
25.49999999999995
 20
0.0000499179120936
 30
143.03260717308009
 70
    64
  0
VERTEX
  5
1B07
  8
0
 10
25.49999999999995
 20
0.0000499179120936
 30
143.03260717308009
 70
    64
  0
VERTEX
  5
1B08
  8
0
 10
25.49999999999995
 20
0.0000499179120936
 30
143.03260717308009
 70
    64
  0
VERTEX
  5
1B09
  8
0
 10
25.49999999999995
 20
0.0000499179120652
 30
139.03260717308009
 70
    64
  0
VERTEX
  5
1B0A
  8
0
 10
24.49999999999995
 20
0.0000499179120936
 30
139.13260717308009
 70
    64
  0
VERTEX
  5
1B0B
  8
0
 10
23.49999999999995
 20
0.0000499179120936
 30
139.53260717308009
 70
    64
  0
VERTEX
  5
1B0C
  8
0
 10
22.599999999999941
 20
0.0000499179120368
 30
140.13260717308009
 70
    64
  0
VERTEX
  5
1B0D
  8
0
 10
21.99999999999995
 20
0.0000499179120652
 30
141.03260717308009
 70
    64
  0
VERTEX
  5
1B0E
  8
0
 10
21.599999999999941
 20
0.0000499179120652
 30
142.03260717308009
 70
    64
  0
VERTEX
  5
1B0F
  8
0
 10
21.49999999999994
 20
0.0000499179120936
 30
143.03260717308009
 70
    64
  0
VERTEX
  5
1B10
  8
0
 10
25.49999999999995
 20
0.5000499179120653
 30
138.53260717308009
 70
    64
  0
VERTEX
  5
1B11
  8
0
 10
24.299999999999951
 20
0.5000499179120937
 30
138.73260717308011
 70
    64
  0
VERTEX
  5
1B12
  8
0
 10
23.299999999999951
 20
0.5000499179120653
 30
139.13260717308009
 70
    64
  0
VERTEX
  5
1B13
  8
0
 10
22.299999999999951
 20
0.5000499179120937
 30
139.83260717308011
 70
    64
  0
VERTEX
  5
1B14
  8
0
 10
21.599999999999941
 20
0.5000499179120653
 30
140.83260717308011
 70
    64
  0
VERTEX
  5
1B15
  8
0
 10
21.19999999999995
 20
0.5000499179120937
 30
141.83260717308011
 70
    64
  0
VERTEX
  5
1B16
  8
0
 10
20.99999999999994
 20
0.5000499179120653
 30
143.03260717308009
 70
    64
  0
VERTEX
  5
1B17
  8
0
 10
25.499999999999961
 20
51.000049917912087
 30
138.53260717308009
 70
    64
  0
VERTEX
  5
1B18
  8
0
 10
24.299999999999962
 20
51.000049917912087
 30
138.73260717308011
 70
    64
  0
VERTEX
  5
1B19
  8
0
 10
23.299999999999962
 20
51.000049917912087
 30
139.13260717308009
 70
    64
  0
VERTEX
  5
1B1A
  8
0
 10
22.299999999999962
 20
51.000049917912087
 30
139.83260717308011
 70
    64
  0
VERTEX
  5
1B1B
  8
0
 10
21.599999999999959
 20
51.000049917912087
 30
140.83260717308011
 70
    64
  0
VERTEX
  5
1B1C
  8
0
 10
21.19999999999996
 20
51.000049917912087
 30
141.83260717308011
 70
    64
  0
VERTEX
  5
1B1D
  8
0
 10
20.999999999999961
 20
51.000049917912087
 30
143.03260717308009
 70
    64
  0
SEQEND
  5
1B1E
  8
0
  0
POLYLINE
  5
1B1F
  8
0
 66
     1
 10
0.0
 20
0.0
 30
0.0
 70
    16
 71
     4
 72
     7
  0
VERTEX
  5
1B20
  8
0
 10
25.49999999999995
 20
0.0000499179120936
 30
143.03260717308009
 70
    64
  0
VERTEX
  5
1B21
  8
0
 10
25.49999999999995
 20
0.0000499179120936
 30
143.03260717308009
 70
    64
  0
VERTEX
  5
1B22
  8
0
 10
25.49999999999995
 20
0.0000499179120936
 30
143.03260717308009
 70
    64
  0
VERTEX
  5
1B23
  8
0
 10
25.49999999999995
 20
0.0000499179120936
 30
143.03260717308009
 70
    64
  0
VERTEX
  5
1B24
  8
0
 10
25.49999999999995
 20
0.0000499179120936
 30
143.03260717308009
 70
    64
  0
VERTEX
  5
1B25
  8
0
 10
25.49999999999995
 20
0.0000499179120936
 30
143.03260717308009
 70
    64
  0
VERTEX
  5
1B26
  8
0
 10
25.49999999999995
 20
0.0000499179120936
 30
143.03260717308009
 70
    64
  0
VERTEX
  5
1B27
  8
0
 10
25.49999999999994
 20
0.0000499179120936
 30
147.03260717308009
 70
    64
  0
VERTEX
  5
1B28
  8
0
 10
24.49999999999994
 20
0.0000499179120936
 30
146.9326071730801
 70
    64
  0
VERTEX
  5
1B29
  8
0
 10
23.49999999999994
 20
0.0000499179120652
 30
146.53260717308009
 70
    64
  0
VERTEX
  5
1B2A
  8
0
 10
22.599999999999941
 20
0.0000499179120936
 30
145.9326071730801
 70
    64
  0
VERTEX
  5
1B2B
  8
0
 10
21.99999999999994
 20
0.0000499179120936
 30
145.03260717308009
 70
    64
  0
VERTEX
  5
1B2C
  8
0
 10
21.599999999999941
 20
0.0000499179120652
 30
144.03260717308009
 70
    64
  0
VERTEX
  5
1B2D
  8
0
 10
21.49999999999994
 20
0.0000499179120936
 30
143.03260717308009
 70
    64
  0
VERTEX
  5
1B2E
  8
0
 10
25.49999999999994
 20
0.5000499179120653
 30
147.53260717308009
 70
    64
  0
VERTEX
  5
1B2F
  8
0
 10
24.29999999999994
 20
0.5000499179120937
 30
147.33260717308011
 70
    64
  0
VERTEX
  5
1B30
  8
0
 10
23.29999999999994
 20
0.5000499179120653
 30
146.9326071730801
 70
    64
  0
VERTEX
  5
1B31
  8
0
 10
22.29999999999994
 20
0.5000499179120937
 30
146.23260717308011
 70
    64
  0
VERTEX
  5
1B32
  8
0
 10
21.599999999999941
 20
0.5000499179120937
 30
145.23260717308011
 70
    64
  0
VERTEX
  5
1B33
  8
0
 10
21.19999999999995
 20
0.5000499179120368
 30
144.23260717308011
 70
    64
  0
VERTEX
  5
1B34
  8
0
 10
20.99999999999994
 20
0.5000499179120653
 30
143.03260717308009
 70
    64
  0
VERTEX
  5
1B35
  8
0
 10
25.49999999999995
 20
51.000049917912058
 30
147.53260717308009
 70
    64
  0
VERTEX
  5
1B36
  8
0
 10
24.299999999999962
 20
51.000049917912087
 30
147.33260717308011
 70
    64
  0
VERTEX
  5
1B37
  8
0
 10
23.299999999999962
 20
51.000049917912087
 30
146.9326071730801
 70
    64
  0
VERTEX
  5
1B38
  8
0
 10
22.299999999999951
 20
51.000049917912087
 30
146.23260717308011
 70
    64
  0
VERTEX
  5
1B39
  8
0
 10
21.599999999999959
 20
51.000049917912087
 30
145.23260717308011
 70
    64
  0
VERTEX
  5
1B3A
  8
0
 10
21.19999999999996
 20
51.000049917912087
 30
144.23260717308011
 70
    64
  0
VERTEX
  5
1B3B
  8
0
 10
20.999999999999961
 20
51.000049917912087
 30
143.03260717308009
 70
    64
  0
SEQEND
  5
1B3C
  8
0
  0
POLYLINE
  5
1B3D
  8
0
 66
     1
 10
0.0
 20
0.0
 30
0.0
 70
    16
 71
     4
 72
     7
  0
VERTEX
  5
1B3E
  8
0
 10
25.49999999999995
 20
0.0000499179120936
 30
143.03260717308009
 70
    64
  0
VERTEX
  5
1B3F
  8
0
 10
25.49999999999995
 20
0.0000499179120936
 30
143.03260717308009
 70
    64
  0
VERTEX
  5
1B40
  8
0
 10
25.49999999999995
 20
0.0000499179120936
 30
143.03260717308009
 70
    64
  0
VERTEX
  5
1B41
  8
0
 10
25.49999999999995
 20
0.0000499179120936
 30
143.03260717308009
 70
    64
  0
VERTEX
  5
1B42
  8
0
 10
25.49999999999995
 20
0.0000499179120936
 30
143.03260717308009
 70
    64
  0
VERTEX
  5
1B43
  8
0
 10
25.49999999999995
 20
0.0000499179120936
 30
143.03260717308009
 70
    64
  0
VERTEX
  5
1B44
  8
0
 10
25.49999999999995
 20
0.0000499179120936
 30
143.03260717308009
 70
    64
  0
VERTEX
  5
1B45
  8
0
 10
25.49999999999994
 20
0.0000499179120936
 30
147.03260717308009
 70
    64
  0
VERTEX
  5
1B46
  8
0
 10
26.49999999999995
 20
0.0000499179120936
 30
146.9326071730801
 70
    64
  0
VERTEX
  5
1B47
  8
0
 10
27.49999999999994
 20
0.0000499179120652
 30
146.53260717308009
 70
    64
  0
VERTEX
  5
1B48
  8
0
 10
28.399999999999942
 20
0.0000499179120936
 30
145.9326071730801
 70
    64
  0
VERTEX
  5
1B49
  8
0
 10
28.99999999999995
 20
0.0000499179120936
 30
145.03260717308009
 70
    64
  0
VERTEX
  5
1B4A
  8
0
 10
29.399999999999949
 20
0.0000499179120652
 30
144.03260717308009
 70
    64
  0
VERTEX
  5
1B4B
  8
0
 10
29.49999999999995
 20
0.0000499179120936
 30
143.03260717308009
 70
    64
  0
VERTEX
  5
1B4C
  8
0
 10
25.49999999999994
 20
0.5000499179120653
 30
147.53260717308009
 70
    64
  0
VERTEX
  5
1B4D
  8
0
 10
26.699999999999939
 20
0.5000499179120937
 30
147.33260717308011
 70
    64
  0
VERTEX
  5
1B4E
  8
0
 10
27.699999999999939
 20
0.5000499179120653
 30
146.9326071730801
 70
    64
  0
VERTEX
  5
1B4F
  8
0
 10
28.699999999999939
 20
0.5000499179120937
 30
146.23260717308011
 70
    64
  0
VERTEX
  5
1B50
  8
0
 10
29.399999999999949
 20
0.5000499179120653
 30
145.23260717308011
 70
    64
  0
VERTEX
  5
1B51
  8
0
 10
29.799999999999951
 20
0.5000499179120368
 30
144.23260717308011
 70
    64
  0
VERTEX
  5
1B52
  8
0
 10
29.99999999999995
 20
0.5000499179120653
 30
143.03260717308009
 70
    64
  0
VERTEX
  5
1B53
  8
0
 10
25.49999999999995
 20
51.000049917912058
 30
147.53260717308009
 70
    64
  0
VERTEX
  5
1B54
  8
0
 10
26.69999999999996
 20
51.000049917912087
 30
147.33260717308011
 70
    64
  0
VERTEX
  5
1B55
  8
0
 10
27.69999999999996
 20
51.000049917912087
 30
146.9326071730801
 70
    64
  0
VERTEX
  5
1B56
  8
0
 10
28.69999999999996
 20
51.000049917912087
 30
146.23260717308011
 70
    64
  0
VERTEX
  5
1B57
  8
0
 10
29.399999999999949
 20
51.000049917912087
 30
145.23260717308011
 70
    64
  0
VERTEX
  5
1B58
  8
0
 10
29.799999999999962
 20
51.000049917912087
 30
144.23260717308011
 70
    64
  0
VERTEX
  5
1B59
  8
0
 10
29.999999999999961
 20
51.000049917912087
 30
143.03260717308009
 70
    64
  0
SEQEND
  5
1B5A
  8
0
  0
POLYLINE
  5
1B5B
  8
0
 66
     1
 10
0.0
 20
0.0
 30
0.0
 70
    16
 71
     4
 72
     7
  0
VERTEX
  5
1B5C
  8
0
 10
25.49999999999995
 20
0.0000499179120936
 30
143.03260717308009
 70
    64
  0
VERTEX
  5
1B5D
  8
0
 10
25.49999999999995
 20
0.0000499179120936
 30
143.03260717308009
 70
    64
  0
VERTEX
  5
1B5E
  8
0
 10
25.49999999999995
 20
0.0000499179120936
 30
143.03260717308009
 70
    64
  0
VERTEX
  5
1B5F
  8
0
 10
25.49999999999995
 20
0.0000499179120936
 30
143.03260717308009
 70
    64
  0
VERTEX
  5
1B60
  8
0
 10
25.49999999999995
 20
0.0000499179120936
 30
143.03260717308009
 70
    64
  0
VERTEX
  5
1B61
  8
0
 10
25.49999999999995
 20
0.0000499179120936
 30
143.03260717308009
 70
    64
  0
VERTEX
  5
1B62
  8
0
 10
25.49999999999995
 20
0.0000499179120936
 30
143.03260717308009
 70
    64
  0
VERTEX
  5
1B63
  8
0
 10
25.49999999999995
 20
0.0000499179120652
 30
139.03260717308009
 70
    64
  0
VERTEX
  5
1B64
  8
0
 10
26.49999999999995
 20
0.0000499179120936
 30
139.13260717308009
 70
    64
  0
VERTEX
  5
1B65
  8
0
 10
27.49999999999995
 20
0.0000499179120936
 30
139.53260717308009
 70
    64
  0
VERTEX
  5
1B66
  8
0
 10
28.399999999999942
 20
0.0000499179120368
 30
140.13260717308009
 70
    64
  0
VERTEX
  5
1B67
  8
0
 10
28.99999999999995
 20
0.0000499179120652
 30
141.03260717308009
 70
    64
  0
VERTEX
  5
1B68
  8
0
 10
29.399999999999949
 20
0.0000499179120652
 30
142.03260717308009
 70
    64
  0
VERTEX
  5
1B69
  8
0
 10
29.49999999999995
 20
0.0000499179120936
 30
143.03260717308009
 70
    64
  0
VERTEX
  5
1B6A
  8
0
 10
25.49999999999995
 20
0.5000499179120653
 30
138.53260717308009
 70
    64
  0
VERTEX
  5
1B6B
  8
0
 10
26.69999999999995
 20
0.5000499179120937
 30
138.73260717308011
 70
    64
  0
VERTEX
  5
1B6C
  8
0
 10
27.69999999999995
 20
0.5000499179120653
 30
139.13260717308009
 70
    64
  0
VERTEX
  5
1B6D
  8
0
 10
28.69999999999995
 20
0.5000499179120937
 30
139.83260717308011
 70
    64
  0
VERTEX
  5
1B6E
  8
0
 10
29.399999999999949
 20
0.5000499179120653
 30
140.83260717308011
 70
    64
  0
VERTEX
  5
1B6F
  8
0
 10
29.799999999999951
 20
0.5000499179120937
 30
141.83260717308011
 70
    64
  0
VERTEX
  5
1B70
  8
0
 10
29.99999999999995
 20
0.5000499179120653
 30
143.03260717308009
 70
    64
  0
VERTEX
  5
1B71
  8
0
 10
25.499999999999961
 20
51.000049917912087
 30
138.53260717308009
 70
    64
  0
VERTEX
  5
1B72
  8
0
 10
26.69999999999996
 20
51.000049917912087
 30
138.73260717308011
 70
    64
  0
VERTEX
  5
1B73
  8
0
 10
27.69999999999996
 20
51.000049917912087
 30
139.13260717308009
 70
    64
  0
VERTEX
  5
1B74
  8
0
 10
28.69999999999996
 20
51.000049917912087
 30
139.83260717308011
 70
    64
  0
VERTEX
  5
1B75
  8
0
 10
29.399999999999959
 20
51.000049917912087
 30
140.83260717308011
 70
    64
  0
VERTEX
  5
1B76
  8
0
 10
29.799999999999962
 20
51.000049917912087
 30
141.83260717308011
 70
    64
  0
VERTEX
  5
1B77
  8
0
 10
29.999999999999961
 20
51.000049917912087
 30
143.03260717308009
 70
    64
  0
SEQEND
  5
1B78
  8
0
  0
POLYLINE
  5
1B79
  8
0
 66
     1
 10
0.0
 20
0.0
 30
0.0
 70
    16
 71
     4
 72
     7
  0
VERTEX
  5
1B7A
  8
0
 10
25.499999999999972
 20
56.42880103613475
 30
109.2092282759009
 70
    64
  0
VERTEX
  5
1B7B
  8
0
 10
31.499999999999961
 20
57.298134279794908
 30
109.4421654164932
 70
    64
  0
VERTEX
  5
1B7C
  8
0
 10
37.199999999999967
 20
59.42317109763087
 30
110.01156731571869
 70
    64
  0
VERTEX
  5
1B7D
  8
0
 10
42.099999999999973
 20
63.093689237529311
 30
110.9950796871083
 70
    64
  0
VERTEX
  5
1B7E
  8
0
 10
45.89999999999997
 20
67.826725786345733
 30
112.26329300811059
 70
    64
  0
VERTEX
  5
1B7F
  8
0
 10
48.099999999999973
 20
73.332502996193426
 30
113.738561565195
 70
    64
  0
VERTEX
  5
1B80
  8
0
 10
48.999999999999972
 20
79.128057953927851
 30
115.2914758358101
 70
    64
  0
VERTEX
  5
1B81
  8
0
 10
25.499999999999972
 20
55.393524855724642
 30
113.0729315810572
 70
    64
  0
VERTEX
  5
1B82
  8
0
 10
31.499999999999961
 20
56.262858099384829
 30
113.3058687216494
 70
    64
  0
VERTEX
  5
1B83
  8
0
 10
37.199999999999967
 20
58.387894917220763
 30
113.875270620875
 70
    64
  0
VERTEX
  5
1B84
  8
0
 10
42.099999999999973
 20
62.058413057119218
 30
114.85878299226459
 70
    64
  0
VERTEX
  5
1B85
  8
0
 10
45.89999999999997
 20
66.791449605935668
 30
116.1269963132669
 70
    64
  0
VERTEX
  5
1B86
  8
0
 10
48.099999999999973
 20
72.297226815783347
 30
117.60226487035131
 70
    64
  0
VERTEX
  5
1B87
  8
0
 10
48.999999999999972
 20
78.092781773517771
 30
119.1551791409664
 70
    64
  0
VERTEX
  5
1B88
  8
0
 10
25.499999999999972
 20
55.10003063356163
 30
116.1001185824756
 70
    64
  0
VERTEX
  5
1B89
  8
0
 10
31.39999999999997
 20
55.872771294592887
 30
116.3071738185577
 70
    64
  0
VERTEX
  5
1B8A
  8
0
 10
36.899999999999963
 20
58.094400695057743
 30
116.9024576222935
 70
    64
  0
VERTEX
  5
1B8B
  8
0
 10
41.699999999999967
 20
61.66832625232729
 30
117.86008808917281
 70
    64
  0
VERTEX
  5
1B8C
  8
0
 10
45.39999999999997
 20
66.304770218514818
 30
119.1024195056649
 70
    64
  0
VERTEX
  5
1B8D
  8
0
 10
47.699999999999967
 20
71.617362263104724
 30
120.5259242537287
 70
    64
  0
VERTEX
  5
1B8E
  8
0
 10
48.499999999999972
 20
77.316324638210205
 30
122.05295661983359
 70
    64
  0
VERTEX
  5
1B8F
  8
0
 10
25.499999999999972
 20
55.030680279440617
 30
120.22264093273439
 70
    64
  0
VERTEX
  5
1B90
  8
0
 10
31.19999999999996
 20
55.803420940471881
 30
120.42969616881651
 70
    64
  0
VERTEX
  5
1B91
  8
0
 10
36.399999999999963
 20
57.8318651756789
 30
120.9732161635317
 70
    64
  0
VERTEX
  5
1B92
  8
0
 10
40.999999999999957
 20
61.30919815031956
 30
121.9049647259008
 70
    64
  0
VERTEX
  5
1B93
  8
0
 10
44.599999999999973
 20
65.752456951249286
 30
123.0955323333724
 70
    64
  0
VERTEX
  5
1B94
  8
0
 10
46.699999999999967
 20
70.775271247952446
 30
124.4413913679055
 70
    64
  0
VERTEX
  5
1B95
  8
0
 10
47.499999999999972
 20
76.281048457800125
 30
125.9166599249899
 70
    64
  0
SEQEND
  5
1B96
  8
0
  0
POLYLINE
  5
1B97
  8
0
 66
     1
 10
0.0
 20
0.0
 30
0.0
 70
    16
 71
     6
 72
     7
  0
VERTEX
  5
1B98
  8
0
 10
25.499999999999972
 20
69.034115194929541
 30
152.96258306108379
 70
    64
  0
VERTEX
  5
1B99
  8
0
 10
25.499999999999972
 20
69.034115194929541
 30
152.96258306108379
 70
    64
  0
VERTEX
  5
1B9A
  8
0
 10
25.499999999999972
 20
69.034115194929541
 30
152.96258306108379
 70
    64
  0
VERTEX
  5
1B9B
  8
0
 10
25.499999999999972
 20
69.034115194929541
 30
152.96258306108379
 70
    64
  0
VERTEX
  5
1B9C
  8
0
 10
25.499999999999972
 20
69.034115194929541
 30
152.96258306108379
 70
    64
  0
VERTEX
  5
1B9D
  8
0
 10
25.499999999999972
 20
69.034115194929541
 30
152.96258306108379
 70
    64
  0
VERTEX
  5
1B9E
  8
0
 10
25.499999999999972
 20
69.034115194929541
 30
152.96258306108379
 70
    64
  0
VERTEX
  5
1B9F
  8
0
 10
25.499999999999961
 20
46.334858277136441
 30
146.88033550117461
 70
    64
  0
VERTEX
  5
1BA0
  8
0
 10
31.499999999999961
 20
47.204191520796591
 30
147.1132726417668
 70
    64
  0
VERTEX
  5
1BA1
  8
0
 10
37.199999999999967
 20
49.329228338632561
 30
147.68267454099239
 70
    64
  0
VERTEX
  5
1BA2
  8
0
 10
42.099999999999959
 20
52.999746478530987
 30
148.66618691238199
 70
    64
  0
VERTEX
  5
1BA3
  8
0
 10
45.899999999999963
 20
57.732783027347438
 30
149.93440023338431
 70
    64
  0
VERTEX
  5
1BA4
  8
0
 10
48.099999999999973
 20
63.238560237195138
 30
151.40966879046869
 70
    64
  0
VERTEX
  5
1BA5
  8
0
 10
48.999999999999972
 20
69.034115194929541
 30
152.96258306108379
 70
    64
  0
VERTEX
  5
1BA6
  8
0
 10
25.499999999999961
 20
45.01537906025407
 30
146.00914402037631
 70
    64
  0
VERTEX
  5
1BA7
  8
0
 10
31.899999999999959
 20
45.88471230391422
 30
146.2420811609685
 70
    64
  0
VERTEX
  5
1BA8
  8
0
 10
37.899999999999963
 20
48.299526869636928
 30
146.88912877372479
 70
    64
  0
VERTEX
  5
1BA9
  8
0
 10
43.19999999999996
 20
52.066637592164291
 30
147.89852304962471
 70
    64
  0
VERTEX
  5
1BAA
  8
0
 10
47.099999999999959
 20
57.186044471496359
 30
149.27026398866801
 70
    64
  0
VERTEX
  5
1BAB
  8
0
 10
49.599999999999973
 20
62.981599429230748
 30
150.82317825928311
 70
    64
  0
VERTEX
  5
1BAC
  8
0
 10
50.499999999999972
 20
69.163524717480811
 30
152.4796201479393
 70
    64
  0
VERTEX
  5
1BAD
  8
0
 10
25.499999999999961
 20
44.920644714763341
 30
144.4308457583914
 70
    64
  0
VERTEX
  5
1BAE
  8
0
 10
32.099999999999959
 20
45.789977958423492
 30
144.66378289898361
 70
    64
  0
VERTEX
  5
1BAF
  8
0
 10
38.19999999999996
 20
48.204792524146171
 30
145.31083051173991
 70
    64
  0
VERTEX
  5
1BB0
  8
0
 10
43.499999999999957
 20
52.16508841193135
 30
146.37198859666029
 70
    64
  0
VERTEX
  5
1BB1
  8
0
 10
47.599999999999973
 20
57.284495291263397
 30
147.74372953570361
 70
    64
  0
VERTEX
  5
1BB2
  8
0
 10
50.09999999999998
 20
63.176642831626737
 30
149.32252571082901
 70
    64
  0
VERTEX
  5
1BB3
  8
0
 10
50.999999999999972
 20
69.551753285134566
 30
151.03073140850569
 70
    64
  0
VERTEX
  5
1BB4
  8
0
 10
25.499999999999972
 20
53.461673203146518
 30
112.55529349085209
 70
    64
  0
VERTEX
  5
1BB5
  8
0
 10
32.099999999999959
 20
54.331006446806697
 30
112.78823063144441
 70
    64
  0
VERTEX
  5
1BB6
  8
0
 10
38.19999999999996
 20
56.745821012529341
 30
113.4352782442007
 70
    64
  0
VERTEX
  5
1BB7
  8
0
 10
43.499999999999957
 20
60.706116900314548
 30
114.496436329121
 70
    64
  0
VERTEX
  5
1BB8
  8
0
 10
47.599999999999973
 20
65.825523779646602
 30
115.8681772681644
 70
    64
  0
VERTEX
  5
1BB9
  8
0
 10
50.09999999999998
 20
71.717671320009913
 30
117.44697344328981
 70
    64
  0
VERTEX
  5
1BBA
  8
0
 10
50.999999999999972
 20
78.092781773517771
 30
119.1551791409664
 70
    64
  0
VERTEX
  5
1BBB
  8
0
 10
25.499999999999972
 20
54.686418074538132
 30
111.8481867096656
 70
    64
  0
VERTEX
  5
1BBC
  8
0
 10
31.799999999999969
 20
55.555751318198283
 30
112.0811238502579
 70
    64
  0
VERTEX
  5
1BBD
  8
0
 10
37.69999999999996
 20
57.87397330129204
 30
112.70228955850391
 70
    64
  0
VERTEX
  5
1BBE
  8
0
 10
42.799999999999962
 20
61.64108402381941
 30
113.7116838344037
 70
    64
  0
VERTEX
  5
1BBF
  8
0
 10
46.699999999999967
 20
66.567305737893662
 30
115.03166096442661
 70
    64
  0
VERTEX
  5
1BC0
  8
0
 10
49.099999999999973
 20
72.266268112999171
 30
116.5586933305315
 70
    64
  0
VERTEX
  5
1BC1
  8
0
 10
49.999999999999972
 20
78.351600818620284
 30
118.1892533146774
 70
    64
  0
SEQEND
  5
1BC2
  8
0
  0
POLYLINE
  5
1BC3
  8
0
 66
     1
 10
0.0
 20
0.0
 30
0.0
 70
    16
 71
     6
 72
     7
  0
VERTEX
  5
1BC4
  8
0
 10
25.499999999999972
 20
69.034115194929541
 30
152.96258306108379
 70
    64
  0
VERTEX
  5
1BC5
  8
0
 10
25.499999999999972
 20
69.034115194929541
 30
152.96258306108379
 70
    64
  0
VERTEX
  5
1BC6
  8
0
 10
25.499999999999972
 20
69.034115194929541
 30
152.96258306108379
 70
    64
  0
VERTEX
  5
1BC7
  8
0
 10
25.499999999999972
 20
69.034115194929541
 30
152.96258306108379
 70
    64
  0
VERTEX
  5
1BC8
  8
0
 10
25.499999999999972
 20
69.034115194929541
 30
152.96258306108379
 70
    64
  0
VERTEX
  5
1BC9
  8
0
 10
25.499999999999972
 20
69.034115194929541
 30
152.96258306108379
 70
    64
  0
VERTEX
  5
1BCA
  8
0
 10
25.499999999999972
 20
69.034115194929541
 30
152.96258306108379
 70
    64
  0
VERTEX
  5
1BCB
  8
0
 10
25.499999999999972
 20
91.733372112722634
 30
159.044830620993
 70
    64
  0
VERTEX
  5
1BCC
  8
0
 10
31.499999999999972
 20
90.864038869062483
 30
158.81189348040081
 70
    64
  0
VERTEX
  5
1BCD
  8
0
 10
37.199999999999967
 20
88.739002051226521
 30
158.24249158117519
 70
    64
  0
VERTEX
  5
1BCE
  8
0
 10
42.099999999999973
 20
85.068483911328087
 30
157.25897920978571
 70
    64
  0
VERTEX
  5
1BCF
  8
0
 10
45.89999999999997
 20
80.335447362511644
 30
155.9907658887833
 70
    64
  0
VERTEX
  5
1BD0
  8
0
 10
48.099999999999973
 20
74.829670152663937
 30
154.5154973316989
 70
    64
  0
VERTEX
  5
1BD1
  8
0
 10
48.999999999999972
 20
69.034115194929541
 30
152.96258306108379
 70
    64
  0
VERTEX
  5
1BD2
  8
0
 10
25.499999999999972
 20
93.311670374707475
 30
158.95009627550229
 70
    64
  0
VERTEX
  5
1BD3
  8
0
 10
31.89999999999997
 20
92.442337131047324
 30
158.71715913490999
 70
    64
  0
VERTEX
  5
1BD4
  8
0
 10
37.89999999999997
 20
90.027522565324688
 30
158.0701115221537
 70
    64
  0
VERTEX
  5
1BD5
  8
0
 10
43.199999999999967
 20
86.260411842797311
 30
157.06071724625389
 70
    64
  0
VERTEX
  5
1BD6
  8
0
 10
47.099999999999973
 20
81.141004963465264
 30
155.68897630721051
 70
    64
  0
VERTEX
  5
1BD7
  8
0
 10
49.599999999999973
 20
75.345450005730839
 30
154.1360620365954
 70
    64
  0
VERTEX
  5
1BD8
  8
0
 10
50.499999999999972
 20
69.163524717480811
 30
152.4796201479393
 70
    64
  0
VERTEX
  5
1BD9
  8
0
 10
25.499999999999972
 20
94.182861855505834
 30
157.63061705862
 70
    64
  0
VERTEX
  5
1BDA
  8
0
 10
32.099999999999973
 20
93.313528611845669
 30
157.39767991802771
 70
    64
  0
VERTEX
  5
1BDB
  8
0
 10
38.199999999999967
 20
90.89871404612299
 30
156.75063230527141
 70
    64
  0
VERTEX
  5
1BDC
  8
0
 10
43.499999999999957
 20
86.938418158337811
 30
155.689474220351
 70
    64
  0
VERTEX
  5
1BDD
  8
0
 10
47.599999999999973
 20
81.819011279005736
 30
154.31773328130771
 70
    64
  0
VERTEX
  5
1BDE
  8
0
 10
50.09999999999998
 20
75.926863738642425
 30
152.73893710618231
 70
    64
  0
VERTEX
  5
1BDF
  8
0
 10
50.999999999999972
 20
69.551753285134566
 30
151.03073140850569
 70
    64
  0
VERTEX
  5
1BE0
  8
0
 10
25.499999999999972
 20
100.91215702817129
 30
132.5165455751042
 70
    64
  0
VERTEX
  5
1BE1
  8
0
 10
32.099999999999973
 20
100.1204694980419
 30
131.99383068662519
 70
    64
  0
VERTEX
  5
1BE2
  8
0
 10
38.199999999999967
 20
97.86094635938079
 30
130.7672275780954
 70
    64
  0
VERTEX
  5
1BE3
  8
0
 10
43.499999999999957
 20
94.185351421208395
 30
128.6435510842571
 70
    64
  0
VERTEX
  5
1BE4
  8
0
 10
47.599999999999973
 20
89.454173109530089
 30
125.82292140578021
 70
    64
  0
VERTEX
  5
1BE5
  8
0
 10
50.09999999999998
 20
84.002017945841089
 30
122.6020513259634
 70
    64
  0
VERTEX
  5
1BE6
  8
0
 10
50.999999999999972
 20
78.092781773517771
 30
119.1551791409664
 70
    64
  0
VERTEX
  5
1BE7
  8
0
 10
25.499999999999972
 20
100.2826959605155
 30
131.00202295582591
 70
    64
  0
VERTEX
  5
1BE8
  8
0
 10
31.799999999999969
 20
99.465126525875931
 30
130.57590064997581
 70
    64
  0
VERTEX
  5
1BE9
  8
0
 10
37.699999999999967
 20
97.328077874353895
 30
129.2785868633274
 70
    64
  0
VERTEX
  5
1BEA
  8
0
 10
42.799999999999962
 20
93.819786196929059
 30
127.3032667611385
 70
    64
  0
VERTEX
  5
1BEB
  8
0
 10
46.699999999999967
 20
89.25591114599834
 30
124.6309934743109
 70
    64
  0
VERTEX
  5
1BEC
  8
0
 10
49.099999999999973
 20
83.971059243056885
 30
121.55847978614359
 70
    64
  0
VERTEX
  5
1BED
  8
0
 10
49.999999999999972
 20
78.351600818620284
 30
118.1892533146774
 70
    64
  0
SEQEND
  5
1BEE
  8
0
  0
POLYLINE
  5
1BEF
  8
0
 66
     1
 10
0.0
 20
0.0
 30
0.0
 70
    16
 71
     4
 72
     7
  0
VERTEX
  5
1BF0
  8
0
 10
25.499999999999972
 20
101.8273148717209
 30
121.3737233957194
 70
    64
  0
VERTEX
  5
1BF1
  8
0
 10
31.499999999999972
 20
100.95798162806079
 30
121.1407862551271
 70
    64
  0
VERTEX
  5
1BF2
  8
0
 10
37.199999999999967
 20
98.832944810224831
 30
120.5713843559016
 70
    64
  0
VERTEX
  5
1BF3
  8
0
 10
42.099999999999973
 20
95.162426670326397
 30
119.58787198451201
 70
    64
  0
VERTEX
  5
1BF4
  8
0
 10
45.89999999999997
 20
90.429390121509954
 30
118.3196586635096
 70
    64
  0
VERTEX
  5
1BF5
  8
0
 10
48.099999999999973
 20
84.923612911662246
 30
116.84439010642529
 70
    64
  0
VERTEX
  5
1BF6
  8
0
 10
48.999999999999972
 20
79.128057953927851
 30
115.2914758358101
 70
    64
  0
VERTEX
  5
1BF7
  8
0
 10
25.499999999999972
 20
100.79203869131079
 30
125.2374267008756
 70
    64
  0
VERTEX
  5
1BF8
  8
0
 10
31.499999999999972
 20
99.922705447650713
 30
125.0044895602834
 70
    64
  0
VERTEX
  5
1BF9
  8
0
 10
37.199999999999967
 20
97.797668629814751
 30
124.43508766105781
 70
    64
  0
VERTEX
  5
1BFA
  8
0
 10
42.099999999999973
 20
94.127150489916275
 30
123.4515752896683
 70
    64
  0
VERTEX
  5
1BFB
  8
0
 10
45.89999999999997
 20
89.394113941099874
 30
122.18336196866591
 70
    64
  0
VERTEX
  5
1BFC
  8
0
 10
48.099999999999973
 20
83.888336731252167
 30
120.7080934115815
 70
    64
  0
VERTEX
  5
1BFD
  8
0
 10
48.999999999999972
 20
78.092781773517771
 30
119.1551791409664
 70
    64
  0
VERTEX
  5
1BFE
  8
0
 10
25.499999999999972
 20
99.532618642858765
 30
128.00579465719159
 70
    64
  0
VERTEX
  5
1BFF
  8
0
 10
31.39999999999997
 20
98.759877981827515
 30
127.7987394211096
 70
    64
  0
VERTEX
  5
1C00
  8
0
 10
36.89999999999997
 20
96.53824858136268
 30
127.20345561737381
 70
    64
  0
VERTEX
  5
1C01
  8
0
 10
41.699999999999967
 20
92.964323024093119
 30
126.2458251504945
 70
    64
  0
VERTEX
  5
1C02
  8
0
 10
45.39999999999997
 20
88.327879057905577
 30
125.0034937340024
 70
    64
  0
VERTEX
  5
1C03
  8
0
 10
47.699999999999967
 20
83.015287013315714
 30
123.5799889859385
 70
    64
  0
VERTEX
  5
1C04
  8
0
 10
48.499999999999972
 20
77.316324638210205
 30
122.05295661983359
 70
    64
  0
VERTEX
  5
1C05
  8
0
 10
25.499999999999972
 20
97.531416636159634
 30
131.61067891724539
 70
    64
  0
VERTEX
  5
1C06
  8
0
 10
31.199999999999971
 20
96.758675975128369
 30
131.40362368116331
 70
    64
  0
VERTEX
  5
1C07
  8
0
 10
36.39999999999997
 20
94.730231739921322
 30
130.86010368644801
 70
    64
  0
VERTEX
  5
1C08
  8
0
 10
40.999999999999957
 20
91.252898765280705
 30
129.92835512407899
 70
    64
  0
VERTEX
  5
1C09
  8
0
 10
44.599999999999973
 20
86.809639964350964
 30
128.7377875166074
 70
    64
  0
VERTEX
  5
1C0A
  8
0
 10
46.699999999999967
 20
81.786825667647804
 30
127.39192848207431
 70
    64
  0
VERTEX
  5
1C0B
  8
0
 10
47.499999999999972
 20
76.281048457800125
 30
125.9166599249899
 70
    64
  0
SEQEND
  5
1C0C
  8
0
  0
ENDSEC
  0
EOF
