  0
SECTION
  2
HEADER
  9
$ACADVER
  1
AC1009
  9
$INSBASE
 10
0.0
 20
0.0
 30
0.0
  9
$EXTMIN
 10
-0.012816
 20
-5.319662
 30
-0.002075
  9
$EXTMAX
 10
280.014954
 20
102.015894
 30
68.002075
  9
$LIMMIN
 10
0.0
 20
0.0
  9
$LIMMAX
 10
420.0
 20
297.0
  9
$ORTHOMODE
 70
     0
  9
$REGENMODE
 70
     1
  9
$FILLMODE
 70
     1
  9
$QTEXTMODE
 70
     0
  9
$MIRRTEXT
 70
     1
  9
$DRAGMODE
 70
     2
  9
$LTSCALE
 40
1.0
  9
$OSMODE
 70
     0
  9
$ATTMODE
 70
     1
  9
$TEXTSIZE
 40
2.5
  9
$TRACEWID
 40
1.0
  9
$TEXTSTYLE
  7
STANDARD
  9
$CLAYER
  8
0
  9
$CELTYPE
  6
BYLAYER
  9
$CECOLOR
 62
   256
  9
$DIMSCALE
 40
1.0
  9
$DIMASZ
 40
2.5
  9
$DIMEXO
 40
0.625
  9
$DIMDLI
 40
3.75
  9
$DIMRND
 40
0.0
  9
$DIMDLE
 40
0.0
  9
$DIMEXE
 40
1.25
  9
$DIMTP
 40
0.0
  9
$DIMTM
 40
0.0
  9
$DIMTXT
 40
2.5
  9
$DIMCEN
 40
2.5
  9
$DIMTSZ
 40
0.0
  9
$DIMTOL
 70
     0
  9
$DIMLIM
 70
     0
  9
$DIMTIH
 70
     0
  9
$DIMTOH
 70
     0
  9
$DIMSE1
 70
     0
  9
$DIMSE2
 70
     0
  9
$DIMTAD
 70
     1
  9
$DIMZIN
 70
     8
  9
$DIMBLK
  1

  9
$DIMASO
 70
     1
  9
$DIMSHO
 70
     1
  9
$DIMPOST
  1

  9
$DIMAPOST
  1

  9
$DIMALT
 70
     0
  9
$DIMALTD
 70
     4
  9
$DIMALTF
 40
0.0394
  9
$DIMLFAC
 40
1.0
  9
$DIMTOFL
 70
     1
  9
$DIMTVP
 40
0.0
  9
$DIMTIX
 70
     0
  9
$DIMSOXD
 70
     0
  9
$DIMSAH
 70
     0
  9
$DIMBLK1
  1

  9
$DIMBLK2
  1

  9
$DIMSTYLE
  2
STANDARD
  9
$DIMCLRD
 70
     0
  9
$DIMCLRE
 70
     0
  9
$DIMCLRT
 70
     0
  9
$DIMTFAC
 40
1.0
  9
$DIMGAP
 40
0.625
  9
$LUNITS
 70
     2
  9
$LUPREC
 70
     4
  9
$SKETCHINC
 40
1.0
  9
$FILLETRAD
 40
10.0
  9
$AUNITS
 70
     0
  9
$AUPREC
 70
     0
  9
$MENU
  1
.
  9
$ELEVATION
 40
0.0
  9
$PELEVATION
 40
0.0
  9
$THICKNESS
 40
0.0
  9
$LIMCHECK
 70
     0
  9
$BLIPMODE
 70
     0
  9
$CHAMFERA
 40
10.0
  9
$CHAMFERB
 40
10.0
  9
$SKPOLY
 70
     0
  9
$TDCREATE
 40
2452375.353015
  9
$TDUPDATE
 40
2452375.372928
  9
$TDINDWG
 40
0.019913
  9
$TDUSRTIMER
 40
0.019913
  9
$USRTIMER
 70
     1
  9
$ANGBASE
 50
0.0
  9
$ANGDIR
 70
     0
  9
$PDMODE
 70
     0
  9
$PDSIZE
 40
0.0
  9
$PLINEWID
 40
0.0
  9
$COORDS
 70
     1
  9
$SPLFRAME
 70
     0
  9
$SPLINETYPE
 70
     6
  9
$SPLINESEGS
 70
     8
  9
$ATTDIA
 70
     0
  9
$ATTREQ
 70
     1
  9
$HANDLING
 70
     1
  9
$HANDSEED
  5
13F1
  9
$SURFTAB1
 70
     6
  9
$SURFTAB2
 70
     6
  9
$SURFTYPE
 70
     6
  9
$SURFU
 70
     6
  9
$SURFV
 70
     6
  9
$UCSNAME
  2

  9
$UCSORG
 10
0.0
 20
0.0
 30
0.0
  9
$UCSXDIR
 10
1.0
 20
0.0
 30
0.0
  9
$UCSYDIR
 10
0.0
 20
1.0
 30
0.0
  9
$PUCSNAME
  2

  9
$PUCSORG
 10
0.0
 20
0.0
 30
0.0
  9
$PUCSXDIR
 10
1.0
 20
0.0
 30
0.0
  9
$PUCSYDIR
 10
0.0
 20
1.0
 30
0.0
  9
$USERI1
 70
     0
  9
$USERI2
 70
     0
  9
$USERI3
 70
     0
  9
$USERI4
 70
     0
  9
$USERI5
 70
     0
  9
$USERR1
 40
0.0
  9
$USERR2
 40
0.0
  9
$USERR3
 40
0.0
  9
$USERR4
 40
0.0
  9
$USERR5
 40
0.0
  9
$WORLDVIEW
 70
     1
  9
$SHADEDGE
 70
     3
  9
$SHADEDIF
 70
    70
  9
$TILEMODE
 70
     1
  9
$MAXACTVP
 70
    48
  9
$PLIMCHECK
 70
     0
  9
$PEXTMIN
 10
1.000000E+020
 20
1.000000E+020
 30
1.000000E+020
  9
$PEXTMAX
 10
-1.000000E+020
 20
-1.000000E+020
 30
-1.000000E+020
  9
$PLIMMIN
 10
0.0
 20
0.0
  9
$PLIMMAX
 10
420.0
 20
297.0
  9
$UNITMODE
 70
     0
  9
$VISRETAIN
 70
     1
  9
$PLINEGEN
 70
     0
  9
$PSLTSCALE
 70
     1
  0
ENDSEC
  0
SECTION
  2
TABLES
  0
TABLE
  2
VPORT
 70
     8
  0
VPORT
  2
*ACTIVE
 70
     0
 10
0.0
 20
0.0
 11
1.0
 21
1.0
 12
64.808424
 22
104.654117
 13
0.0
 23
0.0
 14
10.0
 24
10.0
 15
10.0
 25
10.0
 16
-1.0
 26
-1.0
 36
1.0
 17
0.0
 27
0.0
 37
0.0
 40
215.879723
 41
1.882353
 42
50.0
 43
0.0
 44
0.0
 50
0.0
 51
0.0
 71
     0
 72
   100
 73
     1
 74
     1
 75
     0
 76
     0
 77
     0
 78
     0
  0
ENDTAB
  0
TABLE
  2
LTYPE
 70
     1
  0
LTYPE
  2
CONTINUOUS
 70
     0
  3
Solid line
 72
    65
 73
     0
 40
0.0
  0
ENDTAB
  0
TABLE
  2
LAYER
 70
     3
  0
LAYER
  2
0
 70
     0
 62
     7
  6
CONTINUOUS
  0
LAYER
  2
LAYER1
 70
     0
 62
     7
  6
CONTINUOUS
  0
LAYER
  2
ASHADE
 70
     4
 62
     7
  6
CONTINUOUS
  0
ENDTAB
  0
TABLE
  2
STYLE
 70
     2
  0
STYLE
  2
STANDARD
 70
     0
 40
0.0
 41
1.0
 50
0.0
 71
     0
 42
2.5
  3
txt
  4

  0
STYLE
  2
ASHADE
 70
     0
 40
0.2
 41
1.0
 50
0.0
 71
     0
 42
2.5
  3
simplex.shx
  4

  0
ENDTAB
  0
TABLE
  2
VIEW
 70
     0
  0
ENDTAB
  0
TABLE
  2
UCS
 70
     0
  0
ENDTAB
  0
TABLE
  2
APPID
 70
     6
  0
APPID
  2
ACAD
 70
     0
  0
APPID
  2
AVE_RENDER
 70
     0
  0
APPID
  2
AVE_ENTITY_MATERIAL
 70
     0
  0
APPID
  2
AVE_FINISH
 70
     0
  0
APPID
  2
AVE_MATERIAL
 70
     0
  0
APPID
  2
AVE_GLOBAL
 70
     0
  0
ENDTAB
  0
TABLE
  2
DIMSTYLE
 70
     1
  0
DIMSTYLE
  2
STANDARD
 70
     0
  3

  4

  5

  6

  7

 40
1.0
 41
0.18
 42
0.0625
 43
0.38
 44
0.18
 45
0.0
 46
0.0
 47
0.0
 48
0.0
140
0.18
141
0.09
142
0.0
143
25.4
144
1.0
145
0.0
146
1.0
147
0.09
 71
     0
 72
     0
 73
     1
 74
     1
 75
     0
 76
     0
 77
     0
 78
     0
170
     0
171
     2
172
     0
173
     0
174
     0
175
     0
176
     0
177
     0
178
     0
  0
ENDTAB
  0
ENDSEC
  0
SECTION
  2
BLOCKS
  0
BLOCK
  8
0
  2
$MODEL_SPACE
 70
     0
 10
0.0
 20
0.0
 30
0.0
  3
$MODEL_SPACE
  1

  0
ENDBLK
  5
1A
  8
0
  0
BLOCK
 67
     1
  8
0
  2
$PAPER_SPACE
 70
     0
 10
0.0
 20
0.0
 30
0.0
  3
$PAPER_SPACE
  1

  0
ENDBLK
  5
17
 67
     1
  8
0
  0
BLOCK
  8
ASHADE
  2
AVE_RENDER
 70
     0
 10
0.0
 20
0.0
 30
0.0
  3
AVE_RENDER
  1
AVE_RENDER
  0
ENDBLK
  5
C3D
  8
0
  0
BLOCK
  8
ASHADE
  2
AVE_GLOBAL
 70
     0
 10
0.0
 20
0.0
 30
0.0
  3
AVE_GLOBAL
  1
AVE_GLOBAL
  0
ENDBLK
  5
C4B
  8
0
  0
ENDSEC
  0
SECTION
  2
ENTITIES
  0
POLYLINE
  5
932
  8
LAYER1
 66
     1
 10
0.0
 20
0.0
 30
0.0
 70
    64
 71
   168
 72
   144
  0
VERTEX
  5
933
  8
LAYER1
 10
52.0
 20
72.0
 30
29.2
 70
   192
  0
VERTEX
  5
934
  8
LAYER1
 10
52.0
 20
69.0
 30
29.2
 70
   192
  0
VERTEX
  5
935
  8
LAYER1
 10
52.0
 20
66.0
 30
29.2
 70
   192
  0
VERTEX
  5
936
  8
LAYER1
 10
52.0
 20
74.0
 30
34.0
 70
   192
  0
VERTEX
  5
937
  8
LAYER1
 10
52.0
 20
72.0
 30
34.0
 70
   192
  0
VERTEX
  5
938
  8
LAYER1
 10
52.0
 20
69.0
 30
34.0
 70
   192
  0
VERTEX
  5
939
  8
LAYER1
 10
52.0
 20
66.0
 30
34.0
 70
   192
  0
VERTEX
  5
93A
  8
LAYER1
 10
52.0
 20
64.0
 30
34.0
 70
   192
  0
VERTEX
  5
93B
  8
LAYER1
 10
52.0
 20
72.0
 30
38.8
 70
   192
  0
VERTEX
  5
93C
  8
LAYER1
 10
52.0
 20
69.0
 30
38.8
 70
   192
  0
VERTEX
  5
93D
  8
LAYER1
 10
52.0
 20
66.0
 30
38.8
 70
   192
  0
VERTEX
  5
93E
  8
LAYER1
 10
52.5
 20
74.0
 30
30.6
 70
   192
  0
VERTEX
  5
93F
  8
LAYER1
 10
52.5
 20
64.0
 30
30.6
 70
   192
  0
VERTEX
  5
940
  8
LAYER1
 10
52.5
 20
74.0
 30
37.4
 70
   192
  0
VERTEX
  5
941
  8
LAYER1
 10
52.5
 20
64.0
 30
37.4
 70
   192
  0
VERTEX
  5
942
  8
LAYER1
 10
52.9
 20
72.0
 30
27.0
 70
   192
  0
VERTEX
  5
943
  8
LAYER1
 10
52.9
 20
69.0
 30
27.0
 70
   192
  0
VERTEX
  5
944
  8
LAYER1
 10
52.9
 20
66.0
 30
27.0
 70
   192
  0
VERTEX
  5
945
  8
LAYER1
 10
52.9
 20
72.0
 30
41.0
 70
   192
  0
VERTEX
  5
946
  8
LAYER1
 10
52.9
 20
69.0
 30
41.0
 70
   192
  0
VERTEX
  5
947
  8
LAYER1
 10
52.9
 20
66.0
 30
41.0
 70
   192
  0
VERTEX
  5
948
  8
LAYER1
 10
53.7
 20
74.0
 30
27.5
 70
   192
  0
VERTEX
  5
949
  8
LAYER1
 10
53.7
 20
64.0
 30
27.5
 70
   192
  0
VERTEX
  5
94A
  8
LAYER1
 10
53.7
 20
74.0
 30
40.5
 70
   192
  0
VERTEX
  5
94B
  8
LAYER1
 10
53.7
 20
64.0
 30
40.5
 70
   192
  0
VERTEX
  5
94C
  8
LAYER1
 10
54.0
 20
76.0
 30
34.0
 70
   192
  0
VERTEX
  5
94D
  8
LAYER1
 10
55.0
 20
62.0
 30
34.0
 70
   192
  0
VERTEX
  5
94E
  8
LAYER1
 10
54.4
 20
76.0
 30
31.2
 70
   192
  0
VERTEX
  5
94F
  8
LAYER1
 10
55.35294
 20
62.0
 30
31.4118
 70
   192
  0
VERTEX
  5
950
  8
LAYER1
 10
54.4
 20
76.0
 30
36.8
 70
   192
  0
VERTEX
  5
951
  8
LAYER1
 10
55.35294
 20
62.0
 30
36.5882
 70
   192
  0
VERTEX
  5
952
  8
LAYER1
 10
54.6
 20
72.0
 30
24.8
 70
   192
  0
VERTEX
  5
953
  8
LAYER1
 10
54.6
 20
69.0
 30
24.8
 70
   192
  0
VERTEX
  5
954
  8
LAYER1
 10
54.6
 20
66.0
 30
24.8
 70
   192
  0
VERTEX
  5
955
  8
LAYER1
 10
54.6
 20
72.0
 30
43.2
 70
   192
  0
VERTEX
  5
956
  8
LAYER1
 10
54.6
 20
69.0
 30
43.2
 70
   192
  0
VERTEX
  5
957
  8
LAYER1
 10
54.6
 20
66.0
 30
43.2
 70
   192
  0
VERTEX
  5
958
  8
LAYER1
 10
55.5
 20
76.0
 30
28.5
 70
   192
  0
VERTEX
  5
959
  8
LAYER1
 10
56.35294
 20
62.0
 30
29.02941
 70
   192
  0
VERTEX
  5
95A
  8
LAYER1
 10
55.5
 20
76.0
 30
39.5
 70
   192
  0
VERTEX
  5
95B
  8
LAYER1
 10
56.35294
 20
62.0
 30
38.9706
 70
   192
  0
VERTEX
  5
95C
  8
LAYER1
 10
55.8
 20
74.0
 30
24.8
 70
   192
  0
VERTEX
  5
95D
  8
LAYER1
 10
55.8
 20
64.0
 30
24.8
 70
   192
  0
VERTEX
  5
95E
  8
LAYER1
 10
55.8
 20
74.0
 30
43.2
 70
   192
  0
VERTEX
  5
95F
  8
LAYER1
 10
55.8
 20
64.0
 30
43.2
 70
   192
  0
VERTEX
  5
960
  8
LAYER1
 10
57.2
 20
76.0
 30
26.2
 70
   192
  0
VERTEX
  5
961
  8
LAYER1
 10
57.94118
 20
62.0
 30
26.94118
 70
   192
  0
VERTEX
  5
962
  8
LAYER1
 10
57.2
 20
76.0
 30
41.8
 70
   192
  0
VERTEX
  5
963
  8
LAYER1
 10
57.94118
 20
62.0
 30
41.0588
 70
   192
  0
VERTEX
  5
964
  8
LAYER1
 10
58.5
 20
72.0
 30
22.6
 70
   192
  0
VERTEX
  5
965
  8
LAYER1
 10
58.5
 20
69.0
 30
22.6
 70
   192
  0
VERTEX
  5
966
  8
LAYER1
 10
58.5
 20
66.0
 30
22.6
 70
   192
  0
VERTEX
  5
967
  8
LAYER1
 10
58.5
 20
74.0
 30
22.7
 70
   192
  0
VERTEX
  5
968
  8
LAYER1
 10
58.5
 20
64.0
 30
22.7
 70
   192
  0
VERTEX
  5
969
  8
LAYER1
 10
58.5
 20
74.0
 30
45.3
 70
   192
  0
VERTEX
  5
96A
  8
LAYER1
 10
58.5
 20
64.0
 30
45.3
 70
   192
  0
VERTEX
  5
96B
  8
LAYER1
 10
58.5
 20
72.0
 30
45.4
 70
   192
  0
VERTEX
  5
96C
  8
LAYER1
 10
58.5
 20
69.0
 30
45.4
 70
   192
  0
VERTEX
  5
96D
  8
LAYER1
 10
58.5
 20
66.0
 30
45.4
 70
   192
  0
VERTEX
  5
96E
  8
LAYER1
 10
59.5
 20
76.0
 30
24.5
 70
   192
  0
VERTEX
  5
96F
  8
LAYER1
 10
60.02941
 20
62.0
 30
25.35294
 70
   192
  0
VERTEX
  5
970
  8
LAYER1
 10
59.5
 20
76.0
 30
43.5
 70
   192
  0
VERTEX
  5
971
  8
LAYER1
 10
60.02941
 20
62.0
 30
42.6471
 70
   192
  0
VERTEX
  5
972
  8
LAYER1
 10
61.6
 20
74.0
 30
21.5
 70
   192
  0
VERTEX
  5
973
  8
LAYER1
 10
61.6
 20
64.0
 30
21.5
 70
   192
  0
VERTEX
  5
974
  8
LAYER1
 10
61.6
 20
74.0
 30
46.5
 70
   192
  0
VERTEX
  5
975
  8
LAYER1
 10
61.6
 20
64.0
 30
46.5
 70
   192
  0
VERTEX
  5
976
  8
LAYER1
 10
62.2
 20
76.0
 30
23.4
 70
   192
  0
VERTEX
  5
977
  8
LAYER1
 10
62.4118
 20
62.0
 30
24.35294
 70
   192
  0
VERTEX
  5
978
  8
LAYER1
 10
62.2
 20
76.0
 30
44.6
 70
   192
  0
VERTEX
  5
979
  8
LAYER1
 10
62.4118
 20
62.0
 30
43.6471
 70
   192
  0
VERTEX
  5
97A
  8
LAYER1
 10
62.6
 20
72.0
 30
20.3
 70
   192
  0
VERTEX
  5
97B
  8
LAYER1
 10
62.6
 20
69.0
 30
20.3
 70
   192
  0
VERTEX
  5
97C
  8
LAYER1
 10
62.6
 20
66.0
 30
20.3
 70
   192
  0
VERTEX
  5
97D
  8
LAYER1
 10
62.6
 20
72.0
 30
47.7
 70
   192
  0
VERTEX
  5
97E
  8
LAYER1
 10
62.6
 20
69.0
 30
47.7
 70
   192
  0
VERTEX
  5
97F
  8
LAYER1
 10
62.6
 20
66.0
 30
47.7
 70
   192
  0
VERTEX
  5
980
  8
LAYER1
 10
65.0
 20
72.0
 30
20.0
 70
   192
  0
VERTEX
  5
981
  8
LAYER1
 10
65.0
 20
69.0
 30
20.0
 70
   192
  0
VERTEX
  5
982
  8
LAYER1
 10
65.0
 20
66.0
 30
20.0
 70
   192
  0
VERTEX
  5
983
  8
LAYER1
 10
65.0
 20
74.0
 30
21.0
 70
   192
  0
VERTEX
  5
984
  8
LAYER1
 10
65.0
 20
64.0
 30
21.0
 70
   192
  0
VERTEX
  5
985
  8
LAYER1
 10
65.0
 20
76.0
 30
23.0
 70
   192
  0
VERTEX
  5
986
  8
LAYER1
 10
65.0
 20
62.0
 30
24.0
 70
   192
  0
VERTEX
  5
987
  8
LAYER1
 10
65.0
 20
76.0
 30
45.0
 70
   192
  0
VERTEX
  5
988
  8
LAYER1
 10
65.0
 20
62.0
 30
44.0
 70
   192
  0
VERTEX
  5
989
  8
LAYER1
 10
65.0
 20
74.0
 30
47.0
 70
   192
  0
VERTEX
  5
98A
  8
LAYER1
 10
65.0
 20
64.0
 30
47.0
 70
   192
  0
VERTEX
  5
98B
  8
LAYER1
 10
65.0
 20
72.0
 30
48.0
 70
   192
  0
VERTEX
  5
98C
  8
LAYER1
 10
65.0
 20
69.0
 30
48.0
 70
   192
  0
VERTEX
  5
98D
  8
LAYER1
 10
65.0
 20
66.0
 30
48.0
 70
   192
  0
VERTEX
  5
98E
  8
LAYER1
 10
67.4
 20
72.0
 30
20.3
 70
   192
  0
VERTEX
  5
98F
  8
LAYER1
 10
67.4
 20
69.0
 30
20.3
 70
   192
  0
VERTEX
  5
990
  8
LAYER1
 10
67.4
 20
66.0
 30
20.3
 70
   192
  0
VERTEX
  5
991
  8
LAYER1
 10
67.4
 20
72.0
 30
47.7
 70
   192
  0
VERTEX
  5
992
  8
LAYER1
 10
67.4
 20
69.0
 30
47.7
 70
   192
  0
VERTEX
  5
993
  8
LAYER1
 10
67.4
 20
66.0
 30
47.7
 70
   192
  0
VERTEX
  5
994
  8
LAYER1
 10
67.8
 20
76.0
 30
23.4
 70
   192
  0
VERTEX
  5
995
  8
LAYER1
 10
67.5882
 20
62.0
 30
24.35294
 70
   192
  0
VERTEX
  5
996
  8
LAYER1
 10
67.8
 20
76.0
 30
44.6
 70
   192
  0
VERTEX
  5
997
  8
LAYER1
 10
67.5882
 20
62.0
 30
43.6471
 70
   192
  0
VERTEX
  5
998
  8
LAYER1
 10
68.4
 20
74.0
 30
21.5
 70
   192
  0
VERTEX
  5
999
  8
LAYER1
 10
68.4
 20
64.0
 30
21.5
 70
   192
  0
VERTEX
  5
99A
  8
LAYER1
 10
68.4
 20
74.0
 30
46.5
 70
   192
  0
VERTEX
  5
99B
  8
LAYER1
 10
68.4
 20
64.0
 30
46.5
 70
   192
  0
VERTEX
  5
99C
  8
LAYER1
 10
70.5
 20
76.0
 30
24.5
 70
   192
  0
VERTEX
  5
99D
  8
LAYER1
 10
69.9706
 20
62.0
 30
25.35294
 70
   192
  0
VERTEX
  5
99E
  8
LAYER1
 10
70.5
 20
76.0
 30
43.5
 70
   192
  0
VERTEX
  5
99F
  8
LAYER1
 10
69.9706
 20
62.0
 30
42.6471
 70
   192
  0
VERTEX
  5
9A0
  8
LAYER1
 10
71.5
 20
72.0
 30
22.6
 70
   192
  0
VERTEX
  5
9A1
  8
LAYER1
 10
71.5
 20
69.0
 30
22.6
 70
   192
  0
VERTEX
  5
9A2
  8
LAYER1
 10
71.5
 20
66.0
 30
22.6
 70
   192
  0
VERTEX
  5
9A3
  8
LAYER1
 10
71.5
 20
74.0
 30
22.7
 70
   192
  0
VERTEX
  5
9A4
  8
LAYER1
 10
71.5
 20
64.0
 30
22.7
 70
   192
  0
VERTEX
  5
9A5
  8
LAYER1
 10
71.5
 20
74.0
 30
45.3
 70
   192
  0
VERTEX
  5
9A6
  8
LAYER1
 10
71.5
 20
64.0
 30
45.3
 70
   192
  0
VERTEX
  5
9A7
  8
LAYER1
 10
71.5
 20
72.0
 30
45.4
 70
   192
  0
VERTEX
  5
9A8
  8
LAYER1
 10
71.5
 20
69.0
 30
45.4
 70
   192
  0
VERTEX
  5
9A9
  8
LAYER1
 10
71.5
 20
66.0
 30
45.4
 70
   192
  0
VERTEX
  5
9AA
  8
LAYER1
 10
72.8
 20
76.0
 30
26.2
 70
   192
  0
VERTEX
  5
9AB
  8
LAYER1
 10
72.0588
 20
62.0
 30
26.94118
 70
   192
  0
VERTEX
  5
9AC
  8
LAYER1
 10
72.8
 20
76.0
 30
41.8
 70
   192
  0
VERTEX
  5
9AD
  8
LAYER1
 10
72.0588
 20
62.0
 30
41.0588
 70
   192
  0
VERTEX
  5
9AE
  8
LAYER1
 10
74.2
 20
74.0
 30
24.8
 70
   192
  0
VERTEX
  5
9AF
  8
LAYER1
 10
74.2
 20
64.0
 30
24.8
 70
   192
  0
VERTEX
  5
9B0
  8
LAYER1
 10
74.2
 20
74.0
 30
43.2
 70
   192
  0
VERTEX
  5
9B1
  8
LAYER1
 10
74.2
 20
64.0
 30
43.2
 70
   192
  0
VERTEX
  5
9B2
  8
LAYER1
 10
74.5
 20
76.0
 30
28.5
 70
   192
  0
VERTEX
  5
9B3
  8
LAYER1
 10
73.6471
 20
62.0
 30
29.02941
 70
   192
  0
VERTEX
  5
9B4
  8
LAYER1
 10
74.5
 20
76.0
 30
39.5
 70
   192
  0
VERTEX
  5
9B5
  8
LAYER1
 10
73.6471
 20
62.0
 30
38.9706
 70
   192
  0
VERTEX
  5
9B6
  8
LAYER1
 10
75.4
 20
72.0
 30
24.8
 70
   192
  0
VERTEX
  5
9B7
  8
LAYER1
 10
75.4
 20
69.0
 30
24.8
 70
   192
  0
VERTEX
  5
9B8
  8
LAYER1
 10
75.4
 20
66.0
 30
24.8
 70
   192
  0
VERTEX
  5
9B9
  8
LAYER1
 10
75.4
 20
72.0
 30
43.2
 70
   192
  0
VERTEX
  5
9BA
  8
LAYER1
 10
75.4
 20
69.0
 30
43.2
 70
   192
  0
VERTEX
  5
9BB
  8
LAYER1
 10
75.4
 20
66.0
 30
43.2
 70
   192
  0
VERTEX
  5
9BC
  8
LAYER1
 10
75.6
 20
76.0
 30
31.2
 70
   192
  0
VERTEX
  5
9BD
  8
LAYER1
 10
74.6471
 20
62.0
 30
31.4118
 70
   192
  0
VERTEX
  5
9BE
  8
LAYER1
 10
75.6
 20
76.0
 30
36.8
 70
   192
  0
VERTEX
  5
9BF
  8
LAYER1
 10
74.6471
 20
62.0
 30
36.5882
 70
   192
  0
VERTEX
  5
9C0
  8
LAYER1
 10
76.0
 20
76.0
 30
34.0
 70
   192
  0
VERTEX
  5
9C1
  8
LAYER1
 10
75.0
 20
62.0
 30
34.0
 70
   192
  0
VERTEX
  5
9C2
  8
LAYER1
 10
76.3
 20
74.0
 30
27.5
 70
   192
  0
VERTEX
  5
9C3
  8
LAYER1
 10
76.3
 20
64.0
 30
27.5
 70
   192
  0
VERTEX
  5
9C4
  8
LAYER1
 10
76.3
 20
74.0
 30
40.5
 70
   192
  0
VERTEX
  5
9C5
  8
LAYER1
 10
76.3
 20
64.0
 30
40.5
 70
   192
  0
VERTEX
  5
9C6
  8
LAYER1
 10
77.1
 20
72.0
 30
27.0
 70
   192
  0
VERTEX
  5
9C7
  8
LAYER1
 10
77.1
 20
69.0
 30
27.0
 70
   192
  0
VERTEX
  5
9C8
  8
LAYER1
 10
77.1
 20
66.0
 30
27.0
 70
   192
  0
VERTEX
  5
9C9
  8
LAYER1
 10
77.1
 20
72.0
 30
41.0
 70
   192
  0
VERTEX
  5
9CA
  8
LAYER1
 10
77.1
 20
69.0
 30
41.0
 70
   192
  0
VERTEX
  5
9CB
  8
LAYER1
 10
77.1
 20
66.0
 30
41.0
 70
   192
  0
VERTEX
  5
9CC
  8
LAYER1
 10
77.5
 20
74.0
 30
30.6
 70
   192
  0
VERTEX
  5
9CD
  8
LAYER1
 10
77.5
 20
64.0
 30
30.6
 70
   192
  0
VERTEX
  5
9CE
  8
LAYER1
 10
77.5
 20
74.0
 30
37.4
 70
   192
  0
VERTEX
  5
9CF
  8
LAYER1
 10
77.5
 20
64.0
 30
37.4
 70
   192
  0
VERTEX
  5
9D0
  8
LAYER1
 10
78.0
 20
72.0
 30
29.2
 70
   192
  0
VERTEX
  5
9D1
  8
LAYER1
 10
78.0
 20
69.0
 30
29.2
 70
   192
  0
VERTEX
  5
9D2
  8
LAYER1
 10
78.0
 20
66.0
 30
29.2
 70
   192
  0
VERTEX
  5
9D3
  8
LAYER1
 10
78.0
 20
74.0
 30
34.0
 70
   192
  0
VERTEX
  5
9D4
  8
LAYER1
 10
78.0
 20
72.0
 30
34.0
 70
   192
  0
VERTEX
  5
9D5
  8
LAYER1
 10
78.0
 20
69.0
 30
34.0
 70
   192
  0
VERTEX
  5
9D6
  8
LAYER1
 10
78.0
 20
66.0
 30
34.0
 70
   192
  0
VERTEX
  5
9D7
  8
LAYER1
 10
78.0
 20
64.0
 30
34.0
 70
   192
  0
VERTEX
  5
9D8
  8
LAYER1
 10
78.0
 20
72.0
 30
38.8
 70
   192
  0
VERTEX
  5
9D9
  8
LAYER1
 10
78.0
 20
69.0
 30
38.8
 70
   192
  0
VERTEX
  5
9DA
  8
LAYER1
 10
78.0
 20
66.0
 30
38.8
 70
   192
  0
VERTEX
  5
9DB
  8
LAYER1
 10
0.0
 20
0.0
 30
0.0
 70
   128
 71
    69
 72
    65
 73
    82
 74
    84
  0
VERTEX
  5
9DC
  8
LAYER1
 10
0.0
 20
0.0
 30
0.0
 70
   128
 71
    61
 72
    54
 73
    65
 74
    69
  0
VERTEX
  5
9DD
  8
LAYER1
 10
0.0
 20
0.0
 30
0.0
 70
   128
 71
    47
 72
    43
 73
    54
 74
    61
  0
VERTEX
  5
9DE
  8
LAYER1
 10
0.0
 20
0.0
 30
0.0
 70
   128
 71
    39
 72
    23
 73
    43
 74
    47
  0
VERTEX
  5
9DF
  8
LAYER1
 10
0.0
 20
0.0
 30
0.0
 70
   128
 71
    29
 72
    13
 73
    23
 74
    39
  0
VERTEX
  5
9E0
  8
LAYER1
 10
0.0
 20
0.0
 30
0.0
 70
   128
 71
    27
 72
     8
 73
    13
 74
    29
  0
VERTEX
  5
9E1
  8
LAYER1
 10
0.0
 20
0.0
 30
0.0
 70
   128
 71
    65
 72
    74
 73
    80
 74
    82
  0
VERTEX
  5
9E2
  8
LAYER1
 10
0.0
 20
0.0
 30
0.0
 70
   128
 71
    54
 72
    52
 73
    74
 74
    65
  0
VERTEX
  5
9E3
  8
LAYER1
 10
0.0
 20
0.0
 30
0.0
 70
   128
 71
    43
 72
    34
 73
    52
 74
    54
  0
VERTEX
  5
9E4
  8
LAYER1
 10
0.0
 20
0.0
 30
0.0
 70
   128
 71
    23
 72
    18
 73
    34
 74
    43
  0
VERTEX
  5
9E5
  8
LAYER1
 10
0.0
 20
0.0
 30
0.0
 70
   128
 71
    13
 72
     3
 73
    18
 74
    23
  0
VERTEX
  5
9E6
  8
LAYER1
 10
0.0
 20
0.0
 30
0.0
 70
   128
 71
     8
 72
     7
 73
     3
 74
    13
  0
VERTEX
  5
9E7
  8
LAYER1
 10
0.0
 20
0.0
 30
0.0
 70
   128
 71
    74
 72
    73
 73
    79
 74
    80
  0
VERTEX
  5
9E8
  8
LAYER1
 10
0.0
 20
0.0
 30
0.0
 70
   128
 71
    52
 72
    51
 73
    73
 74
    74
  0
VERTEX
  5
9E9
  8
LAYER1
 10
0.0
 20
0.0
 30
0.0
 70
   128
 71
    34
 72
    33
 73
    51
 74
    52
  0
VERTEX
  5
9EA
  8
LAYER1
 10
0.0
 20
0.0
 30
0.0
 70
   128
 71
    18
 72
    17
 73
    33
 74
    34
  0
VERTEX
  5
9EB
  8
LAYER1
 10
0.0
 20
0.0
 30
0.0
 70
   128
 71
     3
 72
     2
 73
    17
 74
    18
  0
VERTEX
  5
9EC
  8
LAYER1
 10
0.0
 20
0.0
 30
0.0
 70
   128
 71
     7
 72
     6
 73
     2
 74
     3
  0
VERTEX
  5
9ED
  8
LAYER1
 10
0.0
 20
0.0
 30
0.0
 70
   128
 71
    86
 72
    88
 73
    67
 74
    71
  0
VERTEX
  5
9EE
  8
LAYER1
 10
0.0
 20
0.0
 30
0.0
 70
   128
 71
    71
 72
    67
 73
    56
 74
    63
  0
VERTEX
  5
9EF
  8
LAYER1
 10
0.0
 20
0.0
 30
0.0
 70
   128
 71
    63
 72
    56
 73
    45
 74
    49
  0
VERTEX
  5
9F0
  8
LAYER1
 10
0.0
 20
0.0
 30
0.0
 70
   128
 71
    49
 72
    45
 73
    25
 74
    41
  0
VERTEX
  5
9F1
  8
LAYER1
 10
0.0
 20
0.0
 30
0.0
 70
   128
 71
    41
 72
    25
 73
    15
 74
    31
  0
VERTEX
  5
9F2
  8
LAYER1
 10
0.0
 20
0.0
 30
0.0
 70
   128
 71
    31
 72
    15
 73
     8
 74
    27
  0
VERTEX
  5
9F3
  8
LAYER1
 10
0.0
 20
0.0
 30
0.0
 70
   128
 71
    88
 72
    91
 73
    77
 74
    67
  0
VERTEX
  5
9F4
  8
LAYER1
 10
0.0
 20
0.0
 30
0.0
 70
   128
 71
    67
 72
    77
 73
    59
 74
    56
  0
VERTEX
  5
9F5
  8
LAYER1
 10
0.0
 20
0.0
 30
0.0
 70
   128
 71
    56
 72
    59
 73
    37
 74
    45
  0
VERTEX
  5
9F6
  8
LAYER1
 10
0.0
 20
0.0
 30
0.0
 70
   128
 71
    45
 72
    37
 73
    21
 74
    25
  0
VERTEX
  5
9F7
  8
LAYER1
 10
0.0
 20
0.0
 30
0.0
 70
   128
 71
    25
 72
    21
 73
    11
 74
    15
  0
VERTEX
  5
9F8
  8
LAYER1
 10
0.0
 20
0.0
 30
0.0
 70
   128
 71
    15
 72
    11
 73
     7
 74
     8
  0
VERTEX
  5
9F9
  8
LAYER1
 10
0.0
 20
0.0
 30
0.0
 70
   128
 71
    91
 72
    90
 73
    76
 74
    77
  0
VERTEX
  5
9FA
  8
LAYER1
 10
0.0
 20
0.0
 30
0.0
 70
   128
 71
    77
 72
    76
 73
    58
 74
    59
  0
VERTEX
  5
9FB
  8
LAYER1
 10
0.0
 20
0.0
 30
0.0
 70
   128
 71
    59
 72
    58
 73
    36
 74
    37
  0
VERTEX
  5
9FC
  8
LAYER1
 10
0.0
 20
0.0
 30
0.0
 70
   128
 71
    37
 72
    36
 73
    20
 74
    21
  0
VERTEX
  5
9FD
  8
LAYER1
 10
0.0
 20
0.0
 30
0.0
 70
   128
 71
    21
 72
    20
 73
    10
 74
    11
  0
VERTEX
  5
9FE
  8
LAYER1
 10
0.0
 20
0.0
 30
0.0
 70
   128
 71
    11
 72
    10
 73
     6
 74
     7
  0
VERTEX
  5
9FF
  8
LAYER1
 10
0.0
 20
0.0
 30
0.0
 70
   128
 71
    70
 72
    66
 73
    87
 74
    85
  0
VERTEX
  5
A00
  8
LAYER1
 10
0.0
 20
0.0
 30
0.0
 70
   128
 71
    62
 72
    55
 73
    66
 74
    70
  0
VERTEX
  5
A01
  8
LAYER1
 10
0.0
 20
0.0
 30
0.0
 70
   128
 71
    48
 72
    44
 73
    55
 74
    62
  0
VERTEX
  5
A02
  8
LAYER1
 10
0.0
 20
0.0
 30
0.0
 70
   128
 71
    40
 72
    24
 73
    44
 74
    48
  0
VERTEX
  5
A03
  8
LAYER1
 10
0.0
 20
0.0
 30
0.0
 70
   128
 71
    30
 72
    14
 73
    24
 74
    40
  0
VERTEX
  5
A04
  8
LAYER1
 10
0.0
 20
0.0
 30
0.0
 70
   128
 71
    26
 72
     4
 73
    14
 74
    30
  0
VERTEX
  5
A05
  8
LAYER1
 10
0.0
 20
0.0
 30
0.0
 70
   128
 71
    66
 72
    75
 73
    89
 74
    87
  0
VERTEX
  5
A06
  8
LAYER1
 10
0.0
 20
0.0
 30
0.0
 70
   128
 71
    55
 72
    57
 73
    75
 74
    66
  0
VERTEX
  5
A07
  8
LAYER1
 10
0.0
 20
0.0
 30
0.0
 70
   128
 71
    44
 72
    35
 73
    57
 74
    55
  0
VERTEX
  5
A08
  8
LAYER1
 10
0.0
 20
0.0
 30
0.0
 70
   128
 71
    24
 72
    19
 73
    35
 74
    44
  0
VERTEX
  5
A09
  8
LAYER1
 10
0.0
 20
0.0
 30
0.0
 70
   128
 71
    14
 72
     9
 73
    19
 74
    24
  0
VERTEX
  5
A0A
  8
LAYER1
 10
0.0
 20
0.0
 30
0.0
 70
   128
 71
     4
 72
     5
 73
     9
 74
    14
  0
VERTEX
  5
A0B
  8
LAYER1
 10
0.0
 20
0.0
 30
0.0
 70
   128
 71
    75
 72
    76
 73
    90
 74
    89
  0
VERTEX
  5
A0C
  8
LAYER1
 10
0.0
 20
0.0
 30
0.0
 70
   128
 71
    57
 72
    58
 73
    76
 74
    75
  0
VERTEX
  5
A0D
  8
LAYER1
 10
0.0
 20
0.0
 30
0.0
 70
   128
 71
    35
 72
    36
 73
    58
 74
    57
  0
VERTEX
  5
A0E
  8
LAYER1
 10
0.0
 20
0.0
 30
0.0
 70
   128
 71
    19
 72
    20
 73
    36
 74
    35
  0
VERTEX
  5
A0F
  8
LAYER1
 10
0.0
 20
0.0
 30
0.0
 70
   128
 71
     9
 72
    10
 73
    20
 74
    19
  0
VERTEX
  5
A10
  8
LAYER1
 10
0.0
 20
0.0
 30
0.0
 70
   128
 71
     5
 72
     6
 73
    10
 74
     9
  0
VERTEX
  5
A11
  8
LAYER1
 10
0.0
 20
0.0
 30
0.0
 70
   128
 71
    83
 72
    81
 73
    64
 74
    68
  0
VERTEX
  5
A12
  8
LAYER1
 10
0.0
 20
0.0
 30
0.0
 70
   128
 71
    68
 72
    64
 73
    53
 74
    60
  0
VERTEX
  5
A13
  8
LAYER1
 10
0.0
 20
0.0
 30
0.0
 70
   128
 71
    60
 72
    53
 73
    42
 74
    46
  0
VERTEX
  5
A14
  8
LAYER1
 10
0.0
 20
0.0
 30
0.0
 70
   128
 71
    46
 72
    42
 73
    22
 74
    38
  0
VERTEX
  5
A15
  8
LAYER1
 10
0.0
 20
0.0
 30
0.0
 70
   128
 71
    38
 72
    22
 73
    12
 74
    28
  0
VERTEX
  5
A16
  8
LAYER1
 10
0.0
 20
0.0
 30
0.0
 70
   128
 71
    28
 72
    12
 73
     4
 74
    26
  0
VERTEX
  5
A17
  8
LAYER1
 10
0.0
 20
0.0
 30
0.0
 70
   128
 71
    81
 72
    78
 73
    72
 74
    64
  0
VERTEX
  5
A18
  8
LAYER1
 10
0.0
 20
0.0
 30
0.0
 70
   128
 71
    64
 72
    72
 73
    50
 74
    53
  0
VERTEX
  5
A19
  8
LAYER1
 10
0.0
 20
0.0
 30
0.0
 70
   128
 71
    53
 72
    50
 73
    32
 74
    42
  0
VERTEX
  5
A1A
  8
LAYER1
 10
0.0
 20
0.0
 30
0.0
 70
   128
 71
    42
 72
    32
 73
    16
 74
    22
  0
VERTEX
  5
A1B
  8
LAYER1
 10
0.0
 20
0.0
 30
0.0
 70
   128
 71
    22
 72
    16
 73
     1
 74
    12
  0
VERTEX
  5
A1C
  8
LAYER1
 10
0.0
 20
0.0
 30
0.0
 70
   128
 71
    12
 72
     1
 73
     5
 74
     4
  0
VERTEX
  5
A1D
  8
LAYER1
 10
0.0
 20
0.0
 30
0.0
 70
   128
 71
    78
 72
    79
 73
    73
 74
    72
  0
VERTEX
  5
A1E
  8
LAYER1
 10
0.0
 20
0.0
 30
0.0
 70
   128
 71
    72
 72
    73
 73
    51
 74
    50
  0
VERTEX
  5
A1F
  8
LAYER1
 10
0.0
 20
0.0
 30
0.0
 70
   128
 71
    50
 72
    51
 73
    33
 74
    32
  0
VERTEX
  5
A20
  8
LAYER1
 10
0.0
 20
0.0
 30
0.0
 70
   128
 71
    32
 72
    33
 73
    17
 74
    16
  0
VERTEX
  5
A21
  8
LAYER1
 10
0.0
 20
0.0
 30
0.0
 70
   128
 71
    16
 72
    17
 73
     2
 74
     1
  0
VERTEX
  5
A22
  8
LAYER1
 10
0.0
 20
0.0
 30
0.0
 70
   128
 71
     1
 72
     2
 73
     6
 74
     5
  0
VERTEX
  5
A23
  8
LAYER1
 10
0.0
 20
0.0
 30
0.0
 70
   128
 71
    84
 72
    82
 73
   103
 74
    99
  0
VERTEX
  5
A24
  8
LAYER1
 10
0.0
 20
0.0
 30
0.0
 70
   128
 71
    99
 72
   103
 73
   114
 74
   107
  0
VERTEX
  5
A25
  8
LAYER1
 10
0.0
 20
0.0
 30
0.0
 70
   128
 71
   107
 72
   114
 73
   125
 74
   121
  0
VERTEX
  5
A26
  8
LAYER1
 10
0.0
 20
0.0
 30
0.0
 70
   128
 71
   121
 72
   125
 73
   145
 74
   129
  0
VERTEX
  5
A27
  8
LAYER1
 10
0.0
 20
0.0
 30
0.0
 70
   128
 71
   129
 72
   145
 73
   155
 74
   139
  0
VERTEX
  5
A28
  8
LAYER1
 10
0.0
 20
0.0
 30
0.0
 70
   128
 71
   139
 72
   155
 73
   165
 74
   143
  0
VERTEX
  5
A29
  8
LAYER1
 10
0.0
 20
0.0
 30
0.0
 70
   128
 71
    82
 72
    80
 73
    94
 74
   103
  0
VERTEX
  5
A2A
  8
LAYER1
 10
0.0
 20
0.0
 30
0.0
 70
   128
 71
   103
 72
    94
 73
   112
 74
   114
  0
VERTEX
  5
A2B
  8
LAYER1
 10
0.0
 20
0.0
 30
0.0
 70
   128
 71
   114
 72
   112
 73
   134
 74
   125
  0
VERTEX
  5
A2C
  8
LAYER1
 10
0.0
 20
0.0
 30
0.0
 70
   128
 71
   125
 72
   134
 73
   150
 74
   145
  0
VERTEX
  5
A2D
  8
LAYER1
 10
0.0
 20
0.0
 30
0.0
 70
   128
 71
   145
 72
   150
 73
   160
 74
   155
  0
VERTEX
  5
A2E
  8
LAYER1
 10
0.0
 20
0.0
 30
0.0
 70
   128
 71
   155
 72
   160
 73
   164
 74
   165
  0
VERTEX
  5
A2F
  8
LAYER1
 10
0.0
 20
0.0
 30
0.0
 70
   128
 71
    80
 72
    79
 73
    93
 74
    94
  0
VERTEX
  5
A30
  8
LAYER1
 10
0.0
 20
0.0
 30
0.0
 70
   128
 71
    94
 72
    93
 73
   111
 74
   112
  0
VERTEX
  5
A31
  8
LAYER1
 10
0.0
 20
0.0
 30
0.0
 70
   128
 71
   112
 72
   111
 73
   133
 74
   134
  0
VERTEX
  5
A32
  8
LAYER1
 10
0.0
 20
0.0
 30
0.0
 70
   128
 71
   134
 72
   133
 73
   149
 74
   150
  0
VERTEX
  5
A33
  8
LAYER1
 10
0.0
 20
0.0
 30
0.0
 70
   128
 71
   150
 72
   149
 73
   159
 74
   160
  0
VERTEX
  5
A34
  8
LAYER1
 10
0.0
 20
0.0
 30
0.0
 70
   128
 71
   160
 72
   159
 73
   163
 74
   164
  0
VERTEX
  5
A35
  8
LAYER1
 10
0.0
 20
0.0
 30
0.0
 70
   128
 71
    98
 72
   102
 73
    81
 74
    83
  0
VERTEX
  5
A36
  8
LAYER1
 10
0.0
 20
0.0
 30
0.0
 70
   128
 71
   106
 72
   113
 73
   102
 74
    98
  0
VERTEX
  5
A37
  8
LAYER1
 10
0.0
 20
0.0
 30
0.0
 70
   128
 71
   120
 72
   124
 73
   113
 74
   106
  0
VERTEX
  5
A38
  8
LAYER1
 10
0.0
 20
0.0
 30
0.0
 70
   128
 71
   128
 72
   144
 73
   124
 74
   120
  0
VERTEX
  5
A39
  8
LAYER1
 10
0.0
 20
0.0
 30
0.0
 70
   128
 71
   138
 72
   154
 73
   144
 74
   128
  0
VERTEX
  5
A3A
  8
LAYER1
 10
0.0
 20
0.0
 30
0.0
 70
   128
 71
   142
 72
   161
 73
   154
 74
   138
  0
VERTEX
  5
A3B
  8
LAYER1
 10
0.0
 20
0.0
 30
0.0
 70
   128
 71
   102
 72
    92
 73
    78
 74
    81
  0
VERTEX
  5
A3C
  8
LAYER1
 10
0.0
 20
0.0
 30
0.0
 70
   128
 71
   113
 72
   110
 73
    92
 74
   102
  0
VERTEX
  5
A3D
  8
LAYER1
 10
0.0
 20
0.0
 30
0.0
 70
   128
 71
   124
 72
   132
 73
   110
 74
   113
  0
VERTEX
  5
A3E
  8
LAYER1
 10
0.0
 20
0.0
 30
0.0
 70
   128
 71
   144
 72
   148
 73
   132
 74
   124
  0
VERTEX
  5
A3F
  8
LAYER1
 10
0.0
 20
0.0
 30
0.0
 70
   128
 71
   154
 72
   158
 73
   148
 74
   144
  0
VERTEX
  5
A40
  8
LAYER1
 10
0.0
 20
0.0
 30
0.0
 70
   128
 71
   161
 72
   162
 73
   158
 74
   154
  0
VERTEX
  5
A41
  8
LAYER1
 10
0.0
 20
0.0
 30
0.0
 70
   128
 71
    92
 72
    93
 73
    79
 74
    78
  0
VERTEX
  5
A42
  8
LAYER1
 10
0.0
 20
0.0
 30
0.0
 70
   128
 71
   110
 72
   111
 73
    93
 74
    92
  0
VERTEX
  5
A43
  8
LAYER1
 10
0.0
 20
0.0
 30
0.0
 70
   128
 71
   132
 72
   133
 73
   111
 74
   110
  0
VERTEX
  5
A44
  8
LAYER1
 10
0.0
 20
0.0
 30
0.0
 70
   128
 71
   148
 72
   149
 73
   133
 74
   132
  0
VERTEX
  5
A45
  8
LAYER1
 10
0.0
 20
0.0
 30
0.0
 70
   128
 71
   158
 72
   159
 73
   149
 74
   148
  0
VERTEX
  5
A46
  8
LAYER1
 10
0.0
 20
0.0
 30
0.0
 70
   128
 71
   162
 72
   163
 73
   159
 74
   158
  0
VERTEX
  5
A47
  8
LAYER1
 10
0.0
 20
0.0
 30
0.0
 70
   128
 71
   101
 72
   105
 73
    88
 74
    86
  0
VERTEX
  5
A48
  8
LAYER1
 10
0.0
 20
0.0
 30
0.0
 70
   128
 71
   109
 72
   116
 73
   105
 74
   101
  0
VERTEX
  5
A49
  8
LAYER1
 10
0.0
 20
0.0
 30
0.0
 70
   128
 71
   123
 72
   127
 73
   116
 74
   109
  0
VERTEX
  5
A4A
  8
LAYER1
 10
0.0
 20
0.0
 30
0.0
 70
   128
 71
   131
 72
   147
 73
   127
 74
   123
  0
VERTEX
  5
A4B
  8
LAYER1
 10
0.0
 20
0.0
 30
0.0
 70
   128
 71
   141
 72
   157
 73
   147
 74
   131
  0
VERTEX
  5
A4C
  8
LAYER1
 10
0.0
 20
0.0
 30
0.0
 70
   128
 71
   143
 72
   165
 73
   157
 74
   141
  0
VERTEX
  5
A4D
  8
LAYER1
 10
0.0
 20
0.0
 30
0.0
 70
   128
 71
   105
 72
    97
 73
    91
 74
    88
  0
VERTEX
  5
A4E
  8
LAYER1
 10
0.0
 20
0.0
 30
0.0
 70
   128
 71
   116
 72
   119
 73
    97
 74
   105
  0
VERTEX
  5
A4F
  8
LAYER1
 10
0.0
 20
0.0
 30
0.0
 70
   128
 71
   127
 72
   137
 73
   119
 74
   116
  0
VERTEX
  5
A50
  8
LAYER1
 10
0.0
 20
0.0
 30
0.0
 70
   128
 71
   147
 72
   153
 73
   137
 74
   127
  0
VERTEX
  5
A51
  8
LAYER1
 10
0.0
 20
0.0
 30
0.0
 70
   128
 71
   157
 72
   168
 73
   153
 74
   147
  0
VERTEX
  5
A52
  8
LAYER1
 10
0.0
 20
0.0
 30
0.0
 70
   128
 71
   165
 72
   164
 73
   168
 74
   157
  0
VERTEX
  5
A53
  8
LAYER1
 10
0.0
 20
0.0
 30
0.0
 70
   128
 71
    97
 72
    96
 73
    90
 74
    91
  0
VERTEX
  5
A54
  8
LAYER1
 10
0.0
 20
0.0
 30
0.0
 70
   128
 71
   119
 72
   118
 73
    96
 74
    97
  0
VERTEX
  5
A55
  8
LAYER1
 10
0.0
 20
0.0
 30
0.0
 70
   128
 71
   137
 72
   136
 73
   118
 74
   119
  0
VERTEX
  5
A56
  8
LAYER1
 10
0.0
 20
0.0
 30
0.0
 70
   128
 71
   153
 72
   152
 73
   136
 74
   137
  0
VERTEX
  5
A57
  8
LAYER1
 10
0.0
 20
0.0
 30
0.0
 70
   128
 71
   168
 72
   167
 73
   152
 74
   153
  0
VERTEX
  5
A58
  8
LAYER1
 10
0.0
 20
0.0
 30
0.0
 70
   128
 71
   164
 72
   163
 73
   167
 74
   168
  0
VERTEX
  5
A59
  8
LAYER1
 10
0.0
 20
0.0
 30
0.0
 70
   128
 71
    85
 72
    87
 73
   104
 74
   100
  0
VERTEX
  5
A5A
  8
LAYER1
 10
0.0
 20
0.0
 30
0.0
 70
   128
 71
   100
 72
   104
 73
   115
 74
   108
  0
VERTEX
  5
A5B
  8
LAYER1
 10
0.0
 20
0.0
 30
0.0
 70
   128
 71
   108
 72
   115
 73
   126
 74
   122
  0
VERTEX
  5
A5C
  8
LAYER1
 10
0.0
 20
0.0
 30
0.0
 70
   128
 71
   122
 72
   126
 73
   146
 74
   130
  0
VERTEX
  5
A5D
  8
LAYER1
 10
0.0
 20
0.0
 30
0.0
 70
   128
 71
   130
 72
   146
 73
   156
 74
   140
  0
VERTEX
  5
A5E
  8
LAYER1
 10
0.0
 20
0.0
 30
0.0
 70
   128
 71
   140
 72
   156
 73
   161
 74
   142
  0
VERTEX
  5
A5F
  8
LAYER1
 10
0.0
 20
0.0
 30
0.0
 70
   128
 71
    87
 72
    89
 73
    95
 74
   104
  0
VERTEX
  5
A60
  8
LAYER1
 10
0.0
 20
0.0
 30
0.0
 70
   128
 71
   104
 72
    95
 73
   117
 74
   115
  0
VERTEX
  5
A61
  8
LAYER1
 10
0.0
 20
0.0
 30
0.0
 70
   128
 71
   115
 72
   117
 73
   135
 74
   126
  0
VERTEX
  5
A62
  8
LAYER1
 10
0.0
 20
0.0
 30
0.0
 70
   128
 71
   126
 72
   135
 73
   151
 74
   146
  0
VERTEX
  5
A63
  8
LAYER1
 10
0.0
 20
0.0
 30
0.0
 70
   128
 71
   146
 72
   151
 73
   166
 74
   156
  0
VERTEX
  5
A64
  8
LAYER1
 10
0.0
 20
0.0
 30
0.0
 70
   128
 71
   156
 72
   166
 73
   162
 74
   161
  0
VERTEX
  5
A65
  8
LAYER1
 10
0.0
 20
0.0
 30
0.0
 70
   128
 71
    89
 72
    90
 73
    96
 74
    95
  0
VERTEX
  5
A66
  8
LAYER1
 10
0.0
 20
0.0
 30
0.0
 70
   128
 71
    95
 72
    96
 73
   118
 74
   117
  0
VERTEX
  5
A67
  8
LAYER1
 10
0.0
 20
0.0
 30
0.0
 70
   128
 71
   117
 72
   118
 73
   136
 74
   135
  0
VERTEX
  5
A68
  8
LAYER1
 10
0.0
 20
0.0
 30
0.0
 70
   128
 71
   135
 72
   136
 73
   152
 74
   151
  0
VERTEX
  5
A69
  8
LAYER1
 10
0.0
 20
0.0
 30
0.0
 70
   128
 71
   151
 72
   152
 73
   167
 74
   166
  0
VERTEX
  5
A6A
  8
LAYER1
 10
0.0
 20
0.0
 30
0.0
 70
   128
 71
   166
 72
   167
 73
   163
 74
   162
  0
SEQEND
  5
A6B
  8
LAYER1
  0
POLYLINE
  5
A6C
  8
0
 66
     1
 10
0.0
 20
0.0
 30
0.0
 70
    16
 71
     3
 72
     7
  0
VERTEX
  5
A6D
  8
0
 10
140.0
 20
0.0
 30
34.0
 70
    64
  0
VERTEX
  5
A6E
  8
0
 10
140.0
 20
0.8
 30
28.6
 70
    64
  0
VERTEX
  5
A6F
  8
0
 10
140.0
 20
2.8
 30
23.5
 70
    64
  0
VERTEX
  5
A70
  8
0
 10
140.0
 20
6.2
 30
19.2
 70
    64
  0
VERTEX
  5
A71
  8
0
 10
140.0
 20
10.5
 30
15.8
 70
    64
  0
VERTEX
  5
A72
  8
0
 10
140.0
 20
15.6
 30
13.8
 70
    64
  0
VERTEX
  5
A73
  8
0
 10
140.0
 20
21.0
 30
13.0
 70
    64
  0
VERTEX
  5
A74
  8
0
 10
48.0
 20
0.0
 30
34.0
 70
    64
  0
VERTEX
  5
A75
  8
0
 10
48.0
 20
0.8
 30
28.6
 70
    64
  0
VERTEX
  5
A76
  8
0
 10
48.0
 20
2.8
 30
23.5
 70
    64
  0
VERTEX
  5
A77
  8
0
 10
48.0
 20
6.2
 30
19.2
 70
    64
  0
VERTEX
  5
A78
  8
0
 10
48.0
 20
10.5
 30
15.8
 70
    64
  0
VERTEX
  5
A79
  8
0
 10
48.0
 20
15.6
 30
13.8
 70
    64
  0
VERTEX
  5
A7A
  8
0
 10
48.0
 20
21.0
 30
13.0
 70
    64
  0
VERTEX
  5
A7B
  8
0
 10
48.0
 20
1.5
 30
34.0
 70
    64
  0
VERTEX
  5
A7C
  8
0
 10
48.0
 20
2.2
 30
29.0
 70
    64
  0
VERTEX
  5
A7D
  8
0
 10
48.0
 20
4.1
 30
24.3
 70
    64
  0
VERTEX
  5
A7E
  8
0
 10
48.0
 20
7.2
 30
20.2
 70
    64
  0
VERTEX
  5
A7F
  8
0
 10
48.0
 20
11.3
 30
17.1
 70
    64
  0
VERTEX
  5
A80
  8
0
 10
48.0
 20
16.0
 30
15.2
 70
    64
  0
VERTEX
  5
A81
  8
0
 10
48.0
 20
21.0
 30
14.5
 70
    64
  0
SEQEND
  5
A82
  8
0
  0
POLYLINE
  5
A83
  8
0
 66
     1
 10
0.0
 20
0.0
 30
0.0
 70
    16
 71
     3
 72
     7
  0
VERTEX
  5
A84
  8
0
 10
140.0
 20
42.0
 30
34.0
 70
    64
  0
VERTEX
  5
A85
  8
0
 10
140.0
 20
41.2
 30
28.6
 70
    64
  0
VERTEX
  5
A86
  8
0
 10
140.0
 20
39.2
 30
23.5
 70
    64
  0
VERTEX
  5
A87
  8
0
 10
140.0
 20
35.8
 30
19.2
 70
    64
  0
VERTEX
  5
A88
  8
0
 10
140.0
 20
31.5
 30
15.8
 70
    64
  0
VERTEX
  5
A89
  8
0
 10
140.0
 20
26.4
 30
13.8
 70
    64
  0
VERTEX
  5
A8A
  8
0
 10
140.0
 20
21.0
 30
13.0
 70
    64
  0
VERTEX
  5
A8B
  8
0
 10
48.0
 20
42.0
 30
34.0
 70
    64
  0
VERTEX
  5
A8C
  8
0
 10
48.0
 20
41.2
 30
28.6
 70
    64
  0
VERTEX
  5
A8D
  8
0
 10
48.0
 20
39.2
 30
23.5
 70
    64
  0
VERTEX
  5
A8E
  8
0
 10
48.0
 20
35.8
 30
19.2
 70
    64
  0
VERTEX
  5
A8F
  8
0
 10
48.0
 20
31.5
 30
15.8
 70
    64
  0
VERTEX
  5
A90
  8
0
 10
48.0
 20
26.4
 30
13.8
 70
    64
  0
VERTEX
  5
A91
  8
0
 10
48.0
 20
21.0
 30
13.0
 70
    64
  0
VERTEX
  5
A92
  8
0
 10
48.0
 20
40.5
 30
34.0
 70
    64
  0
VERTEX
  5
A93
  8
0
 10
48.0
 20
39.8
 30
29.0
 70
    64
  0
VERTEX
  5
A94
  8
0
 10
48.0
 20
37.9
 30
24.3
 70
    64
  0
VERTEX
  5
A95
  8
0
 10
48.0
 20
34.8
 30
20.2
 70
    64
  0
VERTEX
  5
A96
  8
0
 10
48.0
 20
30.7
 30
17.1
 70
    64
  0
VERTEX
  5
A97
  8
0
 10
48.0
 20
26.0
 30
15.2
 70
    64
  0
VERTEX
  5
A98
  8
0
 10
48.0
 20
21.0
 30
14.5
 70
    64
  0
SEQEND
  5
A99
  8
0
  0
POLYLINE
  5
A9A
  8
0
 66
     1
 10
0.0
 20
0.0
 30
0.0
 70
    16
 71
     3
 72
     7
  0
VERTEX
  5
A9B
  8
0
 10
140.0
 20
42.0
 30
34.0
 70
    64
  0
VERTEX
  5
A9C
  8
0
 10
140.0
 20
41.2
 30
39.4
 70
    64
  0
VERTEX
  5
A9D
  8
0
 10
140.0
 20
39.2
 30
44.5
 70
    64
  0
VERTEX
  5
A9E
  8
0
 10
140.0
 20
35.8
 30
48.8
 70
    64
  0
VERTEX
  5
A9F
  8
0
 10
140.0
 20
31.5
 30
52.2
 70
    64
  0
VERTEX
  5
AA0
  8
0
 10
140.0
 20
26.4
 30
54.2
 70
    64
  0
VERTEX
  5
AA1
  8
0
 10
140.0
 20
21.0
 30
55.0
 70
    64
  0
VERTEX
  5
AA2
  8
0
 10
48.0
 20
42.0
 30
34.0
 70
    64
  0
VERTEX
  5
AA3
  8
0
 10
48.0
 20
41.2
 30
39.4
 70
    64
  0
VERTEX
  5
AA4
  8
0
 10
48.0
 20
39.2
 30
44.5
 70
    64
  0
VERTEX
  5
AA5
  8
0
 10
48.0
 20
35.8
 30
48.8
 70
    64
  0
VERTEX
  5
AA6
  8
0
 10
48.0
 20
31.5
 30
52.2
 70
    64
  0
VERTEX
  5
AA7
  8
0
 10
48.0
 20
26.4
 30
54.2
 70
    64
  0
VERTEX
  5
AA8
  8
0
 10
48.0
 20
21.0
 30
55.0
 70
    64
  0
VERTEX
  5
AA9
  8
0
 10
48.0
 20
40.5
 30
34.0
 70
    64
  0
VERTEX
  5
AAA
  8
0
 10
48.0
 20
39.8
 30
39.0
 70
    64
  0
VERTEX
  5
AAB
  8
0
 10
48.0
 20
37.9
 30
43.7
 70
    64
  0
VERTEX
  5
AAC
  8
0
 10
48.0
 20
34.8
 30
47.8
 70
    64
  0
VERTEX
  5
AAD
  8
0
 10
48.0
 20
30.7
 30
50.9
 70
    64
  0
VERTEX
  5
AAE
  8
0
 10
48.0
 20
26.0
 30
52.8
 70
    64
  0
VERTEX
  5
AAF
  8
0
 10
48.0
 20
21.0
 30
53.5
 70
    64
  0
SEQEND
  5
AB0
  8
0
  0
POLYLINE
  5
AB1
  8
0
 66
     1
 10
0.0
 20
0.0
 30
0.0
 70
    16
 71
     3
 72
     7
  0
VERTEX
  5
AB2
  8
0
 10
140.0
 20
0.0
 30
34.0
 70
    64
  0
VERTEX
  5
AB3
  8
0
 10
140.0
 20
0.8
 30
39.4
 70
    64
  0
VERTEX
  5
AB4
  8
0
 10
140.0
 20
2.8
 30
44.5
 70
    64
  0
VERTEX
  5
AB5
  8
0
 10
140.0
 20
6.2
 30
48.8
 70
    64
  0
VERTEX
  5
AB6
  8
0
 10
140.0
 20
10.5
 30
52.2
 70
    64
  0
VERTEX
  5
AB7
  8
0
 10
140.0
 20
15.6
 30
54.2
 70
    64
  0
VERTEX
  5
AB8
  8
0
 10
140.0
 20
21.0
 30
55.0
 70
    64
  0
VERTEX
  5
AB9
  8
0
 10
48.0
 20
0.0
 30
34.0
 70
    64
  0
VERTEX
  5
ABA
  8
0
 10
48.0
 20
0.8
 30
39.4
 70
    64
  0
VERTEX
  5
ABB
  8
0
 10
48.0
 20
2.8
 30
44.5
 70
    64
  0
VERTEX
  5
ABC
  8
0
 10
48.0
 20
6.2
 30
48.8
 70
    64
  0
VERTEX
  5
ABD
  8
0
 10
48.0
 20
10.5
 30
52.2
 70
    64
  0
VERTEX
  5
ABE
  8
0
 10
48.0
 20
15.6
 30
54.2
 70
    64
  0
VERTEX
  5
ABF
  8
0
 10
48.0
 20
21.0
 30
55.0
 70
    64
  0
VERTEX
  5
AC0
  8
0
 10
48.0
 20
1.5
 30
34.0
 70
    64
  0
VERTEX
  5
AC1
  8
0
 10
48.0
 20
2.2
 30
39.0
 70
    64
  0
VERTEX
  5
AC2
  8
0
 10
48.0
 20
4.1
 30
43.7
 70
    64
  0
VERTEX
  5
AC3
  8
0
 10
48.0
 20
7.2
 30
47.8
 70
    64
  0
VERTEX
  5
AC4
  8
0
 10
48.0
 20
11.3
 30
50.9
 70
    64
  0
VERTEX
  5
AC5
  8
0
 10
48.0
 20
16.0
 30
52.8
 70
    64
  0
VERTEX
  5
AC6
  8
0
 10
48.0
 20
21.0
 30
53.5
 70
    64
  0
SEQEND
  5
AC7
  8
0
  0
POLYLINE
  5
AC8
  8
0
 66
     1
 10
0.0
 20
0.0
 30
0.0
 70
    16
 71
     3
 72
     7
  0
VERTEX
  5
AC9
  8
0
 10
31.0
 20
102.0
 30
34.0
 70
    64
  0
VERTEX
  5
ACA
  8
0
 10
32.2
 20
102.0
 30
25.2
 70
    64
  0
VERTEX
  5
ACB
  8
0
 10
35.6
 20
102.0
 30
17.1
 70
    64
  0
VERTEX
  5
ACC
  8
0
 10
41.0
 20
102.0
 30
10.0
 70
    64
  0
VERTEX
  5
ACD
  8
0
 10
48.1
 20
102.0
 30
4.6
 70
    64
  0
VERTEX
  5
ACE
  8
0
 10
56.2
 20
102.0
 30
1.2
 70
    64
  0
VERTEX
  5
ACF
  8
0
 10
65.0
 20
102.0
 30
0.0
 70
    64
  0
VERTEX
  5
AD0
  8
0
 10
31.0
 20
78.0
 30
34.0
 70
    64
  0
VERTEX
  5
AD1
  8
0
 10
32.2
 20
78.0
 30
25.2
 70
    64
  0
VERTEX
  5
AD2
  8
0
 10
35.6
 20
78.0
 30
17.1
 70
    64
  0
VERTEX
  5
AD3
  8
0
 10
41.0
 20
78.0
 30
10.0
 70
    64
  0
VERTEX
  5
AD4
  8
0
 10
48.1
 20
78.0
 30
4.6
 70
    64
  0
VERTEX
  5
AD5
  8
0
 10
56.2
 20
78.0
 30
1.2
 70
    64
  0
VERTEX
  5
AD6
  8
0
 10
65.0
 20
78.0
 30
0.0
 70
    64
  0
VERTEX
  5
AD7
  8
0
 10
33.0
 20
76.0
 30
34.0
 70
    64
  0
VERTEX
  5
AD8
  8
0
 10
34.2
 20
76.0
 30
25.7
 70
    64
  0
VERTEX
  5
AD9
  8
0
 10
37.3
 20
76.0
 30
18.1
 70
    64
  0
VERTEX
  5
ADA
  8
0
 10
42.4
 20
76.0
 30
11.4
 70
    64
  0
VERTEX
  5
ADB
  8
0
 10
49.1
 20
76.0
 30
6.3
 70
    64
  0
VERTEX
  5
ADC
  8
0
 10
56.7
 20
76.0
 30
3.2
 70
    64
  0
VERTEX
  5
ADD
  8
0
 10
65.0
 20
76.0
 30
2.0
 70
    64
  0
SEQEND
  5
ADE
  8
0
  0
POLYLINE
  5
ADF
  8
0
 66
     1
 10
0.0
 20
0.0
 30
0.0
 70
    16
 71
     3
 72
     7
  0
VERTEX
  5
AE0
  8
0
 10
31.0
 20
102.0
 30
34.0
 70
    64
  0
VERTEX
  5
AE1
  8
0
 10
32.2
 20
102.0
 30
42.8
 70
    64
  0
VERTEX
  5
AE2
  8
0
 10
35.6
 20
102.0
 30
50.9
 70
    64
  0
VERTEX
  5
AE3
  8
0
 10
41.0
 20
102.0
 30
58.0
 70
    64
  0
VERTEX
  5
AE4
  8
0
 10
48.1
 20
102.0
 30
63.4
 70
    64
  0
VERTEX
  5
AE5
  8
0
 10
56.2
 20
102.0
 30
66.8
 70
    64
  0
VERTEX
  5
AE6
  8
0
 10
65.0
 20
102.0
 30
68.0
 70
    64
  0
VERTEX
  5
AE7
  8
0
 10
31.0
 20
78.0
 30
34.0
 70
    64
  0
VERTEX
  5
AE8
  8
0
 10
32.2
 20
78.0
 30
42.8
 70
    64
  0
VERTEX
  5
AE9
  8
0
 10
35.6
 20
78.0
 30
50.9
 70
    64
  0
VERTEX
  5
AEA
  8
0
 10
41.0
 20
78.0
 30
58.0
 70
    64
  0
VERTEX
  5
AEB
  8
0
 10
48.1
 20
78.0
 30
63.4
 70
    64
  0
VERTEX
  5
AEC
  8
0
 10
56.2
 20
78.0
 30
66.8
 70
    64
  0
VERTEX
  5
AED
  8
0
 10
65.0
 20
78.0
 30
68.0
 70
    64
  0
VERTEX
  5
AEE
  8
0
 10
33.0
 20
76.0
 30
34.0
 70
    64
  0
VERTEX
  5
AEF
  8
0
 10
34.2
 20
76.0
 30
42.3
 70
    64
  0
VERTEX
  5
AF0
  8
0
 10
37.3
 20
76.0
 30
49.9
 70
    64
  0
VERTEX
  5
AF1
  8
0
 10
42.4
 20
76.0
 30
56.6
 70
    64
  0
VERTEX
  5
AF2
  8
0
 10
49.1
 20
76.0
 30
61.7
 70
    64
  0
VERTEX
  5
AF3
  8
0
 10
56.7
 20
76.0
 30
64.8
 70
    64
  0
VERTEX
  5
AF4
  8
0
 10
65.0
 20
76.0
 30
66.0
 70
    64
  0
SEQEND
  5
AF5
  8
0
  0
POLYLINE
  5
AF6
  8
0
 66
     1
 10
0.0
 20
0.0
 30
0.0
 70
    16
 71
     3
 72
     7
  0
VERTEX
  5
AF7
  8
0
 10
99.0
 20
102.0
 30
34.0
 70
    64
  0
VERTEX
  5
AF8
  8
0
 10
97.8
 20
102.0
 30
25.2
 70
    64
  0
VERTEX
  5
AF9
  8
0
 10
94.4
 20
102.0
 30
17.1
 70
    64
  0
VERTEX
  5
AFA
  8
0
 10
89.0
 20
102.0
 30
10.0
 70
    64
  0
VERTEX
  5
AFB
  8
0
 10
81.9
 20
102.0
 30
4.6
 70
    64
  0
VERTEX
  5
AFC
  8
0
 10
73.8
 20
102.0
 30
1.2
 70
    64
  0
VERTEX
  5
AFD
  8
0
 10
65.0
 20
102.0
 30
0.0
 70
    64
  0
VERTEX
  5
AFE
  8
0
 10
99.0
 20
78.0
 30
34.0
 70
    64
  0
VERTEX
  5
AFF
  8
0
 10
97.8
 20
78.0
 30
25.2
 70
    64
  0
VERTEX
  5
B00
  8
0
 10
94.4
 20
78.0
 30
17.1
 70
    64
  0
VERTEX
  5
B01
  8
0
 10
89.0
 20
78.0
 30
10.0
 70
    64
  0
VERTEX
  5
B02
  8
0
 10
81.9
 20
78.0
 30
4.6
 70
    64
  0
VERTEX
  5
B03
  8
0
 10
73.8
 20
78.0
 30
1.2
 70
    64
  0
VERTEX
  5
B04
  8
0
 10
65.0
 20
78.0
 30
0.0
 70
    64
  0
VERTEX
  5
B05
  8
0
 10
97.0
 20
76.0
 30
34.0
 70
    64
  0
VERTEX
  5
B06
  8
0
 10
95.8
 20
76.0
 30
25.7
 70
    64
  0
VERTEX
  5
B07
  8
0
 10
92.7
 20
76.0
 30
18.1
 70
    64
  0
VERTEX
  5
B08
  8
0
 10
87.6
 20
76.0
 30
11.4
 70
    64
  0
VERTEX
  5
B09
  8
0
 10
80.9
 20
76.0
 30
6.3
 70
    64
  0
VERTEX
  5
B0A
  8
0
 10
73.3
 20
76.0
 30
3.2
 70
    64
  0
VERTEX
  5
B0B
  8
0
 10
65.0
 20
76.0
 30
2.0
 70
    64
  0
SEQEND
  5
B0C
  8
0
  0
POLYLINE
  5
B0D
  8
0
 66
     1
 10
0.0
 20
0.0
 30
0.0
 70
    16
 71
     3
 72
     7
  0
VERTEX
  5
B0E
  8
0
 10
99.0
 20
102.0
 30
34.0
 70
    64
  0
VERTEX
  5
B0F
  8
0
 10
97.8
 20
102.0
 30
42.8
 70
    64
  0
VERTEX
  5
B10
  8
0
 10
94.4
 20
102.0
 30
50.9
 70
    64
  0
VERTEX
  5
B11
  8
0
 10
89.0
 20
102.0
 30
58.0
 70
    64
  0
VERTEX
  5
B12
  8
0
 10
81.9
 20
102.0
 30
63.4
 70
    64
  0
VERTEX
  5
B13
  8
0
 10
73.8
 20
102.0
 30
66.8
 70
    64
  0
VERTEX
  5
B14
  8
0
 10
65.0
 20
102.0
 30
68.0
 70
    64
  0
VERTEX
  5
B15
  8
0
 10
99.0
 20
78.0
 30
34.0
 70
    64
  0
VERTEX
  5
B16
  8
0
 10
97.8
 20
78.0
 30
42.8
 70
    64
  0
VERTEX
  5
B17
  8
0
 10
94.4
 20
78.0
 30
50.9
 70
    64
  0
VERTEX
  5
B18
  8
0
 10
89.0
 20
78.0
 30
58.0
 70
    64
  0
VERTEX
  5
B19
  8
0
 10
81.9
 20
78.0
 30
63.4
 70
    64
  0
VERTEX
  5
B1A
  8
0
 10
73.8
 20
78.0
 30
66.8
 70
    64
  0
VERTEX
  5
B1B
  8
0
 10
65.0
 20
78.0
 30
68.0
 70
    64
  0
VERTEX
  5
B1C
  8
0
 10
97.0
 20
76.0
 30
34.0
 70
    64
  0
VERTEX
  5
B1D
  8
0
 10
95.8
 20
76.0
 30
42.3
 70
    64
  0
VERTEX
  5
B1E
  8
0
 10
92.7
 20
76.0
 30
49.9
 70
    64
  0
VERTEX
  5
B1F
  8
0
 10
87.6
 20
76.0
 30
56.6
 70
    64
  0
VERTEX
  5
B20
  8
0
 10
80.9
 20
76.0
 30
61.7
 70
    64
  0
VERTEX
  5
B21
  8
0
 10
73.3
 20
76.0
 30
64.8
 70
    64
  0
VERTEX
  5
B22
  8
0
 10
65.0
 20
76.0
 30
66.0
 70
    64
  0
SEQEND
  5
B23
  8
0
  0
POLYLINE
  5
B25
  8
LAYER1
 66
     1
 10
0.0
 20
0.0
 30
0.0
 70
    64
 71
    96
 72
    48
  0
VERTEX
  5
B26
  8
LAYER1
 10
51.0
 20
58.0
 30
34.0
 70
   192
  0
VERTEX
  5
B27
  8
LAYER1
 10
51.0
 20
36.0
 30
34.0
 70
   192
  0
VERTEX
  5
B28
  8
LAYER1
 10
51.494118
 20
58.0
 30
30.3765
 70
   192
  0
VERTEX
  5
B29
  8
LAYER1
 10
51.494118
 20
36.0
 30
30.3765
 70
   192
  0
VERTEX
  5
B2A
  8
LAYER1
 10
51.494118
 20
58.0
 30
37.6235
 70
   192
  0
VERTEX
  5
B2B
  8
LAYER1
 10
51.494118
 20
36.0
 30
37.6235
 70
   192
  0
VERTEX
  5
B2C
  8
LAYER1
 10
52.89412
 20
58.0
 30
27.04118
 70
   192
  0
VERTEX
  5
B2D
  8
LAYER1
 10
52.89412
 20
36.0
 30
27.04118
 70
   192
  0
VERTEX
  5
B2E
  8
LAYER1
 10
52.89412
 20
58.0
 30
40.9588
 70
   192
  0
VERTEX
  5
B2F
  8
LAYER1
 10
52.89412
 20
36.0
 30
40.9588
 70
   192
  0
VERTEX
  5
B30
  8
LAYER1
 10
55.0
 20
62.0
 30
34.0
 70
   192
  0
VERTEX
  5
B31
  8
LAYER1
 10
55.0
 20
58.0
 30
34.0
 70
   192
  0
VERTEX
  5
B32
  8
LAYER1
 10
55.11765
 20
58.0
 30
24.11765
 70
   192
  0
VERTEX
  5
B33
  8
LAYER1
 10
55.11765
 20
36.0
 30
24.11765
 70
   192
  0
VERTEX
  5
B34
  8
LAYER1
 10
55.11765
 20
58.0
 30
43.8824
 70
   192
  0
VERTEX
  5
B35
  8
LAYER1
 10
55.11765
 20
36.0
 30
43.8824
 70
   192
  0
VERTEX
  5
B36
  8
LAYER1
 10
55.35294
 20
62.0
 30
31.4118
 70
   192
  0
VERTEX
  5
B37
  8
LAYER1
 10
55.35294
 20
58.0
 30
31.4118
 70
   192
  0
VERTEX
  5
B38
  8
LAYER1
 10
55.35294
 20
62.0
 30
36.5882
 70
   192
  0
VERTEX
  5
B39
  8
LAYER1
 10
55.35294
 20
58.0
 30
36.5882
 70
   192
  0
VERTEX
  5
B3A
  8
LAYER1
 10
56.35294
 20
62.0
 30
29.02941
 70
   192
  0
VERTEX
  5
B3B
  8
LAYER1
 10
56.35294
 20
58.0
 30
29.02941
 70
   192
  0
VERTEX
  5
B3C
  8
LAYER1
 10
56.35294
 20
62.0
 30
38.9706
 70
   192
  0
VERTEX
  5
B3D
  8
LAYER1
 10
56.35294
 20
58.0
 30
38.9706
 70
   192
  0
VERTEX
  5
B3E
  8
LAYER1
 10
57.94118
 20
62.0
 30
26.94118
 70
   192
  0
VERTEX
  5
B3F
  8
LAYER1
 10
57.94118
 20
58.0
 30
26.94118
 70
   192
  0
VERTEX
  5
B40
  8
LAYER1
 10
57.94118
 20
62.0
 30
41.0588
 70
   192
  0
VERTEX
  5
B41
  8
LAYER1
 10
57.94118
 20
58.0
 30
41.0588
 70
   192
  0
VERTEX
  5
B42
  8
LAYER1
 10
58.04118
 20
58.0
 30
21.89412
 70
   192
  0
VERTEX
  5
B43
  8
LAYER1
 10
58.04118
 20
36.0
 30
21.89412
 70
   192
  0
VERTEX
  5
B44
  8
LAYER1
 10
58.04118
 20
58.0
 30
46.1059
 70
   192
  0
VERTEX
  5
B45
  8
LAYER1
 10
58.04118
 20
36.0
 30
46.1059
 70
   192
  0
VERTEX
  5
B46
  8
LAYER1
 10
60.02941
 20
62.0
 30
25.35294
 70
   192
  0
VERTEX
  5
B47
  8
LAYER1
 10
60.02941
 20
58.0
 30
25.35294
 70
   192
  0
VERTEX
  5
B48
  8
LAYER1
 10
60.02941
 20
62.0
 30
42.6471
 70
   192
  0
VERTEX
  5
B49
  8
LAYER1
 10
60.02941
 20
58.0
 30
42.6471
 70
   192
  0
VERTEX
  5
B4A
  8
LAYER1
 10
61.3765
 20
58.0
 30
20.494118
 70
   192
  0
VERTEX
  5
B4B
  8
LAYER1
 10
61.3765
 20
36.0
 30
20.494118
 70
   192
  0
VERTEX
  5
B4C
  8
LAYER1
 10
61.3765
 20
58.0
 30
47.5059
 70
   192
  0
VERTEX
  5
B4D
  8
LAYER1
 10
61.3765
 20
36.0
 30
47.5059
 70
   192
  0
VERTEX
  5
B4E
  8
LAYER1
 10
62.4118
 20
62.0
 30
24.35294
 70
   192
  0
VERTEX
  5
B4F
  8
LAYER1
 10
62.4118
 20
58.0
 30
24.35294
 70
   192
  0
VERTEX
  5
B50
  8
LAYER1
 10
62.4118
 20
62.0
 30
43.6471
 70
   192
  0
VERTEX
  5
B51
  8
LAYER1
 10
62.4118
 20
58.0
 30
43.6471
 70
   192
  0
VERTEX
  5
B52
  8
LAYER1
 10
65.0
 20
58.0
 30
20.0
 70
   192
  0
VERTEX
  5
B53
  8
LAYER1
 10
65.0
 20
36.0
 30
20.0
 70
   192
  0
VERTEX
  5
B54
  8
LAYER1
 10
65.0
 20
62.0
 30
24.0
 70
   192
  0
VERTEX
  5
B55
  8
LAYER1
 10
65.0
 20
58.0
 30
24.0
 70
   192
  0
VERTEX
  5
B56
  8
LAYER1
 10
65.0
 20
62.0
 30
44.0
 70
   192
  0
VERTEX
  5
B57
  8
LAYER1
 10
65.0
 20
58.0
 30
44.0
 70
   192
  0
VERTEX
  5
B58
  8
LAYER1
 10
65.0
 20
58.0
 30
48.0
 70
   192
  0
VERTEX
  5
B59
  8
LAYER1
 10
65.0
 20
36.0
 30
48.0
 70
   192
  0
VERTEX
  5
B5A
  8
LAYER1
 10
67.5882
 20
62.0
 30
24.35294
 70
   192
  0
VERTEX
  5
B5B
  8
LAYER1
 10
67.5882
 20
58.0
 30
24.35294
 70
   192
  0
VERTEX
  5
B5C
  8
LAYER1
 10
67.5882
 20
62.0
 30
43.6471
 70
   192
  0
VERTEX
  5
B5D
  8
LAYER1
 10
67.5882
 20
58.0
 30
43.6471
 70
   192
  0
VERTEX
  5
B5E
  8
LAYER1
 10
68.6235
 20
58.0
 30
20.494118
 70
   192
  0
VERTEX
  5
B5F
  8
LAYER1
 10
68.6235
 20
36.0
 30
20.494118
 70
   192
  0
VERTEX
  5
B60
  8
LAYER1
 10
68.6235
 20
58.0
 30
47.5059
 70
   192
  0
VERTEX
  5
B61
  8
LAYER1
 10
68.6235
 20
36.0
 30
47.5059
 70
   192
  0
VERTEX
  5
B62
  8
LAYER1
 10
69.9706
 20
62.0
 30
25.35294
 70
   192
  0
VERTEX
  5
B63
  8
LAYER1
 10
69.9706
 20
58.0
 30
25.35294
 70
   192
  0
VERTEX
  5
B64
  8
LAYER1
 10
69.9706
 20
62.0
 30
42.6471
 70
   192
  0
VERTEX
  5
B65
  8
LAYER1
 10
69.9706
 20
58.0
 30
42.6471
 70
   192
  0
VERTEX
  5
B66
  8
LAYER1
 10
71.9588
 20
58.0
 30
21.89412
 70
   192
  0
VERTEX
  5
B67
  8
LAYER1
 10
71.9588
 20
36.0
 30
21.89412
 70
   192
  0
VERTEX
  5
B68
  8
LAYER1
 10
71.9588
 20
58.0
 30
46.1059
 70
   192
  0
VERTEX
  5
B69
  8
LAYER1
 10
71.9588
 20
36.0
 30
46.1059
 70
   192
  0
VERTEX
  5
B6A
  8
LAYER1
 10
72.0588
 20
62.0
 30
26.94118
 70
   192
  0
VERTEX
  5
B6B
  8
LAYER1
 10
72.0588
 20
58.0
 30
26.94118
 70
   192
  0
VERTEX
  5
B6C
  8
LAYER1
 10
72.0588
 20
62.0
 30
41.0588
 70
   192
  0
VERTEX
  5
B6D
  8
LAYER1
 10
72.0588
 20
58.0
 30
41.0588
 70
   192
  0
VERTEX
  5
B6E
  8
LAYER1
 10
73.6471
 20
62.0
 30
29.02941
 70
   192
  0
VERTEX
  5
B6F
  8
LAYER1
 10
73.6471
 20
58.0
 30
29.02941
 70
   192
  0
VERTEX
  5
B70
  8
LAYER1
 10
73.6471
 20
62.0
 30
38.9706
 70
   192
  0
VERTEX
  5
B71
  8
LAYER1
 10
73.6471
 20
58.0
 30
38.9706
 70
   192
  0
VERTEX
  5
B72
  8
LAYER1
 10
74.6471
 20
62.0
 30
31.4118
 70
   192
  0
VERTEX
  5
B73
  8
LAYER1
 10
74.6471
 20
58.0
 30
31.4118
 70
   192
  0
VERTEX
  5
B74
  8
LAYER1
 10
74.6471
 20
62.0
 30
36.5882
 70
   192
  0
VERTEX
  5
B75
  8
LAYER1
 10
74.6471
 20
58.0
 30
36.5882
 70
   192
  0
VERTEX
  5
B76
  8
LAYER1
 10
74.8824
 20
58.0
 30
24.11765
 70
   192
  0
VERTEX
  5
B77
  8
LAYER1
 10
74.8824
 20
36.0
 30
24.11765
 70
   192
  0
VERTEX
  5
B78
  8
LAYER1
 10
74.8824
 20
58.0
 30
43.8824
 70
   192
  0
VERTEX
  5
B79
  8
LAYER1
 10
74.8824
 20
36.0
 30
43.8824
 70
   192
  0
VERTEX
  5
B7A
  8
LAYER1
 10
75.0
 20
62.0
 30
34.0
 70
   192
  0
VERTEX
  5
B7B
  8
LAYER1
 10
75.0
 20
58.0
 30
34.0
 70
   192
  0
VERTEX
  5
B7C
  8
LAYER1
 10
77.1059
 20
58.0
 30
27.04118
 70
   192
  0
VERTEX
  5
B7D
  8
LAYER1
 10
77.1059
 20
36.0
 30
27.04118
 70
   192
  0
VERTEX
  5
B7E
  8
LAYER1
 10
77.1059
 20
58.0
 30
40.9588
 70
   192
  0
VERTEX
  5
B7F
  8
LAYER1
 10
77.1059
 20
36.0
 30
40.9588
 70
   192
  0
VERTEX
  5
B80
  8
LAYER1
 10
78.5059
 20
58.0
 30
30.3765
 70
   192
  0
VERTEX
  5
B81
  8
LAYER1
 10
78.5059
 20
36.0
 30
30.3765
 70
   192
  0
VERTEX
  5
B82
  8
LAYER1
 10
78.5059
 20
58.0
 30
37.6235
 70
   192
  0
VERTEX
  5
B83
  8
LAYER1
 10
78.5059
 20
36.0
 30
37.6235
 70
   192
  0
VERTEX
  5
B84
  8
LAYER1
 10
79.0
 20
58.0
 30
34.0
 70
   192
  0
VERTEX
  5
B85
  8
LAYER1
 10
79.0
 20
36.0
 30
34.0
 70
   192
  0
VERTEX
  5
B86
  8
LAYER1
 10
0.0
 20
0.0
 30
0.0
 70
   128
 71
     1
 72
     3
 73
     4
 74
     2
  0
VERTEX
  5
B87
  8
LAYER1
 10
0.0
 20
0.0
 30
0.0
 70
   128
 71
     3
 72
     7
 73
     8
 74
     4
  0
VERTEX
  5
B88
  8
LAYER1
 10
0.0
 20
0.0
 30
0.0
 70
   128
 71
     7
 72
    13
 73
    14
 74
     8
  0
VERTEX
  5
B89
  8
LAYER1
 10
0.0
 20
0.0
 30
0.0
 70
   128
 71
    13
 72
    29
 73
    30
 74
    14
  0
VERTEX
  5
B8A
  8
LAYER1
 10
0.0
 20
0.0
 30
0.0
 70
   128
 71
    29
 72
    37
 73
    38
 74
    30
  0
VERTEX
  5
B8B
  8
LAYER1
 10
0.0
 20
0.0
 30
0.0
 70
   128
 71
    37
 72
    45
 73
    46
 74
    38
  0
VERTEX
  5
B8C
  8
LAYER1
 10
0.0
 20
0.0
 30
0.0
 70
   128
 71
     2
 72
     6
 73
     5
 74
     1
  0
VERTEX
  5
B8D
  8
LAYER1
 10
0.0
 20
0.0
 30
0.0
 70
   128
 71
     6
 72
    10
 73
     9
 74
     5
  0
VERTEX
  5
B8E
  8
LAYER1
 10
0.0
 20
0.0
 30
0.0
 70
   128
 71
    10
 72
    16
 73
    15
 74
     9
  0
VERTEX
  5
B8F
  8
LAYER1
 10
0.0
 20
0.0
 30
0.0
 70
   128
 71
    16
 72
    32
 73
    31
 74
    15
  0
VERTEX
  5
B90
  8
LAYER1
 10
0.0
 20
0.0
 30
0.0
 70
   128
 71
    32
 72
    40
 73
    39
 74
    31
  0
VERTEX
  5
B91
  8
LAYER1
 10
0.0
 20
0.0
 30
0.0
 70
   128
 71
    40
 72
    52
 73
    51
 74
    39
  0
VERTEX
  5
B92
  8
LAYER1
 10
0.0
 20
0.0
 30
0.0
 70
   128
 71
    96
 72
    92
 73
    91
 74
    95
  0
VERTEX
  5
B93
  8
LAYER1
 10
0.0
 20
0.0
 30
0.0
 70
   128
 71
    92
 72
    88
 73
    87
 74
    91
  0
VERTEX
  5
B94
  8
LAYER1
 10
0.0
 20
0.0
 30
0.0
 70
   128
 71
    88
 72
    82
 73
    81
 74
    87
  0
VERTEX
  5
B95
  8
LAYER1
 10
0.0
 20
0.0
 30
0.0
 70
   128
 71
    82
 72
    66
 73
    65
 74
    81
  0
VERTEX
  5
B96
  8
LAYER1
 10
0.0
 20
0.0
 30
0.0
 70
   128
 71
    66
 72
    58
 73
    57
 74
    65
  0
VERTEX
  5
B97
  8
LAYER1
 10
0.0
 20
0.0
 30
0.0
 70
   128
 71
    58
 72
    46
 73
    45
 74
    57
  0
VERTEX
  5
B98
  8
LAYER1
 10
0.0
 20
0.0
 30
0.0
 70
   128
 71
    95
 72
    93
 73
    94
 74
    96
  0
VERTEX
  5
B99
  8
LAYER1
 10
0.0
 20
0.0
 30
0.0
 70
   128
 71
    93
 72
    89
 73
    90
 74
    94
  0
VERTEX
  5
B9A
  8
LAYER1
 10
0.0
 20
0.0
 30
0.0
 70
   128
 71
    89
 72
    83
 73
    84
 74
    90
  0
VERTEX
  5
B9B
  8
LAYER1
 10
0.0
 20
0.0
 30
0.0
 70
   128
 71
    83
 72
    67
 73
    68
 74
    84
  0
VERTEX
  5
B9C
  8
LAYER1
 10
0.0
 20
0.0
 30
0.0
 70
   128
 71
    67
 72
    59
 73
    60
 74
    68
  0
VERTEX
  5
B9D
  8
LAYER1
 10
0.0
 20
0.0
 30
0.0
 70
   128
 71
    59
 72
    51
 73
    52
 74
    60
  0
VERTEX
  5
B9E
  8
LAYER1
 10
0.0
 20
0.0
 30
0.0
 70
   128
 71
    11
 72
    17
 73
    18
 74
    12
  0
VERTEX
  5
B9F
  8
LAYER1
 10
0.0
 20
0.0
 30
0.0
 70
   128
 71
    17
 72
    21
 73
    22
 74
    18
  0
VERTEX
  5
BA0
  8
LAYER1
 10
0.0
 20
0.0
 30
0.0
 70
   128
 71
    21
 72
    25
 73
    26
 74
    22
  0
VERTEX
  5
BA1
  8
LAYER1
 10
0.0
 20
0.0
 30
0.0
 70
   128
 71
    25
 72
    33
 73
    34
 74
    26
  0
VERTEX
  5
BA2
  8
LAYER1
 10
0.0
 20
0.0
 30
0.0
 70
   128
 71
    33
 72
    41
 73
    42
 74
    34
  0
VERTEX
  5
BA3
  8
LAYER1
 10
0.0
 20
0.0
 30
0.0
 70
   128
 71
    41
 72
    47
 73
    48
 74
    42
  0
VERTEX
  5
BA4
  8
LAYER1
 10
0.0
 20
0.0
 30
0.0
 70
   128
 71
    12
 72
    20
 73
    19
 74
    11
  0
VERTEX
  5
BA5
  8
LAYER1
 10
0.0
 20
0.0
 30
0.0
 70
   128
 71
    20
 72
    24
 73
    23
 74
    19
  0
VERTEX
  5
BA6
  8
LAYER1
 10
0.0
 20
0.0
 30
0.0
 70
   128
 71
    24
 72
    28
 73
    27
 74
    23
  0
VERTEX
  5
BA7
  8
LAYER1
 10
0.0
 20
0.0
 30
0.0
 70
   128
 71
    28
 72
    36
 73
    35
 74
    27
  0
VERTEX
  5
BA8
  8
LAYER1
 10
0.0
 20
0.0
 30
0.0
 70
   128
 71
    36
 72
    44
 73
    43
 74
    35
  0
VERTEX
  5
BA9
  8
LAYER1
 10
0.0
 20
0.0
 30
0.0
 70
   128
 71
    44
 72
    50
 73
    49
 74
    43
  0
VERTEX
  5
BAA
  8
LAYER1
 10
0.0
 20
0.0
 30
0.0
 70
   128
 71
    86
 72
    78
 73
    77
 74
    85
  0
VERTEX
  5
BAB
  8
LAYER1
 10
0.0
 20
0.0
 30
0.0
 70
   128
 71
    78
 72
    74
 73
    73
 74
    77
  0
VERTEX
  5
BAC
  8
LAYER1
 10
0.0
 20
0.0
 30
0.0
 70
   128
 71
    74
 72
    70
 73
    69
 74
    73
  0
VERTEX
  5
BAD
  8
LAYER1
 10
0.0
 20
0.0
 30
0.0
 70
   128
 71
    70
 72
    62
 73
    61
 74
    69
  0
VERTEX
  5
BAE
  8
LAYER1
 10
0.0
 20
0.0
 30
0.0
 70
   128
 71
    62
 72
    54
 73
    53
 74
    61
  0
VERTEX
  5
BAF
  8
LAYER1
 10
0.0
 20
0.0
 30
0.0
 70
   128
 71
    54
 72
    48
 73
    47
 74
    53
  0
VERTEX
  5
BB0
  8
LAYER1
 10
0.0
 20
0.0
 30
0.0
 70
   128
 71
    85
 72
    79
 73
    80
 74
    86
  0
VERTEX
  5
BB1
  8
LAYER1
 10
0.0
 20
0.0
 30
0.0
 70
   128
 71
    79
 72
    75
 73
    76
 74
    80
  0
VERTEX
  5
BB2
  8
LAYER1
 10
0.0
 20
0.0
 30
0.0
 70
   128
 71
    75
 72
    71
 73
    72
 74
    76
  0
VERTEX
  5
BB3
  8
LAYER1
 10
0.0
 20
0.0
 30
0.0
 70
   128
 71
    71
 72
    63
 73
    64
 74
    72
  0
VERTEX
  5
BB4
  8
LAYER1
 10
0.0
 20
0.0
 30
0.0
 70
   128
 71
    63
 72
    55
 73
    56
 74
    64
  0
VERTEX
  5
BB5
  8
LAYER1
 10
0.0
 20
0.0
 30
0.0
 70
   128
 71
    55
 72
    49
 73
    50
 74
    56
  0
SEQEND
  5
BB6
  8
LAYER1
  0
POLYLINE
  5
BB7
  8
0
 66
     1
 10
0.0
 20
0.0
 30
0.0
 70
    16
 71
     2
 72
     7
  0
VERTEX
  5
BB8
  8
0
 10
33.0
 20
76.0
 30
34.0
 70
    64
  0
VERTEX
  5
BB9
  8
0
 10
34.2
 20
76.0
 30
25.7
 70
    64
  0
VERTEX
  5
BBA
  8
0
 10
37.3
 20
76.0
 30
18.1
 70
    64
  0
VERTEX
  5
BBB
  8
0
 10
42.4
 20
76.0
 30
11.4
 70
    64
  0
VERTEX
  5
BBC
  8
0
 10
49.1
 20
76.0
 30
6.3
 70
    64
  0
VERTEX
  5
BBD
  8
0
 10
56.7
 20
76.0
 30
3.2
 70
    64
  0
VERTEX
  5
BBE
  8
0
 10
65.0
 20
76.0
 30
2.0
 70
    64
  0
VERTEX
  5
BBF
  8
0
 10
65.0
 20
76.0
 30
34.0
 70
    64
  0
VERTEX
  5
BC0
  8
0
 10
65.0
 20
76.0
 30
34.0
 70
    64
  0
VERTEX
  5
BC1
  8
0
 10
65.0
 20
76.0
 30
34.0
 70
    64
  0
VERTEX
  5
BC2
  8
0
 10
65.0
 20
76.0
 30
34.0
 70
    64
  0
VERTEX
  5
BC3
  8
0
 10
65.0
 20
76.0
 30
34.0
 70
    64
  0
VERTEX
  5
BC4
  8
0
 10
65.0
 20
76.0
 30
34.0
 70
    64
  0
VERTEX
  5
BC5
  8
0
 10
65.0
 20
76.0
 30
34.0
 70
    64
  0
SEQEND
  5
BC6
  8
0
  0
POLYLINE
  5
BC7
  8
0
 66
     1
 10
0.0
 20
0.0
 30
0.0
 70
    16
 71
     2
 72
     7
  0
VERTEX
  5
BC8
  8
0
 10
97.0
 20
76.0
 30
34.0
 70
    64
  0
VERTEX
  5
BC9
  8
0
 10
95.8
 20
76.0
 30
25.7
 70
    64
  0
VERTEX
  5
BCA
  8
0
 10
92.7
 20
76.0
 30
18.1
 70
    64
  0
VERTEX
  5
BCB
  8
0
 10
87.6
 20
76.0
 30
11.4
 70
    64
  0
VERTEX
  5
BCC
  8
0
 10
80.9
 20
76.0
 30
6.3
 70
    64
  0
VERTEX
  5
BCD
  8
0
 10
73.3
 20
76.0
 30
3.2
 70
    64
  0
VERTEX
  5
BCE
  8
0
 10
65.0
 20
76.0
 30
2.0
 70
    64
  0
VERTEX
  5
BCF
  8
0
 10
65.0
 20
76.0
 30
34.0
 70
    64
  0
VERTEX
  5
BD0
  8
0
 10
65.0
 20
76.0
 30
34.0
 70
    64
  0
VERTEX
  5
BD1
  8
0
 10
65.0
 20
76.0
 30
34.0
 70
    64
  0
VERTEX
  5
BD2
  8
0
 10
65.0
 20
76.0
 30
34.0
 70
    64
  0
VERTEX
  5
BD3
  8
0
 10
65.0
 20
76.0
 30
34.0
 70
    64
  0
VERTEX
  5
BD4
  8
0
 10
65.0
 20
76.0
 30
34.0
 70
    64
  0
VERTEX
  5
BD5
  8
0
 10
65.0
 20
76.0
 30
34.0
 70
    64
  0
SEQEND
  5
BD6
  8
0
  0
POLYLINE
  5
BD7
  8
0
 66
     1
 10
0.0
 20
0.0
 30
0.0
 70
    16
 71
     2
 72
     7
  0
VERTEX
  5
BD8
  8
0
 10
33.0
 20
76.0
 30
34.0
 70
    64
  0
VERTEX
  5
BD9
  8
0
 10
34.2
 20
76.0
 30
42.3
 70
    64
  0
VERTEX
  5
BDA
  8
0
 10
37.3
 20
76.0
 30
49.9
 70
    64
  0
VERTEX
  5
BDB
  8
0
 10
42.4
 20
76.0
 30
56.6
 70
    64
  0
VERTEX
  5
BDC
  8
0
 10
49.1
 20
76.0
 30
61.7
 70
    64
  0
VERTEX
  5
BDD
  8
0
 10
56.7
 20
76.0
 30
64.8
 70
    64
  0
VERTEX
  5
BDE
  8
0
 10
65.0
 20
76.0
 30
66.0
 70
    64
  0
VERTEX
  5
BDF
  8
0
 10
65.0
 20
76.0
 30
34.0
 70
    64
  0
VERTEX
  5
BE0
  8
0
 10
65.0
 20
76.0
 30
34.0
 70
    64
  0
VERTEX
  5
BE1
  8
0
 10
65.0
 20
76.0
 30
34.0
 70
    64
  0
VERTEX
  5
BE2
  8
0
 10
65.0
 20
76.0
 30
34.0
 70
    64
  0
VERTEX
  5
BE3
  8
0
 10
65.0
 20
76.0
 30
34.0
 70
    64
  0
VERTEX
  5
BE4
  8
0
 10
65.0
 20
76.0
 30
34.0
 70
    64
  0
VERTEX
  5
BE5
  8
0
 10
65.0
 20
76.0
 30
34.0
 70
    64
  0
SEQEND
  5
BE6
  8
0
  0
POLYLINE
  5
BE7
  8
0
 66
     1
 10
0.0
 20
0.0
 30
0.0
 70
    16
 71
     2
 72
     7
  0
VERTEX
  5
BE8
  8
0
 10
97.0
 20
76.0
 30
34.0
 70
    64
  0
VERTEX
  5
BE9
  8
0
 10
95.8
 20
76.0
 30
42.3
 70
    64
  0
VERTEX
  5
BEA
  8
0
 10
92.7
 20
76.0
 30
49.9
 70
    64
  0
VERTEX
  5
BEB
  8
0
 10
87.6
 20
76.0
 30
56.6
 70
    64
  0
VERTEX
  5
BEC
  8
0
 10
80.9
 20
76.0
 30
61.7
 70
    64
  0
VERTEX
  5
BED
  8
0
 10
73.3
 20
76.0
 30
64.8
 70
    64
  0
VERTEX
  5
BEE
  8
0
 10
65.0
 20
76.0
 30
66.0
 70
    64
  0
VERTEX
  5
BEF
  8
0
 10
65.0
 20
76.0
 30
34.0
 70
    64
  0
VERTEX
  5
BF0
  8
0
 10
65.0
 20
76.0
 30
34.0
 70
    64
  0
VERTEX
  5
BF1
  8
0
 10
65.0
 20
76.0
 30
34.0
 70
    64
  0
VERTEX
  5
BF2
  8
0
 10
65.0
 20
76.0
 30
34.0
 70
    64
  0
VERTEX
  5
BF3
  8
0
 10
65.0
 20
76.0
 30
34.0
 70
    64
  0
VERTEX
  5
BF4
  8
0
 10
65.0
 20
76.0
 30
34.0
 70
    64
  0
VERTEX
  5
BF5
  8
0
 10
65.0
 20
76.0
 30
34.0
 70
    64
  0
SEQEND
  5
BF6
  8
0
  0
POLYLINE
  5
BF7
  8
0
 66
     1
 10
0.0
 20
0.0
 30
0.0
 70
    16
 71
     2
 72
     7
  0
VERTEX
  5
BF8
  8
0
 10
55.0
 20
58.0
 30
34.0
 70
    64
  0
VERTEX
  5
BF9
  8
0
 10
55.35294
 20
58.0
 30
36.5882
 70
    64
  0
VERTEX
  5
BFA
  8
0
 10
56.35294
 20
58.0
 30
38.9706
 70
    64
  0
VERTEX
  5
BFB
  8
0
 10
57.94118
 20
58.0
 30
41.0588
 70
    64
  0
VERTEX
  5
BFC
  8
0
 10
60.02941
 20
58.0
 30
42.6471
 70
    64
  0
VERTEX
  5
BFD
  8
0
 10
62.4118
 20
58.0
 30
43.6471
 70
    64
  0
VERTEX
  5
BFE
  8
0
 10
65.0
 20
58.0
 30
44.0
 70
    64
  0
VERTEX
  5
BFF
  8
0
 10
51.0
 20
58.0
 30
34.0
 70
    64
  0
VERTEX
  5
C00
  8
0
 10
51.4941
 20
58.0
 30
37.6235
 70
    64
  0
VERTEX
  5
C01
  8
0
 10
52.8941
 20
58.0
 30
40.9588
 70
    64
  0
VERTEX
  5
C02
  8
0
 10
55.1177
 20
58.0
 30
43.8824
 70
    64
  0
VERTEX
  5
C03
  8
0
 10
58.0412
 20
58.0
 30
46.1059
 70
    64
  0
VERTEX
  5
C04
  8
0
 10
61.3765
 20
58.0
 30
47.5059
 70
    64
  0
VERTEX
  5
C05
  8
0
 10
65.0
 20
58.0
 30
48.0
 70
    64
  0
SEQEND
  5
C06
  8
0
  0
POLYLINE
  5
C07
  8
0
 66
     1
 10
0.0
 20
0.0
 30
0.0
 70
    16
 71
     2
 72
     7
  0
VERTEX
  5
C08
  8
0
 10
75.0
 20
58.0
 30
34.0
 70
    64
  0
VERTEX
  5
C09
  8
0
 10
74.64706
 20
58.0
 30
36.5882
 70
    64
  0
VERTEX
  5
C0A
  8
0
 10
73.64706
 20
58.0
 30
38.9706
 70
    64
  0
VERTEX
  5
C0B
  8
0
 10
72.05882
 20
58.0
 30
41.0588
 70
    64
  0
VERTEX
  5
C0C
  8
0
 10
69.97059
 20
58.0
 30
42.6471
 70
    64
  0
VERTEX
  5
C0D
  8
0
 10
67.5882
 20
58.0
 30
43.6471
 70
    64
  0
VERTEX
  5
C0E
  8
0
 10
65.0
 20
58.0
 30
44.0
 70
    64
  0
VERTEX
  5
C0F
  8
0
 10
79.0
 20
58.0
 30
34.0
 70
    64
  0
VERTEX
  5
C10
  8
0
 10
78.5059
 20
58.0
 30
37.6235
 70
    64
  0
VERTEX
  5
C11
  8
0
 10
77.1059
 20
58.0
 30
40.9588
 70
    64
  0
VERTEX
  5
C12
  8
0
 10
74.8823
 20
58.0
 30
43.8824
 70
    64
  0
VERTEX
  5
C13
  8
0
 10
71.9588
 20
58.0
 30
46.1059
 70
    64
  0
VERTEX
  5
C14
  8
0
 10
68.6235
 20
58.0
 30
47.5059
 70
    64
  0
VERTEX
  5
C15
  8
0
 10
65.0
 20
58.0
 30
48.0
 70
    64
  0
SEQEND
  5
C16
  8
0
  0
POLYLINE
  5
C17
  8
0
 66
     1
 10
0.0
 20
0.0
 30
0.0
 70
    16
 71
     2
 72
     7
  0
VERTEX
  5
C18
  8
0
 10
75.0
 20
58.0
 30
34.0
 70
    64
  0
VERTEX
  5
C19
  8
0
 10
74.64706
 20
58.0
 30
31.4118
 70
    64
  0
VERTEX
  5
C1A
  8
0
 10
73.64706
 20
58.0
 30
29.0294
 70
    64
  0
VERTEX
  5
C1B
  8
0
 10
72.05882
 20
58.0
 30
26.9412
 70
    64
  0
VERTEX
  5
C1C
  8
0
 10
69.97059
 20
58.0
 30
25.3529
 70
    64
  0
VERTEX
  5
C1D
  8
0
 10
67.5882
 20
58.0
 30
24.3529
 70
    64
  0
VERTEX
  5
C1E
  8
0
 10
65.0
 20
58.0
 30
24.0
 70
    64
  0
VERTEX
  5
C1F
  8
0
 10
79.0
 20
58.0
 30
34.0
 70
    64
  0
VERTEX
  5
C20
  8
0
 10
78.5059
 20
58.0
 30
30.3765
 70
    64
  0
VERTEX
  5
C21
  8
0
 10
77.1059
 20
58.0
 30
27.0412
 70
    64
  0
VERTEX
  5
C22
  8
0
 10
74.8823
 20
58.0
 30
24.1176
 70
    64
  0
VERTEX
  5
C23
  8
0
 10
71.9588
 20
58.0
 30
21.8941
 70
    64
  0
VERTEX
  5
C24
  8
0
 10
68.6235
 20
58.0
 30
20.4941
 70
    64
  0
VERTEX
  5
C25
  8
0
 10
65.0
 20
58.0
 30
20.0
 70
    64
  0
SEQEND
  5
C26
  8
0
  0
POLYLINE
  5
C27
  8
0
 66
     1
 10
0.0
 20
0.0
 30
0.0
 70
    16
 71
     2
 72
     7
  0
VERTEX
  5
C28
  8
0
 10
55.0
 20
58.0
 30
34.0
 70
    64
  0
VERTEX
  5
C29
  8
0
 10
55.35294
 20
58.0
 30
31.4118
 70
    64
  0
VERTEX
  5
C2A
  8
0
 10
56.35294
 20
58.0
 30
29.0294
 70
    64
  0
VERTEX
  5
C2B
  8
0
 10
57.94118
 20
58.0
 30
26.9412
 70
    64
  0
VERTEX
  5
C2C
  8
0
 10
60.02941
 20
58.0
 30
25.3529
 70
    64
  0
VERTEX
  5
C2D
  8
0
 10
62.4118
 20
58.0
 30
24.3529
 70
    64
  0
VERTEX
  5
C2E
  8
0
 10
65.0
 20
58.0
 30
24.0
 70
    64
  0
VERTEX
  5
C2F
  8
0
 10
51.0
 20
58.0
 30
34.0
 70
    64
  0
VERTEX
  5
C30
  8
0
 10
51.4941
 20
58.0
 30
30.3765
 70
    64
  0
VERTEX
  5
C31
  8
0
 10
52.8941
 20
58.0
 30
27.0412
 70
    64
  0
VERTEX
  5
C32
  8
0
 10
55.1177
 20
58.0
 30
24.1176
 70
    64
  0
VERTEX
  5
C33
  8
0
 10
58.0412
 20
58.0
 30
21.8941
 70
    64
  0
VERTEX
  5
C34
  8
0
 10
61.3765
 20
58.0
 30
20.4941
 70
    64
  0
VERTEX
  5
C35
  8
0
 10
65.0
 20
58.0
 30
20.0
 70
    64
  0
SEQEND
  5
C36
  8
0
  0
INSERT
  5
C3E
  8
ASHADE
 62
     1
  2
AVE_RENDER
 10
0.0
 20
0.0
 30
0.0
1001
AVE_RENDER
1002
{
1070
     7
1000
Pref
1070
    30
1070
    20
1070
     1
1070
     0
1000

1070
    10
1070
     1
1070
    10
1040
1.0
1070
     1
1040
0.3
1040
0.7
1040
0.0
1040
10.0
1010
-1.0
1020
-1.0
1030
-1.0
1040
0.3
1070
    49
1070
     0
1070
     0
1010
1.0
1020
1.0
1030
1.0
1040
45.0
1070
     1
1070
     0
1000
WCS
1040
0.0
1070
     0
1040
10.0
1002
}
  0
INSERT
  5
C3F
  8
ASHADE
 62
     3
  2
AVE_RENDER
 10
0.0
 20
0.0
 30
0.0
1001
AVE_RENDER
1002
{
1070
     0
1000
Full Opt
1070
     0
1070
     1
1070
     1
1070
     1
1070
     0
1070
     0
1070
     0
1070
     1
1070
     1
1040
0.0001
1040
0.0001
1002
}
  0
INSERT
  5
C40
  8
ASHADE
 62
     4
  2
AVE_RENDER
 10
0.0
 20
0.0
 30
0.0
1001
AVE_RENDER
1002
{
1070
     0
1000
Quick Opt
1070
     0
1070
     1
1070
     1
1070
     1
1070
     0
1070
     0
1070
     1
1002
}
  0
INSERT
  5
C41
  8
ASHADE
 62
     5
  2
AVE_RENDER
 10
0.0
 20
0.0
 30
0.0
1001
AVE_RENDER
1002
{
1070
     1
1000
Scanl Opt
1070
     2
1070
     0
1070
     2
1040
2.0
1040
4.0
1070
     0
1070
     1
1070
     0
1040
0.03
1002
}
  0
INSERT
  5
C42
  8
ASHADE
 62
     6
  2
AVE_RENDER
 10
0.0
 20
0.0
 30
0.0
1001
AVE_RENDER
1002
{
1070
     2
1000
Raytr Opt
1070
     2
1070
     0
1070
     2
1040
2.0
1040
4.0
1070
     0
1070
     1
1070
     1
1040
0.03
1070
     3
1040
0.03
1002
}
  0
INSERT
  5
C43
  8
ASHADE
 62
     7
  2
AVE_RENDER
 10
0.0
 20
0.0
 30
0.0
1001
AVE_RENDER
1002
{
1070
     0
1000
RFile Opt
1070
     1
1070
   640
1070
   480
1070
 10000
1070
     1
1070
     8
1070
     8
1070
     0
1070
     0
1070
     0
1070
     0
1070
     0
1070
     0
1070
     0
1002
}
  0
INSERT
  5
C44
  8
ASHADE
 62
     8
  2
AVE_RENDER
 10
0.0
 20
0.0
 30
0.0
1001
AVE_RENDER
1002
{
1070
     0
1000
Fog Opt
1070
     0
1070
     0
1040
0.0
1040
1.0
1040
0.0
1040
1.0
1010
0.5
1020
0.5
1030
0.5
1002
}
  0
INSERT
  5
C45
  8
ASHADE
 62
     9
  2
AVE_RENDER
 10
0.0
 20
0.0
 30
0.0
1001
AVE_RENDER
1002
{
1070
     0
1000
BG Opt
1070
     0
1070
     1
1010
0.0
1020
0.0
1030
0.0
1010
1.0
1020
0.0
1030
0.0
1010
0.0
1020
1.0
1030
0.0
1010
0.0
1020
0.0
1030
1.0
1040
0.5
1040
0.33
1040
0.0
1000

1070
     1
1000

1070
     1
1070
     1
1040
1.0
1040
1.0
1040
0.0
1040
0.0
1070
     0
1002
}
  0
INSERT
  5
C4C
  8
ASHADE
 62
     1
  2
AVE_GLOBAL
 10
0.0
 20
0.0
 30
0.0
1001
AVE_MATERIAL
1002
{
1000
*GLOBAL*
1000
1
1000
Global finish.
1002
{
1002
}
1002
{
1070
    63
1002
{
1002
{
1010
-1.0
1020
-1.0
1030
-1.0
1002
}
1040
0.1
1000

1040
0.0
1002
{
1002
}
1040
0.0
1002
{
1002
}
1040
0.0
1002
}
1002
{
1002
{
1010
-1.0
1020
-1.0
1030
-1.0
1002
}
1040
0.7
1000

1040
0.0
1002
{
1002
}
1040
0.0
1002
{
1002
}
1040
0.0
1002
}
1002
{
1002
{
1010
-1.0
1020
-1.0
1030
-1.0
1002
}
1040
0.2
1000

1040
0.0
1002
{
1002
}
1040
0.0
1002
{
1002
}
1040
0.0
1002
}
1002
{
1070
     0
1002
{
1070
     1
1002
{
1040
1.0
1040
1.0
1000

1040
0.0
1002
{
1002
}
1040
0.0
1002
{
1002
}
1040
0.0
1002
}
1002
}
1040
1.0
1040
0.0
1040
0.0
1002
}
1002
{
1040
1.0
1040
1.0
1000

1040
0.0
1002
{
1002
}
1040
0.0
1002
{
1002
}
1040
0.0
1002
}
1002
{
1040
0.5
1040
1.0
1000

1040
0.0
1002
{
1002
}
1040
0.0
1002
{
1002
}
1040
0.0
1002
}
1002
{
1070
     0
1040
0.0
1002
{
1002
}
1040
1.0
1002
{
1002
}
1040
0.0
1002
}
1002
{
1040
0.0
1002
{
1002
{
1010
0.0
1020
0.0
1030
0.0
1002
}
1040
1.0
1000

1040
0.0
1002
{
1002
}
1040
0.0
1002
{
1002
}
1040
0.0
1002
}
1002
}
1002
{
1002
{
1070
     1
1002
{
1040
0.0
1040
1.0
1000

1040
0.0
1002
{
1002
}
1040
0.0
1002
{
1002
}
1040
0.0
1002
}
1002
}
1040
0.0
1002
{
1002
}
1010
1.0
1020
0.0
1030
0.0
1010
0.0
1020
1.0
1030
0.0
1010
0.0
1020
0.0
1030
1.0
1070
     0
1002
}
1002
{
1002
{
1040
1.0
1040
1.0
1002
{
1070
     1
1002
{
1040
1.0
1040
1.0
1000

1040
0.0
1002
{
1002
}
1040
0.0
1002
{
1002
}
1040
0.0
1002
}
1002
}
1002
}
1070
     0
1040
0.0
1002
{
1002
}
1002
}
1002
{
1002
}
1002
}
1002
{
1071
        3
1070
     3
1070
     0
1002
{
1070
     2
1070
     0
1070
     0
1040
0.0
1002
}
1070
     0
1070
     2
1002
{
1002
}
1002
}
1002
{
1040
8030.0
1040
190.300003
1040
0.305
1040
228.0
1040
545.0
1040
14.0
1040
17.4
1040
0.456
1002
}
1002
}
  0
POLYLINE
  5
C4F
  8
0
 66
     1
 10
0.0
 20
0.0
 30
0.0
 70
    16
 71
     2
 72
     7
  0
VERTEX
  5
C50
  8
0
 10
46.0
 20
1.5
 30
34.0
 70
    64
  0
VERTEX
  5
C51
  8
0
 10
46.0
 20
2.2
 30
29.0
 70
    64
  0
VERTEX
  5
C52
  8
0
 10
46.0
 20
4.1
 30
24.3
 70
    64
  0
VERTEX
  5
C53
  8
0
 10
46.0
 20
7.2
 30
20.2
 70
    64
  0
VERTEX
  5
C54
  8
0
 10
46.0
 20
11.3
 30
17.1
 70
    64
  0
VERTEX
  5
C55
  8
0
 10
46.0
 20
16.0
 30
15.2
 70
    64
  0
VERTEX
  5
C56
  8
0
 10
46.0
 20
21.0
 30
14.5
 70
    64
  0
VERTEX
  5
C57
  8
0
 10
48.0
 20
1.5
 30
34.0
 70
    64
  0
VERTEX
  5
C58
  8
0
 10
48.0
 20
2.2
 30
29.0
 70
    64
  0
VERTEX
  5
C59
  8
0
 10
48.0
 20
4.1
 30
24.3
 70
    64
  0
VERTEX
  5
C5A
  8
0
 10
48.0
 20
7.2
 30
20.2
 70
    64
  0
VERTEX
  5
C5B
  8
0
 10
48.0
 20
11.3
 30
17.1
 70
    64
  0
VERTEX
  5
C5C
  8
0
 10
48.0
 20
16.0
 30
15.2
 70
    64
  0
VERTEX
  5
C5D
  8
0
 10
48.0
 20
21.0
 30
14.5
 70
    64
  0
SEQEND
  5
C5E
  8
0
  0
POLYLINE
  5
C5F
  8
0
 66
     1
 10
0.0
 20
0.0
 30
0.0
 70
    16
 71
     7
 72
     7
  0
VERTEX
  5
C60
  8
0
 10
0.0
 20
21.0
 30
34.0
 70
    64
  0
VERTEX
  5
C61
  8
0
 10
0.0
 20
21.0
 30
34.0
 70
    64
  0
VERTEX
  5
C62
  8
0
 10
0.0
 20
21.0
 30
34.0
 70
    64
  0
VERTEX
  5
C63
  8
0
 10
0.0
 20
21.0
 30
34.0
 70
    64
  0
VERTEX
  5
C64
  8
0
 10
0.0
 20
21.0
 30
34.0
 70
    64
  0
VERTEX
  5
C65
  8
0
 10
0.0
 20
21.0
 30
34.0
 70
    64
  0
VERTEX
  5
C66
  8
0
 10
0.0
 20
21.0
 30
34.0
 70
    64
  0
VERTEX
  5
C67
  8
0
 10
0.0
 20
21.0
 30
26.0
 70
    64
  0
VERTEX
  5
C68
  8
0
 10
0.0
 20
23.1
 30
26.3
 70
    64
  0
VERTEX
  5
C69
  8
0
 10
0.0
 20
25.0
 30
27.1
 70
    64
  0
VERTEX
  5
C6A
  8
0
 10
0.0
 20
26.6
 30
28.4
 70
    64
  0
VERTEX
  5
C6B
  8
0
 10
0.0
 20
27.9
 30
30.0
 70
    64
  0
VERTEX
  5
C6C
  8
0
 10
0.0
 20
28.7
 30
31.9
 70
    64
  0
VERTEX
  5
C6D
  8
0
 10
0.0
 20
29.0
 30
34.0
 70
    64
  0
VERTEX
  5
C6E
  8
0
 10
0.5
 20
21.0
 30
26.0
 70
    64
  0
VERTEX
  5
C6F
  8
0
 10
0.5
 20
23.1
 30
26.3
 70
    64
  0
VERTEX
  5
C70
  8
0
 10
0.5
 20
25.0
 30
27.1
 70
    64
  0
VERTEX
  5
C71
  8
0
 10
0.5
 20
26.6
 30
28.4
 70
    64
  0
VERTEX
  5
C72
  8
0
 10
0.5
 20
27.9
 30
30.0
 70
    64
  0
VERTEX
  5
C73
  8
0
 10
0.5
 20
28.7
 30
31.9
 70
    64
  0
VERTEX
  5
C74
  8
0
 10
0.5
 20
29.0
 30
34.0
 70
    64
  0
VERTEX
  5
C75
  8
0
 10
2.0
 20
21.0
 30
14.0
 70
    64
  0
VERTEX
  5
C76
  8
0
 10
2.0
 20
26.2
 30
14.7
 70
    64
  0
VERTEX
  5
C77
  8
0
 10
2.0
 20
31.0
 30
16.7
 70
    64
  0
VERTEX
  5
C78
  8
0
 10
2.0
 20
35.1
 30
19.9
 70
    64
  0
VERTEX
  5
C79
  8
0
 10
2.0
 20
38.3
 30
24.0
 70
    64
  0
VERTEX
  5
C7A
  8
0
 10
2.0
 20
40.3
 30
28.8
 70
    64
  0
VERTEX
  5
C7B
  8
0
 10
2.0
 20
41.0
 30
34.0
 70
    64
  0
VERTEX
  5
C7C
  8
0
 10
3.0
 20
21.0
 30
13.0
 70
    64
  0
VERTEX
  5
C7D
  8
0
 10
3.0
 20
26.4
 30
13.8
 70
    64
  0
VERTEX
  5
C7E
  8
0
 10
3.0
 20
31.5
 30
15.8
 70
    64
  0
VERTEX
  5
C7F
  8
0
 10
3.0
 20
35.8
 30
19.2
 70
    64
  0
VERTEX
  5
C80
  8
0
 10
3.0
 20
39.2
 30
23.5
 70
    64
  0
VERTEX
  5
C81
  8
0
 10
3.0
 20
41.2
 30
28.6
 70
    64
  0
VERTEX
  5
C82
  8
0
 10
3.0
 20
42.0
 30
34.0
 70
    64
  0
VERTEX
  5
C83
  8
0
 10
46.0
 20
21.0
 30
13.0
 70
    64
  0
VERTEX
  5
C84
  8
0
 10
46.0
 20
26.4
 30
13.8
 70
    64
  0
VERTEX
  5
C85
  8
0
 10
46.0
 20
31.5
 30
15.8
 70
    64
  0
VERTEX
  5
C86
  8
0
 10
46.0
 20
35.8
 30
19.2
 70
    64
  0
VERTEX
  5
C87
  8
0
 10
46.0
 20
39.2
 30
23.5
 70
    64
  0
VERTEX
  5
C88
  8
0
 10
46.0
 20
41.2
 30
28.6
 70
    64
  0
VERTEX
  5
C89
  8
0
 10
46.0
 20
42.0
 30
34.0
 70
    64
  0
VERTEX
  5
C8A
  8
0
 10
46.0
 20
21.0
 30
14.5
 70
    64
  0
VERTEX
  5
C8B
  8
0
 10
46.0
 20
26.0
 30
15.2
 70
    64
  0
VERTEX
  5
C8C
  8
0
 10
46.0
 20
30.7
 30
17.1
 70
    64
  0
VERTEX
  5
C8D
  8
0
 10
46.0
 20
34.8
 30
20.2
 70
    64
  0
VERTEX
  5
C8E
  8
0
 10
46.0
 20
37.9
 30
24.3
 70
    64
  0
VERTEX
  5
C8F
  8
0
 10
46.0
 20
39.8
 30
29.0
 70
    64
  0
VERTEX
  5
C90
  8
0
 10
46.0
 20
40.5
 30
34.0
 70
    64
  0
SEQEND
  5
C91
  8
0
  0
POLYLINE
  5
C92
  8
0
 66
     1
 10
0.0
 20
0.0
 30
0.0
 70
    16
 71
     7
 72
     7
  0
VERTEX
  5
C93
  8
0
 10
0.0
 20
21.0
 30
34.0
 70
    64
  0
VERTEX
  5
C94
  8
0
 10
0.0
 20
21.0
 30
34.0
 70
    64
  0
VERTEX
  5
C95
  8
0
 10
0.0
 20
21.0
 30
34.0
 70
    64
  0
VERTEX
  5
C96
  8
0
 10
0.0
 20
21.0
 30
34.0
 70
    64
  0
VERTEX
  5
C97
  8
0
 10
0.0
 20
21.0
 30
34.0
 70
    64
  0
VERTEX
  5
C98
  8
0
 10
0.0
 20
21.0
 30
34.0
 70
    64
  0
VERTEX
  5
C99
  8
0
 10
0.0
 20
21.0
 30
34.0
 70
    64
  0
VERTEX
  5
C9A
  8
0
 10
0.0
 20
21.0
 30
26.0
 70
    64
  0
VERTEX
  5
C9B
  8
0
 10
0.0
 20
18.9
 30
26.3
 70
    64
  0
VERTEX
  5
C9C
  8
0
 10
0.0
 20
17.0
 30
27.1
 70
    64
  0
VERTEX
  5
C9D
  8
0
 10
0.0
 20
15.4
 30
28.4
 70
    64
  0
VERTEX
  5
C9E
  8
0
 10
0.0
 20
14.1
 30
30.0
 70
    64
  0
VERTEX
  5
C9F
  8
0
 10
0.0
 20
13.3
 30
31.9
 70
    64
  0
VERTEX
  5
CA0
  8
0
 10
0.0
 20
13.0
 30
34.0
 70
    64
  0
VERTEX
  5
CA1
  8
0
 10
0.5
 20
21.0
 30
26.0
 70
    64
  0
VERTEX
  5
CA2
  8
0
 10
0.5
 20
18.9
 30
26.3
 70
    64
  0
VERTEX
  5
CA3
  8
0
 10
0.5
 20
17.0
 30
27.1
 70
    64
  0
VERTEX
  5
CA4
  8
0
 10
0.5
 20
15.4
 30
28.4
 70
    64
  0
VERTEX
  5
CA5
  8
0
 10
0.5
 20
14.1
 30
30.0
 70
    64
  0
VERTEX
  5
CA6
  8
0
 10
0.5
 20
13.3
 30
31.9
 70
    64
  0
VERTEX
  5
CA7
  8
0
 10
0.5
 20
13.0
 30
34.0
 70
    64
  0
VERTEX
  5
CA8
  8
0
 10
2.0
 20
21.0
 30
14.0
 70
    64
  0
VERTEX
  5
CA9
  8
0
 10
2.0
 20
15.8
 30
14.7
 70
    64
  0
VERTEX
  5
CAA
  8
0
 10
2.0
 20
11.0
 30
16.7
 70
    64
  0
VERTEX
  5
CAB
  8
0
 10
2.0
 20
6.9
 30
19.9
 70
    64
  0
VERTEX
  5
CAC
  8
0
 10
2.0
 20
3.7
 30
24.0
 70
    64
  0
VERTEX
  5
CAD
  8
0
 10
2.0
 20
1.7
 30
28.8
 70
    64
  0
VERTEX
  5
CAE
  8
0
 10
2.0
 20
1.0
 30
34.0
 70
    64
  0
VERTEX
  5
CAF
  8
0
 10
3.0
 20
21.0
 30
13.0
 70
    64
  0
VERTEX
  5
CB0
  8
0
 10
3.0
 20
15.6
 30
13.8
 70
    64
  0
VERTEX
  5
CB1
  8
0
 10
3.0
 20
10.5
 30
15.8
 70
    64
  0
VERTEX
  5
CB2
  8
0
 10
3.0
 20
6.2
 30
19.2
 70
    64
  0
VERTEX
  5
CB3
  8
0
 10
3.0
 20
2.8
 30
23.5
 70
    64
  0
VERTEX
  5
CB4
  8
0
 10
3.0
 20
0.8
 30
28.6
 70
    64
  0
VERTEX
  5
CB5
  8
0
 10
3.0
 20
0.0
 30
34.0
 70
    64
  0
VERTEX
  5
CB6
  8
0
 10
46.0
 20
21.0
 30
13.0
 70
    64
  0
VERTEX
  5
CB7
  8
0
 10
46.0
 20
15.6
 30
13.8
 70
    64
  0
VERTEX
  5
CB8
  8
0
 10
46.0
 20
10.5
 30
15.8
 70
    64
  0
VERTEX
  5
CB9
  8
0
 10
46.0
 20
6.2
 30
19.2
 70
    64
  0
VERTEX
  5
CBA
  8
0
 10
46.0
 20
2.8
 30
23.5
 70
    64
  0
VERTEX
  5
CBB
  8
0
 10
46.0
 20
0.8
 30
28.6
 70
    64
  0
VERTEX
  5
CBC
  8
0
 10
46.0
 20
0.0
 30
34.0
 70
    64
  0
VERTEX
  5
CBD
  8
0
 10
46.0
 20
21.0
 30
14.5
 70
    64
  0
VERTEX
  5
CBE
  8
0
 10
46.0
 20
16.0
 30
15.2
 70
    64
  0
VERTEX
  5
CBF
  8
0
 10
46.0
 20
11.3
 30
17.1
 70
    64
  0
VERTEX
  5
CC0
  8
0
 10
46.0
 20
7.2
 30
20.2
 70
    64
  0
VERTEX
  5
CC1
  8
0
 10
46.0
 20
4.1
 30
24.3
 70
    64
  0
VERTEX
  5
CC2
  8
0
 10
46.0
 20
2.2
 30
29.0
 70
    64
  0
VERTEX
  5
CC3
  8
0
 10
46.0
 20
1.5
 30
34.0
 70
    64
  0
SEQEND
  5
CC4
  8
0
  0
POLYLINE
  5
CC5
  8
0
 66
     1
 10
0.0
 20
0.0
 30
0.0
 70
    16
 71
     2
 72
     7
  0
VERTEX
  5
CC6
  8
0
 10
46.0
 20
1.5
 30
34.0
 70
    64
  0
VERTEX
  5
CC7
  8
0
 10
46.0
 20
2.2
 30
39.0
 70
    64
  0
VERTEX
  5
CC8
  8
0
 10
46.0
 20
4.1
 30
43.7
 70
    64
  0
VERTEX
  5
CC9
  8
0
 10
46.0
 20
7.2
 30
47.8
 70
    64
  0
VERTEX
  5
CCA
  8
0
 10
46.0
 20
11.3
 30
50.9
 70
    64
  0
VERTEX
  5
CCB
  8
0
 10
46.0
 20
16.0
 30
52.8
 70
    64
  0
VERTEX
  5
CCC
  8
0
 10
46.0
 20
21.0
 30
53.5
 70
    64
  0
VERTEX
  5
CCD
  8
0
 10
48.0
 20
1.5
 30
34.0
 70
    64
  0
VERTEX
  5
CCE
  8
0
 10
48.0
 20
2.2
 30
39.0
 70
    64
  0
VERTEX
  5
CCF
  8
0
 10
48.0
 20
4.1
 30
43.7
 70
    64
  0
VERTEX
  5
CD0
  8
0
 10
48.0
 20
7.2
 30
47.8
 70
    64
  0
VERTEX
  5
CD1
  8
0
 10
48.0
 20
11.3
 30
50.9
 70
    64
  0
VERTEX
  5
CD2
  8
0
 10
48.0
 20
16.0
 30
52.8
 70
    64
  0
VERTEX
  5
CD3
  8
0
 10
48.0
 20
21.0
 30
53.5
 70
    64
  0
SEQEND
  5
CD4
  8
0
  0
POLYLINE
  5
CD5
  8
0
 66
     1
 10
0.0
 20
0.0
 30
0.0
 70
    16
 71
     3
 72
     7
  0
VERTEX
  5
CD6
  8
0
 10
15.0
 20
41.0
 30
34.0
 70
    64
  0
VERTEX
  5
CD7
  8
0
 10
15.3
 20
41.0
 30
32.7
 70
    64
  0
VERTEX
  5
CD8
  8
0
 10
15.9
 20
41.0
 30
31.5
 70
    64
  0
VERTEX
  5
CD9
  8
0
 10
17.1
 20
41.0
 30
30.5
 70
    64
  0
VERTEX
  5
CDA
  8
0
 10
18.5
 20
41.0
 30
29.7
 70
    64
  0
VERTEX
  5
CDB
  8
0
 10
20.2
 20
41.0
 30
29.2
 70
    64
  0
VERTEX
  5
CDC
  8
0
 10
22.0
 20
41.0
 30
29.0
 70
    64
  0
VERTEX
  5
CDD
  8
0
 10
15.0
 20
44.0
 30
34.0
 70
    64
  0
VERTEX
  5
CDE
  8
0
 10
15.3
 20
44.0
 30
32.7
 70
    64
  0
VERTEX
  5
CDF
  8
0
 10
15.9
 20
44.0
 30
31.5
 70
    64
  0
VERTEX
  5
CE0
  8
0
 10
17.1
 20
44.0
 30
30.5
 70
    64
  0
VERTEX
  5
CE1
  8
0
 10
18.5
 20
44.0
 30
29.7
 70
    64
  0
VERTEX
  5
CE2
  8
0
 10
20.2
 20
44.0
 30
29.2
 70
    64
  0
VERTEX
  5
CE3
  8
0
 10
22.0
 20
44.0
 30
29.0
 70
    64
  0
VERTEX
  5
CE4
  8
0
 10
22.0
 20
44.0
 30
34.0
 70
    64
  0
VERTEX
  5
CE5
  8
0
 10
22.0
 20
44.0
 30
34.0
 70
    64
  0
VERTEX
  5
CE6
  8
0
 10
22.0
 20
44.0
 30
34.0
 70
    64
  0
VERTEX
  5
CE7
  8
0
 10
22.0
 20
44.0
 30
34.0
 70
    64
  0
VERTEX
  5
CE8
  8
0
 10
22.0
 20
44.0
 30
34.0
 70
    64
  0
VERTEX
  5
CE9
  8
0
 10
22.0
 20
44.0
 30
34.0
 70
    64
  0
VERTEX
  5
CEA
  8
0
 10
22.0
 20
44.0
 30
34.0
 70
    64
  0
SEQEND
  5
CEB
  8
0
  0
POLYLINE
  5
CEC
  8
0
 66
     1
 10
0.0
 20
0.0
 30
0.0
 70
    16
 71
     3
 72
     7
  0
VERTEX
  5
CED
  8
0
 10
29.0
 20
41.0
 30
34.0
 70
    64
  0
VERTEX
  5
CEE
  8
0
 10
28.7
 20
41.0
 30
32.7
 70
    64
  0
VERTEX
  5
CEF
  8
0
 10
28.1
 20
41.0
 30
31.5
 70
    64
  0
VERTEX
  5
CF0
  8
0
 10
26.9
 20
41.0
 30
30.5
 70
    64
  0
VERTEX
  5
CF1
  8
0
 10
25.5
 20
41.0
 30
29.7
 70
    64
  0
VERTEX
  5
CF2
  8
0
 10
23.8
 20
41.0
 30
29.2
 70
    64
  0
VERTEX
  5
CF3
  8
0
 10
22.0
 20
41.0
 30
29.0
 70
    64
  0
VERTEX
  5
CF4
  8
0
 10
29.0
 20
44.0
 30
34.0
 70
    64
  0
VERTEX
  5
CF5
  8
0
 10
28.7
 20
44.0
 30
32.7
 70
    64
  0
VERTEX
  5
CF6
  8
0
 10
28.1
 20
44.0
 30
31.5
 70
    64
  0
VERTEX
  5
CF7
  8
0
 10
26.9
 20
44.0
 30
30.5
 70
    64
  0
VERTEX
  5
CF8
  8
0
 10
25.5
 20
44.0
 30
29.7
 70
    64
  0
VERTEX
  5
CF9
  8
0
 10
23.8
 20
44.0
 30
29.2
 70
    64
  0
VERTEX
  5
CFA
  8
0
 10
22.0
 20
44.0
 30
29.0
 70
    64
  0
VERTEX
  5
CFB
  8
0
 10
22.0
 20
44.0
 30
34.0
 70
    64
  0
VERTEX
  5
CFC
  8
0
 10
22.0
 20
44.0
 30
34.0
 70
    64
  0
VERTEX
  5
CFD
  8
0
 10
22.0
 20
44.0
 30
34.0
 70
    64
  0
VERTEX
  5
CFE
  8
0
 10
22.0
 20
44.0
 30
34.0
 70
    64
  0
VERTEX
  5
CFF
  8
0
 10
22.0
 20
44.0
 30
34.0
 70
    64
  0
VERTEX
  5
D00
  8
0
 10
22.0
 20
44.0
 30
34.0
 70
    64
  0
VERTEX
  5
D01
  8
0
 10
22.0
 20
44.0
 30
34.0
 70
    64
  0
SEQEND
  5
D02
  8
0
  0
POLYLINE
  5
D03
  8
0
 66
     1
 10
0.0
 20
0.0
 30
0.0
 70
    16
 71
     2
 72
     7
  0
VERTEX
  5
D04
  8
0
 10
15.0
 20
1.0
 30
34.0
 70
    64
  0
VERTEX
  5
D05
  8
0
 10
15.3
 20
1.0
 30
32.7
 70
    64
  0
VERTEX
  5
D06
  8
0
 10
15.9
 20
1.0
 30
31.5
 70
    64
  0
VERTEX
  5
D07
  8
0
 10
17.1
 20
1.0
 30
30.5
 70
    64
  0
VERTEX
  5
D08
  8
0
 10
18.5
 20
1.0
 30
29.7
 70
    64
  0
VERTEX
  5
D09
  8
0
 10
20.2
 20
1.0
 30
29.2
 70
    64
  0
VERTEX
  5
D0A
  8
0
 10
22.0
 20
1.0
 30
29.0
 70
    64
  0
VERTEX
  5
D0B
  8
0
 10
15.0
 20
-2.0
 30
34.0
 70
    64
  0
VERTEX
  5
D0C
  8
0
 10
15.3
 20
-2.0
 30
32.7
 70
    64
  0
VERTEX
  5
D0D
  8
0
 10
15.9
 20
-2.0
 30
31.5
 70
    64
  0
VERTEX
  5
D0E
  8
0
 10
17.1
 20
-2.0
 30
30.5
 70
    64
  0
VERTEX
  5
D0F
  8
0
 10
18.5
 20
-2.0
 30
29.7
 70
    64
  0
VERTEX
  5
D10
  8
0
 10
20.2
 20
-2.0
 30
29.2
 70
    64
  0
VERTEX
  5
D11
  8
0
 10
22.0
 20
-2.0
 30
29.0
 70
    64
  0
SEQEND
  5
D12
  8
0
  0
POLYLINE
  5
D13
  8
0
 66
     1
 10
0.0
 20
0.0
 30
0.0
 70
    16
 71
     4
 72
     7
  0
VERTEX
  5
D14
  8
0
 10
15.0
 20
-2.0
 30
34.0
 70
    64
  0
VERTEX
  5
D15
  8
0
 10
15.3
 20
-2.0
 30
32.7
 70
    64
  0
VERTEX
  5
D16
  8
0
 10
15.9
 20
-2.0
 30
31.5
 70
    64
  0
VERTEX
  5
D17
  8
0
 10
17.1
 20
-2.0
 30
30.5
 70
    64
  0
VERTEX
  5
D18
  8
0
 10
18.5
 20
-2.0
 30
29.7
 70
    64
  0
VERTEX
  5
D19
  8
0
 10
20.2
 20
-2.0
 30
29.2
 70
    64
  0
VERTEX
  5
D1A
  8
0
 10
22.0
 20
-2.0
 30
29.0
 70
    64
  0
VERTEX
  5
D1B
  8
0
 10
15.0
 20
-4.0
 30
34.0
 70
    64
  0
VERTEX
  5
D1C
  8
0
 10
15.3
 20
-4.0
 30
32.7
 70
    64
  0
VERTEX
  5
D1D
  8
0
 10
15.9
 20
-4.0
 30
31.5
 70
    64
  0
VERTEX
  5
D1E
  8
0
 10
17.1
 20
-4.0
 30
30.5
 70
    64
  0
VERTEX
  5
D1F
  8
0
 10
18.5
 20
-4.0
 30
29.7
 70
    64
  0
VERTEX
  5
D20
  8
0
 10
20.2
 20
-4.0
 30
29.2
 70
    64
  0
VERTEX
  5
D21
  8
0
 10
22.0
 20
-4.0
 30
29.0
 70
    64
  0
VERTEX
  5
D22
  8
0
 10
19.0
 20
-5.0
 30
34.0
 70
    64
  0
VERTEX
  5
D23
  8
0
 10
19.1
 20
-5.0
 30
33.5
 70
    64
  0
VERTEX
  5
D24
  8
0
 10
19.4
 20
-5.0
 30
33.0
 70
    64
  0
VERTEX
  5
D25
  8
0
 10
19.9
 20
-5.0
 30
32.6
 70
    64
  0
VERTEX
  5
D26
  8
0
 10
20.5
 20
-5.0
 30
32.3
 70
    64
  0
VERTEX
  5
D27
  8
0
 10
21.2
 20
-5.0
 30
32.1
 70
    64
  0
VERTEX
  5
D28
  8
0
 10
22.0
 20
-5.0
 30
32.0
 70
    64
  0
VERTEX
  5
D29
  8
0
 10
22.0
 20
-5.3
 30
34.0
 70
    64
  0
VERTEX
  5
D2A
  8
0
 10
22.0
 20
-5.3
 30
34.0
 70
    64
  0
VERTEX
  5
D2B
  8
0
 10
22.0
 20
-5.3
 30
34.0
 70
    64
  0
VERTEX
  5
D2C
  8
0
 10
22.0
 20
-5.3
 30
34.0
 70
    64
  0
VERTEX
  5
D2D
  8
0
 10
22.0
 20
-5.3
 30
34.0
 70
    64
  0
VERTEX
  5
D2E
  8
0
 10
22.0
 20
-5.3
 30
34.0
 70
    64
  0
VERTEX
  5
D2F
  8
0
 10
22.0
 20
-5.3
 30
34.0
 70
    64
  0
SEQEND
  5
D30
  8
0
  0
POLYLINE
  5
D31
  8
0
 66
     1
 10
0.0
 20
0.0
 30
0.0
 70
    16
 71
     2
 72
     7
  0
VERTEX
  5
D32
  8
0
 10
29.0
 20
1.0
 30
34.0
 70
    64
  0
VERTEX
  5
D33
  8
0
 10
28.7
 20
1.0
 30
32.7
 70
    64
  0
VERTEX
  5
D34
  8
0
 10
28.1
 20
1.0
 30
31.5
 70
    64
  0
VERTEX
  5
D35
  8
0
 10
26.9
 20
1.0
 30
30.5
 70
    64
  0
VERTEX
  5
D36
  8
0
 10
25.5
 20
1.0
 30
29.7
 70
    64
  0
VERTEX
  5
D37
  8
0
 10
23.8
 20
1.0
 30
29.2
 70
    64
  0
VERTEX
  5
D38
  8
0
 10
22.0
 20
1.0
 30
29.0
 70
    64
  0
VERTEX
  5
D39
  8
0
 10
29.0
 20
-2.0
 30
34.0
 70
    64
  0
VERTEX
  5
D3A
  8
0
 10
28.7
 20
-2.0
 30
32.7
 70
    64
  0
VERTEX
  5
D3B
  8
0
 10
28.1
 20
-2.0
 30
31.5
 70
    64
  0
VERTEX
  5
D3C
  8
0
 10
26.9
 20
-2.0
 30
30.5
 70
    64
  0
VERTEX
  5
D3D
  8
0
 10
25.5
 20
-2.0
 30
29.7
 70
    64
  0
VERTEX
  5
D3E
  8
0
 10
23.8
 20
-2.0
 30
29.2
 70
    64
  0
VERTEX
  5
D3F
  8
0
 10
22.0
 20
-2.0
 30
29.0
 70
    64
  0
SEQEND
  5
D40
  8
0
  0
POLYLINE
  5
D41
  8
0
 66
     1
 10
0.0
 20
0.0
 30
0.0
 70
    16
 71
     4
 72
     7
  0
VERTEX
  5
D42
  8
0
 10
29.0
 20
-2.0
 30
34.0
 70
    64
  0
VERTEX
  5
D43
  8
0
 10
28.7
 20
-2.0
 30
32.7
 70
    64
  0
VERTEX
  5
D44
  8
0
 10
28.1
 20
-2.0
 30
31.5
 70
    64
  0
VERTEX
  5
D45
  8
0
 10
26.9
 20
-2.0
 30
30.5
 70
    64
  0
VERTEX
  5
D46
  8
0
 10
25.5
 20
-2.0
 30
29.7
 70
    64
  0
VERTEX
  5
D47
  8
0
 10
23.8
 20
-2.0
 30
29.2
 70
    64
  0
VERTEX
  5
D48
  8
0
 10
22.0
 20
-2.0
 30
29.0
 70
    64
  0
VERTEX
  5
D49
  8
0
 10
29.0
 20
-4.0
 30
34.0
 70
    64
  0
VERTEX
  5
D4A
  8
0
 10
28.7
 20
-4.0
 30
32.7
 70
    64
  0
VERTEX
  5
D4B
  8
0
 10
28.1
 20
-4.0
 30
31.5
 70
    64
  0
VERTEX
  5
D4C
  8
0
 10
26.9
 20
-4.0
 30
30.5
 70
    64
  0
VERTEX
  5
D4D
  8
0
 10
25.5
 20
-4.0
 30
29.7
 70
    64
  0
VERTEX
  5
D4E
  8
0
 10
23.8
 20
-4.0
 30
29.2
 70
    64
  0
VERTEX
  5
D4F
  8
0
 10
22.0
 20
-4.0
 30
29.0
 70
    64
  0
VERTEX
  5
D50
  8
0
 10
25.0
 20
-5.0
 30
34.0
 70
    64
  0
VERTEX
  5
D51
  8
0
 10
24.9
 20
-5.0
 30
33.5
 70
    64
  0
VERTEX
  5
D52
  8
0
 10
24.6
 20
-5.0
 30
33.0
 70
    64
  0
VERTEX
  5
D53
  8
0
 10
24.1
 20
-5.0
 30
32.6
 70
    64
  0
VERTEX
  5
D54
  8
0
 10
23.5
 20
-5.0
 30
32.3
 70
    64
  0
VERTEX
  5
D55
  8
0
 10
22.8
 20
-5.0
 30
32.1
 70
    64
  0
VERTEX
  5
D56
  8
0
 10
22.0
 20
-5.0
 30
32.0
 70
    64
  0
VERTEX
  5
D57
  8
0
 10
22.0
 20
-5.3
 30
34.0
 70
    64
  0
VERTEX
  5
D58
  8
0
 10
22.0
 20
-5.3
 30
34.0
 70
    64
  0
VERTEX
  5
D59
  8
0
 10
22.0
 20
-5.3
 30
34.0
 70
    64
  0
VERTEX
  5
D5A
  8
0
 10
22.0
 20
-5.3
 30
34.0
 70
    64
  0
VERTEX
  5
D5B
  8
0
 10
22.0
 20
-5.3
 30
34.0
 70
    64
  0
VERTEX
  5
D5C
  8
0
 10
22.0
 20
-5.3
 30
34.0
 70
    64
  0
VERTEX
  5
D5D
  8
0
 10
22.0
 20
-5.3
 30
34.0
 70
    64
  0
SEQEND
  5
D5E
  8
0
  0
POLYLINE
  5
D5F
  8
0
 66
     1
 10
0.0
 20
0.0
 30
0.0
 70
    16
 71
     7
 72
     7
  0
VERTEX
  5
D60
  8
0
 10
0.0
 20
21.0
 30
34.0
 70
    64
  0
VERTEX
  5
D61
  8
0
 10
0.0
 20
21.0
 30
34.0
 70
    64
  0
VERTEX
  5
D62
  8
0
 10
0.0
 20
21.0
 30
34.0
 70
    64
  0
VERTEX
  5
D63
  8
0
 10
0.0
 20
21.0
 30
34.0
 70
    64
  0
VERTEX
  5
D64
  8
0
 10
0.0
 20
21.0
 30
34.0
 70
    64
  0
VERTEX
  5
D65
  8
0
 10
0.0
 20
21.0
 30
34.0
 70
    64
  0
VERTEX
  5
D66
  8
0
 10
0.0
 20
21.0
 30
34.0
 70
    64
  0
VERTEX
  5
D67
  8
0
 10
0.0
 20
21.0
 30
42.0
 70
    64
  0
VERTEX
  5
D68
  8
0
 10
0.0
 20
18.9
 30
41.7
 70
    64
  0
VERTEX
  5
D69
  8
0
 10
0.0
 20
17.0
 30
40.9
 70
    64
  0
VERTEX
  5
D6A
  8
0
 10
0.0
 20
15.4
 30
39.6
 70
    64
  0
VERTEX
  5
D6B
  8
0
 10
0.0
 20
14.1
 30
38.0
 70
    64
  0
VERTEX
  5
D6C
  8
0
 10
0.0
 20
13.3
 30
36.1
 70
    64
  0
VERTEX
  5
D6D
  8
0
 10
0.0
 20
13.0
 30
34.0
 70
    64
  0
VERTEX
  5
D6E
  8
0
 10
0.5
 20
21.0
 30
42.0
 70
    64
  0
VERTEX
  5
D6F
  8
0
 10
0.5
 20
18.9
 30
41.7
 70
    64
  0
VERTEX
  5
D70
  8
0
 10
0.5
 20
17.0
 30
40.9
 70
    64
  0
VERTEX
  5
D71
  8
0
 10
0.5
 20
15.4
 30
39.6
 70
    64
  0
VERTEX
  5
D72
  8
0
 10
0.5
 20
14.1
 30
38.0
 70
    64
  0
VERTEX
  5
D73
  8
0
 10
0.5
 20
13.3
 30
36.1
 70
    64
  0
VERTEX
  5
D74
  8
0
 10
0.5
 20
13.0
 30
34.0
 70
    64
  0
VERTEX
  5
D75
  8
0
 10
2.0
 20
21.0
 30
54.0
 70
    64
  0
VERTEX
  5
D76
  8
0
 10
2.0
 20
15.8
 30
53.3
 70
    64
  0
VERTEX
  5
D77
  8
0
 10
2.0
 20
11.0
 30
51.3
 70
    64
  0
VERTEX
  5
D78
  8
0
 10
2.0
 20
6.9
 30
48.1
 70
    64
  0
VERTEX
  5
D79
  8
0
 10
2.0
 20
3.7
 30
44.0
 70
    64
  0
VERTEX
  5
D7A
  8
0
 10
2.0
 20
1.7
 30
39.2
 70
    64
  0
VERTEX
  5
D7B
  8
0
 10
2.0
 20
1.0
 30
34.0
 70
    64
  0
VERTEX
  5
D7C
  8
0
 10
3.0
 20
21.0
 30
55.0
 70
    64
  0
VERTEX
  5
D7D
  8
0
 10
3.0
 20
15.6
 30
54.2
 70
    64
  0
VERTEX
  5
D7E
  8
0
 10
3.0
 20
10.5
 30
52.2
 70
    64
  0
VERTEX
  5
D7F
  8
0
 10
3.0
 20
6.2
 30
48.8
 70
    64
  0
VERTEX
  5
D80
  8
0
 10
3.0
 20
2.8
 30
44.5
 70
    64
  0
VERTEX
  5
D81
  8
0
 10
3.0
 20
0.8
 30
39.4
 70
    64
  0
VERTEX
  5
D82
  8
0
 10
3.0
 20
0.0
 30
34.0
 70
    64
  0
VERTEX
  5
D83
  8
0
 10
46.0
 20
21.0
 30
55.0
 70
    64
  0
VERTEX
  5
D84
  8
0
 10
46.0
 20
15.6
 30
54.2
 70
    64
  0
VERTEX
  5
D85
  8
0
 10
46.0
 20
10.5
 30
52.2
 70
    64
  0
VERTEX
  5
D86
  8
0
 10
46.0
 20
6.2
 30
48.8
 70
    64
  0
VERTEX
  5
D87
  8
0
 10
46.0
 20
2.8
 30
44.5
 70
    64
  0
VERTEX
  5
D88
  8
0
 10
46.0
 20
0.8
 30
39.4
 70
    64
  0
VERTEX
  5
D89
  8
0
 10
46.0
 20
0.0
 30
34.0
 70
    64
  0
VERTEX
  5
D8A
  8
0
 10
46.0
 20
21.0
 30
53.5
 70
    64
  0
VERTEX
  5
D8B
  8
0
 10
46.0
 20
16.0
 30
52.8
 70
    64
  0
VERTEX
  5
D8C
  8
0
 10
46.0
 20
11.3
 30
50.9
 70
    64
  0
VERTEX
  5
D8D
  8
0
 10
46.0
 20
7.2
 30
47.8
 70
    64
  0
VERTEX
  5
D8E
  8
0
 10
46.0
 20
4.1
 30
43.7
 70
    64
  0
VERTEX
  5
D8F
  8
0
 10
46.0
 20
2.2
 30
39.0
 70
    64
  0
VERTEX
  5
D90
  8
0
 10
46.0
 20
1.5
 30
34.0
 70
    64
  0
SEQEND
  5
D91
  8
0
  0
POLYLINE
  5
D92
  8
0
 66
     1
 10
0.0
 20
0.0
 30
0.0
 70
    16
 71
     7
 72
     7
  0
VERTEX
  5
D93
  8
0
 10
0.0
 20
21.0
 30
34.0
 70
    64
  0
VERTEX
  5
D94
  8
0
 10
0.0
 20
21.0
 30
34.0
 70
    64
  0
VERTEX
  5
D95
  8
0
 10
0.0
 20
21.0
 30
34.0
 70
    64
  0
VERTEX
  5
D96
  8
0
 10
0.0
 20
21.0
 30
34.0
 70
    64
  0
VERTEX
  5
D97
  8
0
 10
0.0
 20
21.0
 30
34.0
 70
    64
  0
VERTEX
  5
D98
  8
0
 10
0.0
 20
21.0
 30
34.0
 70
    64
  0
VERTEX
  5
D99
  8
0
 10
0.0
 20
21.0
 30
34.0
 70
    64
  0
VERTEX
  5
D9A
  8
0
 10
0.0
 20
21.0
 30
42.0
 70
    64
  0
VERTEX
  5
D9B
  8
0
 10
0.0
 20
23.1
 30
41.7
 70
    64
  0
VERTEX
  5
D9C
  8
0
 10
0.0
 20
25.0
 30
40.9
 70
    64
  0
VERTEX
  5
D9D
  8
0
 10
0.0
 20
26.6
 30
39.6
 70
    64
  0
VERTEX
  5
D9E
  8
0
 10
0.0
 20
27.9
 30
38.0
 70
    64
  0
VERTEX
  5
D9F
  8
0
 10
0.0
 20
28.7
 30
36.1
 70
    64
  0
VERTEX
  5
DA0
  8
0
 10
0.0
 20
29.0
 30
34.0
 70
    64
  0
VERTEX
  5
DA1
  8
0
 10
0.5
 20
21.0
 30
42.0
 70
    64
  0
VERTEX
  5
DA2
  8
0
 10
0.5
 20
23.1
 30
41.7
 70
    64
  0
VERTEX
  5
DA3
  8
0
 10
0.5
 20
25.0
 30
40.9
 70
    64
  0
VERTEX
  5
DA4
  8
0
 10
0.5
 20
26.6
 30
39.6
 70
    64
  0
VERTEX
  5
DA5
  8
0
 10
0.5
 20
27.9
 30
38.0
 70
    64
  0
VERTEX
  5
DA6
  8
0
 10
0.5
 20
28.7
 30
36.1
 70
    64
  0
VERTEX
  5
DA7
  8
0
 10
0.5
 20
29.0
 30
34.0
 70
    64
  0
VERTEX
  5
DA8
  8
0
 10
2.0
 20
21.0
 30
54.0
 70
    64
  0
VERTEX
  5
DA9
  8
0
 10
2.0
 20
26.2
 30
53.3
 70
    64
  0
VERTEX
  5
DAA
  8
0
 10
2.0
 20
31.0
 30
51.3
 70
    64
  0
VERTEX
  5
DAB
  8
0
 10
2.0
 20
35.1
 30
48.1
 70
    64
  0
VERTEX
  5
DAC
  8
0
 10
2.0
 20
38.3
 30
44.0
 70
    64
  0
VERTEX
  5
DAD
  8
0
 10
2.0
 20
40.3
 30
39.2
 70
    64
  0
VERTEX
  5
DAE
  8
0
 10
2.0
 20
41.0
 30
34.0
 70
    64
  0
VERTEX
  5
DAF
  8
0
 10
3.0
 20
21.0
 30
55.0
 70
    64
  0
VERTEX
  5
DB0
  8
0
 10
3.0
 20
26.4
 30
54.2
 70
    64
  0
VERTEX
  5
DB1
  8
0
 10
3.0
 20
31.5
 30
52.2
 70
    64
  0
VERTEX
  5
DB2
  8
0
 10
3.0
 20
35.8
 30
48.8
 70
    64
  0
VERTEX
  5
DB3
  8
0
 10
3.0
 20
39.2
 30
44.5
 70
    64
  0
VERTEX
  5
DB4
  8
0
 10
3.0
 20
41.2
 30
39.4
 70
    64
  0
VERTEX
  5
DB5
  8
0
 10
3.0
 20
42.0
 30
34.0
 70
    64
  0
VERTEX
  5
DB6
  8
0
 10
46.0
 20
21.0
 30
55.0
 70
    64
  0
VERTEX
  5
DB7
  8
0
 10
46.0
 20
26.4
 30
54.2
 70
    64
  0
VERTEX
  5
DB8
  8
0
 10
46.0
 20
31.5
 30
52.2
 70
    64
  0
VERTEX
  5
DB9
  8
0
 10
46.0
 20
35.8
 30
48.8
 70
    64
  0
VERTEX
  5
DBA
  8
0
 10
46.0
 20
39.2
 30
44.5
 70
    64
  0
VERTEX
  5
DBB
  8
0
 10
46.0
 20
41.2
 30
39.4
 70
    64
  0
VERTEX
  5
DBC
  8
0
 10
46.0
 20
42.0
 30
34.0
 70
    64
  0
VERTEX
  5
DBD
  8
0
 10
46.0
 20
21.0
 30
53.5
 70
    64
  0
VERTEX
  5
DBE
  8
0
 10
46.0
 20
26.0
 30
52.8
 70
    64
  0
VERTEX
  5
DBF
  8
0
 10
46.0
 20
30.7
 30
50.9
 70
    64
  0
VERTEX
  5
DC0
  8
0
 10
46.0
 20
34.8
 30
47.8
 70
    64
  0
VERTEX
  5
DC1
  8
0
 10
46.0
 20
37.9
 30
43.7
 70
    64
  0
VERTEX
  5
DC2
  8
0
 10
46.0
 20
39.8
 30
39.0
 70
    64
  0
VERTEX
  5
DC3
  8
0
 10
46.0
 20
40.5
 30
34.0
 70
    64
  0
SEQEND
  5
DC4
  8
0
  0
POLYLINE
  5
DC5
  8
0
 66
     1
 10
0.0
 20
0.0
 30
0.0
 70
    16
 71
     3
 72
     7
  0
VERTEX
  5
DC6
  8
0
 10
15.0
 20
41.0
 30
34.0
 70
    64
  0
VERTEX
  5
DC7
  8
0
 10
15.3
 20
41.0
 30
35.3
 70
    64
  0
VERTEX
  5
DC8
  8
0
 10
15.9
 20
41.0
 30
36.5
 70
    64
  0
VERTEX
  5
DC9
  8
0
 10
17.1
 20
41.0
 30
37.5
 70
    64
  0
VERTEX
  5
DCA
  8
0
 10
18.5
 20
41.0
 30
38.3
 70
    64
  0
VERTEX
  5
DCB
  8
0
 10
20.2
 20
41.0
 30
38.8
 70
    64
  0
VERTEX
  5
DCC
  8
0
 10
22.0
 20
41.0
 30
39.0
 70
    64
  0
VERTEX
  5
DCD
  8
0
 10
15.0
 20
44.0
 30
34.0
 70
    64
  0
VERTEX
  5
DCE
  8
0
 10
15.3
 20
44.0
 30
35.3
 70
    64
  0
VERTEX
  5
DCF
  8
0
 10
15.9
 20
44.0
 30
36.5
 70
    64
  0
VERTEX
  5
DD0
  8
0
 10
17.1
 20
44.0
 30
37.5
 70
    64
  0
VERTEX
  5
DD1
  8
0
 10
18.5
 20
44.0
 30
38.3
 70
    64
  0
VERTEX
  5
DD2
  8
0
 10
20.2
 20
44.0
 30
38.8
 70
    64
  0
VERTEX
  5
DD3
  8
0
 10
22.0
 20
44.0
 30
39.0
 70
    64
  0
VERTEX
  5
DD4
  8
0
 10
22.0
 20
44.0
 30
34.0
 70
    64
  0
VERTEX
  5
DD5
  8
0
 10
22.0
 20
44.0
 30
34.0
 70
    64
  0
VERTEX
  5
DD6
  8
0
 10
22.0
 20
44.0
 30
34.0
 70
    64
  0
VERTEX
  5
DD7
  8
0
 10
22.0
 20
44.0
 30
34.0
 70
    64
  0
VERTEX
  5
DD8
  8
0
 10
22.0
 20
44.0
 30
34.0
 70
    64
  0
VERTEX
  5
DD9
  8
0
 10
22.0
 20
44.0
 30
34.0
 70
    64
  0
VERTEX
  5
DDA
  8
0
 10
22.0
 20
44.0
 30
34.0
 70
    64
  0
SEQEND
  5
DDB
  8
0
  0
POLYLINE
  5
DDC
  8
0
 66
     1
 10
0.0
 20
0.0
 30
0.0
 70
    16
 71
     3
 72
     7
  0
VERTEX
  5
DDD
  8
0
 10
29.0
 20
41.0
 30
34.0
 70
    64
  0
VERTEX
  5
DDE
  8
0
 10
28.7
 20
41.0
 30
35.3
 70
    64
  0
VERTEX
  5
DDF
  8
0
 10
28.1
 20
41.0
 30
36.5
 70
    64
  0
VERTEX
  5
DE0
  8
0
 10
26.9
 20
41.0
 30
37.5
 70
    64
  0
VERTEX
  5
DE1
  8
0
 10
25.5
 20
41.0
 30
38.3
 70
    64
  0
VERTEX
  5
DE2
  8
0
 10
23.8
 20
41.0
 30
38.8
 70
    64
  0
VERTEX
  5
DE3
  8
0
 10
22.0
 20
41.0
 30
39.0
 70
    64
  0
VERTEX
  5
DE4
  8
0
 10
29.0
 20
44.0
 30
34.0
 70
    64
  0
VERTEX
  5
DE5
  8
0
 10
28.7
 20
44.0
 30
35.3
 70
    64
  0
VERTEX
  5
DE6
  8
0
 10
28.1
 20
44.0
 30
36.5
 70
    64
  0
VERTEX
  5
DE7
  8
0
 10
26.9
 20
44.0
 30
37.5
 70
    64
  0
VERTEX
  5
DE8
  8
0
 10
25.5
 20
44.0
 30
38.3
 70
    64
  0
VERTEX
  5
DE9
  8
0
 10
23.8
 20
44.0
 30
38.8
 70
    64
  0
VERTEX
  5
DEA
  8
0
 10
22.0
 20
44.0
 30
39.0
 70
    64
  0
VERTEX
  5
DEB
  8
0
 10
22.0
 20
44.0
 30
34.0
 70
    64
  0
VERTEX
  5
DEC
  8
0
 10
22.0
 20
44.0
 30
34.0
 70
    64
  0
VERTEX
  5
DED
  8
0
 10
22.0
 20
44.0
 30
34.0
 70
    64
  0
VERTEX
  5
DEE
  8
0
 10
22.0
 20
44.0
 30
34.0
 70
    64
  0
VERTEX
  5
DEF
  8
0
 10
22.0
 20
44.0
 30
34.0
 70
    64
  0
VERTEX
  5
DF0
  8
0
 10
22.0
 20
44.0
 30
34.0
 70
    64
  0
VERTEX
  5
DF1
  8
0
 10
22.0
 20
44.0
 30
34.0
 70
    64
  0
SEQEND
  5
DF2
  8
0
  0
POLYLINE
  5
DF3
  8
0
 66
     1
 10
0.0
 20
0.0
 30
0.0
 70
    16
 71
     4
 72
     7
  0
VERTEX
  5
DF4
  8
0
 10
15.0
 20
-2.0
 30
34.0
 70
    64
  0
VERTEX
  5
DF5
  8
0
 10
15.3
 20
-2.0
 30
35.3
 70
    64
  0
VERTEX
  5
DF6
  8
0
 10
15.9
 20
-2.0
 30
36.5
 70
    64
  0
VERTEX
  5
DF7
  8
0
 10
17.1
 20
-2.0
 30
37.5
 70
    64
  0
VERTEX
  5
DF8
  8
0
 10
18.5
 20
-2.0
 30
38.3
 70
    64
  0
VERTEX
  5
DF9
  8
0
 10
20.2
 20
-2.0
 30
38.8
 70
    64
  0
VERTEX
  5
DFA
  8
0
 10
22.0
 20
-2.0
 30
39.0
 70
    64
  0
VERTEX
  5
DFB
  8
0
 10
15.0
 20
-4.0
 30
34.0
 70
    64
  0
VERTEX
  5
DFC
  8
0
 10
15.3
 20
-4.0
 30
35.3
 70
    64
  0
VERTEX
  5
DFD
  8
0
 10
15.9
 20
-4.0
 30
36.5
 70
    64
  0
VERTEX
  5
DFE
  8
0
 10
17.1
 20
-4.0
 30
37.5
 70
    64
  0
VERTEX
  5
DFF
  8
0
 10
18.5
 20
-4.0
 30
38.3
 70
    64
  0
VERTEX
  5
E00
  8
0
 10
20.2
 20
-4.0
 30
38.8
 70
    64
  0
VERTEX
  5
E01
  8
0
 10
22.0
 20
-4.0
 30
39.0
 70
    64
  0
VERTEX
  5
E02
  8
0
 10
19.0
 20
-5.0
 30
34.0
 70
    64
  0
VERTEX
  5
E03
  8
0
 10
19.1
 20
-5.0
 30
34.5
 70
    64
  0
VERTEX
  5
E04
  8
0
 10
19.4
 20
-5.0
 30
35.0
 70
    64
  0
VERTEX
  5
E05
  8
0
 10
19.9
 20
-5.0
 30
35.4
 70
    64
  0
VERTEX
  5
E06
  8
0
 10
20.5
 20
-5.0
 30
35.7
 70
    64
  0
VERTEX
  5
E07
  8
0
 10
21.2
 20
-5.0
 30
35.9
 70
    64
  0
VERTEX
  5
E08
  8
0
 10
22.0
 20
-5.0
 30
36.0
 70
    64
  0
VERTEX
  5
E09
  8
0
 10
22.0
 20
-5.3
 30
34.0
 70
    64
  0
VERTEX
  5
E0A
  8
0
 10
22.0
 20
-5.3
 30
34.0
 70
    64
  0
VERTEX
  5
E0B
  8
0
 10
22.0
 20
-5.3
 30
34.0
 70
    64
  0
VERTEX
  5
E0C
  8
0
 10
22.0
 20
-5.3
 30
34.0
 70
    64
  0
VERTEX
  5
E0D
  8
0
 10
22.0
 20
-5.3
 30
34.0
 70
    64
  0
VERTEX
  5
E0E
  8
0
 10
22.0
 20
-5.3
 30
34.0
 70
    64
  0
VERTEX
  5
E0F
  8
0
 10
22.0
 20
-5.3
 30
34.0
 70
    64
  0
SEQEND
  5
E10
  8
0
  0
POLYLINE
  5
E11
  8
0
 66
     1
 10
0.0
 20
0.0
 30
0.0
 70
    16
 71
     2
 72
     7
  0
VERTEX
  5
E12
  8
0
 10
29.0
 20
1.0
 30
34.0
 70
    64
  0
VERTEX
  5
E13
  8
0
 10
28.7
 20
1.0
 30
35.3
 70
    64
  0
VERTEX
  5
E14
  8
0
 10
28.1
 20
1.0
 30
36.5
 70
    64
  0
VERTEX
  5
E15
  8
0
 10
26.9
 20
1.0
 30
37.5
 70
    64
  0
VERTEX
  5
E16
  8
0
 10
25.5
 20
1.0
 30
38.3
 70
    64
  0
VERTEX
  5
E17
  8
0
 10
23.8
 20
1.0
 30
38.8
 70
    64
  0
VERTEX
  5
E18
  8
0
 10
22.0
 20
1.0
 30
39.0
 70
    64
  0
VERTEX
  5
E19
  8
0
 10
29.0
 20
-2.0
 30
34.0
 70
    64
  0
VERTEX
  5
E1A
  8
0
 10
28.7
 20
-2.0
 30
35.3
 70
    64
  0
VERTEX
  5
E1B
  8
0
 10
28.1
 20
-2.0
 30
36.5
 70
    64
  0
VERTEX
  5
E1C
  8
0
 10
26.9
 20
-2.0
 30
37.5
 70
    64
  0
VERTEX
  5
E1D
  8
0
 10
25.5
 20
-2.0
 30
38.3
 70
    64
  0
VERTEX
  5
E1E
  8
0
 10
23.8
 20
-2.0
 30
38.8
 70
    64
  0
VERTEX
  5
E1F
  8
0
 10
22.0
 20
-2.0
 30
39.0
 70
    64
  0
SEQEND
  5
E20
  8
0
  0
POLYLINE
  5
E21
  8
0
 66
     1
 10
0.0
 20
0.0
 30
0.0
 70
    16
 71
     2
 72
     7
  0
VERTEX
  5
E22
  8
0
 10
15.0
 20
1.0
 30
34.0
 70
    64
  0
VERTEX
  5
E23
  8
0
 10
15.3
 20
1.0
 30
35.3
 70
    64
  0
VERTEX
  5
E24
  8
0
 10
15.9
 20
1.0
 30
36.5
 70
    64
  0
VERTEX
  5
E25
  8
0
 10
17.1
 20
1.0
 30
37.5
 70
    64
  0
VERTEX
  5
E26
  8
0
 10
18.5
 20
1.0
 30
38.3
 70
    64
  0
VERTEX
  5
E27
  8
0
 10
20.2
 20
1.0
 30
38.8
 70
    64
  0
VERTEX
  5
E28
  8
0
 10
22.0
 20
1.0
 30
39.0
 70
    64
  0
VERTEX
  5
E29
  8
0
 10
15.0
 20
-2.0
 30
34.0
 70
    64
  0
VERTEX
  5
E2A
  8
0
 10
15.3
 20
-2.0
 30
35.3
 70
    64
  0
VERTEX
  5
E2B
  8
0
 10
15.9
 20
-2.0
 30
36.5
 70
    64
  0
VERTEX
  5
E2C
  8
0
 10
17.1
 20
-2.0
 30
37.5
 70
    64
  0
VERTEX
  5
E2D
  8
0
 10
18.5
 20
-2.0
 30
38.3
 70
    64
  0
VERTEX
  5
E2E
  8
0
 10
20.2
 20
-2.0
 30
38.8
 70
    64
  0
VERTEX
  5
E2F
  8
0
 10
22.0
 20
-2.0
 30
39.0
 70
    64
  0
SEQEND
  5
E30
  8
0
  0
POLYLINE
  5
E31
  8
0
 66
     1
 10
0.0
 20
0.0
 30
0.0
 70
    16
 71
     2
 72
     7
  0
VERTEX
  5
E32
  8
0
 10
46.0
 20
40.5
 30
34.0
 70
    64
  0
VERTEX
  5
E33
  8
0
 10
46.0
 20
39.8
 30
29.0
 70
    64
  0
VERTEX
  5
E34
  8
0
 10
46.0
 20
37.9
 30
24.3
 70
    64
  0
VERTEX
  5
E35
  8
0
 10
46.0
 20
34.8
 30
20.2
 70
    64
  0
VERTEX
  5
E36
  8
0
 10
46.0
 20
30.7
 30
17.1
 70
    64
  0
VERTEX
  5
E37
  8
0
 10
46.0
 20
26.0
 30
15.2
 70
    64
  0
VERTEX
  5
E38
  8
0
 10
46.0
 20
21.0
 30
14.5
 70
    64
  0
VERTEX
  5
E39
  8
0
 10
48.0
 20
40.5
 30
34.0
 70
    64
  0
VERTEX
  5
E3A
  8
0
 10
48.0
 20
39.8
 30
29.0
 70
    64
  0
VERTEX
  5
E3B
  8
0
 10
48.0
 20
37.9
 30
24.3
 70
    64
  0
VERTEX
  5
E3C
  8
0
 10
48.0
 20
34.8
 30
20.2
 70
    64
  0
VERTEX
  5
E3D
  8
0
 10
48.0
 20
30.7
 30
17.1
 70
    64
  0
VERTEX
  5
E3E
  8
0
 10
48.0
 20
26.0
 30
15.2
 70
    64
  0
VERTEX
  5
E3F
  8
0
 10
48.0
 20
21.0
 30
14.5
 70
    64
  0
SEQEND
  5
E40
  8
0
  0
POLYLINE
  5
E41
  8
0
 66
     1
 10
0.0
 20
0.0
 30
0.0
 70
    16
 71
     2
 72
     7
  0
VERTEX
  5
E42
  8
0
 10
46.0
 20
40.5
 30
34.0
 70
    64
  0
VERTEX
  5
E43
  8
0
 10
46.0
 20
39.8
 30
39.0
 70
    64
  0
VERTEX
  5
E44
  8
0
 10
46.0
 20
37.9
 30
43.7
 70
    64
  0
VERTEX
  5
E45
  8
0
 10
46.0
 20
34.8
 30
47.8
 70
    64
  0
VERTEX
  5
E46
  8
0
 10
46.0
 20
30.7
 30
50.9
 70
    64
  0
VERTEX
  5
E47
  8
0
 10
46.0
 20
26.0
 30
52.8
 70
    64
  0
VERTEX
  5
E48
  8
0
 10
46.0
 20
21.0
 30
53.5
 70
    64
  0
VERTEX
  5
E49
  8
0
 10
48.0
 20
40.5
 30
34.0
 70
    64
  0
VERTEX
  5
E4A
  8
0
 10
48.0
 20
39.8
 30
39.0
 70
    64
  0
VERTEX
  5
E4B
  8
0
 10
48.0
 20
37.9
 30
43.7
 70
    64
  0
VERTEX
  5
E4C
  8
0
 10
48.0
 20
34.8
 30
47.8
 70
    64
  0
VERTEX
  5
E4D
  8
0
 10
48.0
 20
30.7
 30
50.9
 70
    64
  0
VERTEX
  5
E4E
  8
0
 10
48.0
 20
26.0
 30
52.8
 70
    64
  0
VERTEX
  5
E4F
  8
0
 10
48.0
 20
21.0
 30
53.5
 70
    64
  0
SEQEND
  5
E50
  8
0
  0
POLYLINE
  5
E51
  8
0
 66
     1
 10
0.0
 20
0.0
 30
0.0
 70
    16
 71
     4
 72
     7
  0
VERTEX
  5
E52
  8
0
 10
29.0
 20
-2.0
 30
34.0
 70
    64
  0
VERTEX
  5
E53
  8
0
 10
28.7
 20
-2.0
 30
35.3
 70
    64
  0
VERTEX
  5
E54
  8
0
 10
28.1
 20
-2.0
 30
36.5
 70
    64
  0
VERTEX
  5
E55
  8
0
 10
26.9
 20
-2.0
 30
37.5
 70
    64
  0
VERTEX
  5
E56
  8
0
 10
25.5
 20
-2.0
 30
38.3
 70
    64
  0
VERTEX
  5
E57
  8
0
 10
23.8
 20
-2.0
 30
38.8
 70
    64
  0
VERTEX
  5
E58
  8
0
 10
22.0
 20
-2.0
 30
39.0
 70
    64
  0
VERTEX
  5
E59
  8
0
 10
29.0
 20
-4.0
 30
34.0
 70
    64
  0
VERTEX
  5
E5A
  8
0
 10
28.7
 20
-4.0
 30
35.3
 70
    64
  0
VERTEX
  5
E5B
  8
0
 10
28.1
 20
-4.0
 30
36.5
 70
    64
  0
VERTEX
  5
E5C
  8
0
 10
26.9
 20
-4.0
 30
37.5
 70
    64
  0
VERTEX
  5
E5D
  8
0
 10
25.5
 20
-4.0
 30
38.3
 70
    64
  0
VERTEX
  5
E5E
  8
0
 10
23.8
 20
-4.0
 30
38.8
 70
    64
  0
VERTEX
  5
E5F
  8
0
 10
22.0
 20
-4.0
 30
39.0
 70
    64
  0
VERTEX
  5
E60
  8
0
 10
25.0
 20
-5.0
 30
34.0
 70
    64
  0
VERTEX
  5
E61
  8
0
 10
24.9
 20
-5.0
 30
34.5
 70
    64
  0
VERTEX
  5
E62
  8
0
 10
24.6
 20
-5.0
 30
35.0
 70
    64
  0
VERTEX
  5
E63
  8
0
 10
24.1
 20
-5.0
 30
35.4
 70
    64
  0
VERTEX
  5
E64
  8
0
 10
23.5
 20
-5.0
 30
35.7
 70
    64
  0
VERTEX
  5
E65
  8
0
 10
22.8
 20
-5.0
 30
35.9
 70
    64
  0
VERTEX
  5
E66
  8
0
 10
22.0
 20
-5.0
 30
36.0
 70
    64
  0
VERTEX
  5
E67
  8
0
 10
22.0
 20
-5.3
 30
34.0
 70
    64
  0
VERTEX
  5
E68
  8
0
 10
22.0
 20
-5.3
 30
34.0
 70
    64
  0
VERTEX
  5
E69
  8
0
 10
22.0
 20
-5.3
 30
34.0
 70
    64
  0
VERTEX
  5
E6A
  8
0
 10
22.0
 20
-5.3
 30
34.0
 70
    64
  0
VERTEX
  5
E6B
  8
0
 10
22.0
 20
-5.3
 30
34.0
 70
    64
  0
VERTEX
  5
E6C
  8
0
 10
22.0
 20
-5.3
 30
34.0
 70
    64
  0
VERTEX
  5
E6D
  8
0
 10
22.0
 20
-5.3
 30
34.0
 70
    64
  0
SEQEND
  5
E6E
  8
0
  0
POLYLINE
  5
E6F
  8
0
 66
     1
 10
0.0
 20
0.0
 30
0.0
 70
    16
 71
     3
 72
     7
  0
VERTEX
  5
E70
  8
0
 10
140.0
 20
21.0
 30
12.0
 70
    64
  0
VERTEX
  5
E71
  8
0
 10
140.0
 20
21.0
 30
12.0
 70
    64
  0
VERTEX
  5
E72
  8
0
 10
140.0
 20
21.0
 30
12.0
 70
    64
  0
VERTEX
  5
E73
  8
0
 10
140.0
 20
21.0
 30
12.0
 70
    64
  0
VERTEX
  5
E74
  8
0
 10
140.0
 20
21.0
 30
12.0
 70
    64
  0
VERTEX
  5
E75
  8
0
 10
140.0
 20
21.0
 30
12.0
 70
    64
  0
VERTEX
  5
E76
  8
0
 10
140.0
 20
21.0
 30
12.0
 70
    64
  0
VERTEX
  5
E77
  8
0
 10
140.0
 20
11.0
 30
12.0
 70
    64
  0
VERTEX
  5
E78
  8
0
 10
137.4
 20
11.4
 30
12.0
 70
    64
  0
VERTEX
  5
E79
  8
0
 10
135.0
 20
12.3
 30
12.0
 70
    64
  0
VERTEX
  5
E7A
  8
0
 10
132.9
 20
13.9
 30
12.0
 70
    64
  0
VERTEX
  5
E7B
  8
0
 10
131.3
 20
16.0
 30
12.0
 70
    64
  0
VERTEX
  5
E7C
  8
0
 10
130.4
 20
18.4
 30
12.0
 70
    64
  0
VERTEX
  5
E7D
  8
0
 10
130.0
 20
21.0
 30
12.0
 70
    64
  0
VERTEX
  5
E7E
  8
0
 10
140.0
 20
11.0
 30
16.0
 70
    64
  0
VERTEX
  5
E7F
  8
0
 10
137.4
 20
11.4
 30
16.0
 70
    64
  0
VERTEX
  5
E80
  8
0
 10
135.0
 20
12.3
 30
16.0
 70
    64
  0
VERTEX
  5
E81
  8
0
 10
132.9
 20
13.9
 30
16.0
 70
    64
  0
VERTEX
  5
E82
  8
0
 10
131.3
 20
16.0
 30
16.0
 70
    64
  0
VERTEX
  5
E83
  8
0
 10
130.4
 20
18.4
 30
16.0
 70
    64
  0
VERTEX
  5
E84
  8
0
 10
130.0
 20
21.0
 30
16.0
 70
    64
  0
SEQEND
  5
E85
  8
0
  0
POLYLINE
  5
E86
  8
0
 66
     1
 10
0.0
 20
0.0
 30
0.0
 70
    16
 71
     3
 72
     7
  0
VERTEX
  5
E87
  8
0
 10
140.0
 20
21.0
 30
12.0
 70
    64
  0
VERTEX
  5
E88
  8
0
 10
140.0
 20
21.0
 30
12.0
 70
    64
  0
VERTEX
  5
E89
  8
0
 10
140.0
 20
21.0
 30
12.0
 70
    64
  0
VERTEX
  5
E8A
  8
0
 10
140.0
 20
21.0
 30
12.0
 70
    64
  0
VERTEX
  5
E8B
  8
0
 10
140.0
 20
21.0
 30
12.0
 70
    64
  0
VERTEX
  5
E8C
  8
0
 10
140.0
 20
21.0
 30
12.0
 70
    64
  0
VERTEX
  5
E8D
  8
0
 10
140.0
 20
21.0
 30
12.0
 70
    64
  0
VERTEX
  5
E8E
  8
0
 10
140.0
 20
31.0
 30
12.0
 70
    64
  0
VERTEX
  5
E8F
  8
0
 10
137.4
 20
30.6
 30
12.0
 70
    64
  0
VERTEX
  5
E90
  8
0
 10
135.0
 20
29.7
 30
12.0
 70
    64
  0
VERTEX
  5
E91
  8
0
 10
132.9
 20
28.1
 30
12.0
 70
    64
  0
VERTEX
  5
E92
  8
0
 10
131.3
 20
26.0
 30
12.0
 70
    64
  0
VERTEX
  5
E93
  8
0
 10
130.4
 20
23.6
 30
12.0
 70
    64
  0
VERTEX
  5
E94
  8
0
 10
130.0
 20
21.0
 30
12.0
 70
    64
  0
VERTEX
  5
E95
  8
0
 10
140.0
 20
31.0
 30
16.0
 70
    64
  0
VERTEX
  5
E96
  8
0
 10
137.4
 20
30.6
 30
16.0
 70
    64
  0
VERTEX
  5
E97
  8
0
 10
135.0
 20
29.7
 30
16.0
 70
    64
  0
VERTEX
  5
E98
  8
0
 10
132.9
 20
28.1
 30
16.0
 70
    64
  0
VERTEX
  5
E99
  8
0
 10
131.3
 20
26.0
 30
16.0
 70
    64
  0
VERTEX
  5
E9A
  8
0
 10
130.4
 20
23.6
 30
16.0
 70
    64
  0
VERTEX
  5
E9B
  8
0
 10
130.0
 20
21.0
 30
16.0
 70
    64
  0
SEQEND
  5
E9C
  8
0
  0
POLYLINE
  5
E9D
  8
0
 66
     1
 10
0.0
 20
0.0
 30
0.0
 70
    16
 71
     2
 72
     7
  0
VERTEX
  5
E9E
  8
0
 10
225.0
 20
58.0
 30
34.0
 70
    64
  0
VERTEX
  5
E9F
  8
0
 10
224.64706
 20
58.0
 30
36.5882
 70
    64
  0
VERTEX
  5
EA0
  8
0
 10
223.64706
 20
58.0
 30
38.9706
 70
    64
  0
VERTEX
  5
EA1
  8
0
 10
222.05882
 20
58.0
 30
41.0588
 70
    64
  0
VERTEX
  5
EA2
  8
0
 10
219.97059
 20
58.0
 30
42.6471
 70
    64
  0
VERTEX
  5
EA3
  8
0
 10
217.5882
 20
58.0
 30
43.6471
 70
    64
  0
VERTEX
  5
EA4
  8
0
 10
215.0
 20
58.0
 30
44.0
 70
    64
  0
VERTEX
  5
EA5
  8
0
 10
229.0
 20
58.0
 30
34.0
 70
    64
  0
VERTEX
  5
EA6
  8
0
 10
228.5059
 20
58.0
 30
37.6235
 70
    64
  0
VERTEX
  5
EA7
  8
0
 10
227.1059
 20
58.0
 30
40.9588
 70
    64
  0
VERTEX
  5
EA8
  8
0
 10
224.8823
 20
58.0
 30
43.8824
 70
    64
  0
VERTEX
  5
EA9
  8
0
 10
221.9588
 20
58.0
 30
46.1059
 70
    64
  0
VERTEX
  5
EAA
  8
0
 10
218.6235
 20
58.0
 30
47.5059
 70
    64
  0
VERTEX
  5
EAB
  8
0
 10
215.0
 20
58.0
 30
48.0
 70
    64
  0
SEQEND
  5
EAC
  8
0
  0
POLYLINE
  5
EAD
  8
0
 66
     1
 10
0.0
 20
0.0
 30
0.0
 70
    16
 71
     2
 72
     7
  0
VERTEX
  5
EAE
  8
0
 10
247.0
 20
76.0
 30
34.0
 70
    64
  0
VERTEX
  5
EAF
  8
0
 10
245.8
 20
76.0
 30
42.3
 70
    64
  0
VERTEX
  5
EB0
  8
0
 10
242.7
 20
76.0
 30
49.9
 70
    64
  0
VERTEX
  5
EB1
  8
0
 10
237.6
 20
76.0
 30
56.6
 70
    64
  0
VERTEX
  5
EB2
  8
0
 10
230.9
 20
76.0
 30
61.7
 70
    64
  0
VERTEX
  5
EB3
  8
0
 10
223.3
 20
76.0
 30
64.8
 70
    64
  0
VERTEX
  5
EB4
  8
0
 10
215.0
 20
76.0
 30
66.0
 70
    64
  0
VERTEX
  5
EB5
  8
0
 10
215.0
 20
76.0
 30
34.0
 70
    64
  0
VERTEX
  5
EB6
  8
0
 10
215.0
 20
76.0
 30
34.0
 70
    64
  0
VERTEX
  5
EB7
  8
0
 10
215.0
 20
76.0
 30
34.0
 70
    64
  0
VERTEX
  5
EB8
  8
0
 10
215.0
 20
76.0
 30
34.0
 70
    64
  0
VERTEX
  5
EB9
  8
0
 10
215.0
 20
76.0
 30
34.0
 70
    64
  0
VERTEX
  5
EBA
  8
0
 10
215.0
 20
76.0
 30
34.0
 70
    64
  0
VERTEX
  5
EBB
  8
0
 10
215.0
 20
76.0
 30
34.0
 70
    64
  0
SEQEND
  5
EBC
  8
0
  0
POLYLINE
  5
EBD
  8
0
 66
     1
 10
0.0
 20
0.0
 30
0.0
 70
    16
 71
     3
 72
     7
  0
VERTEX
  5
EBE
  8
0
 10
249.0
 20
102.0
 30
34.0
 70
    64
  0
VERTEX
  5
EBF
  8
0
 10
247.8
 20
102.0
 30
42.8
 70
    64
  0
VERTEX
  5
EC0
  8
0
 10
244.4
 20
102.0
 30
50.9
 70
    64
  0
VERTEX
  5
EC1
  8
0
 10
239.0
 20
102.0
 30
58.0
 70
    64
  0
VERTEX
  5
EC2
  8
0
 10
231.9
 20
102.0
 30
63.4
 70
    64
  0
VERTEX
  5
EC3
  8
0
 10
223.8
 20
102.0
 30
66.8
 70
    64
  0
VERTEX
  5
EC4
  8
0
 10
215.0
 20
102.0
 30
68.0
 70
    64
  0
VERTEX
  5
EC5
  8
0
 10
249.0
 20
78.0
 30
34.0
 70
    64
  0
VERTEX
  5
EC6
  8
0
 10
247.8
 20
78.0
 30
42.8
 70
    64
  0
VERTEX
  5
EC7
  8
0
 10
244.4
 20
78.0
 30
50.9
 70
    64
  0
VERTEX
  5
EC8
  8
0
 10
239.0
 20
78.0
 30
58.0
 70
    64
  0
VERTEX
  5
EC9
  8
0
 10
231.9
 20
78.0
 30
63.4
 70
    64
  0
VERTEX
  5
ECA
  8
0
 10
223.8
 20
78.0
 30
66.8
 70
    64
  0
VERTEX
  5
ECB
  8
0
 10
215.0
 20
78.0
 30
68.0
 70
    64
  0
VERTEX
  5
ECC
  8
0
 10
247.0
 20
76.0
 30
34.0
 70
    64
  0
VERTEX
  5
ECD
  8
0
 10
245.8
 20
76.0
 30
42.3
 70
    64
  0
VERTEX
  5
ECE
  8
0
 10
242.7
 20
76.0
 30
49.9
 70
    64
  0
VERTEX
  5
ECF
  8
0
 10
237.6
 20
76.0
 30
56.6
 70
    64
  0
VERTEX
  5
ED0
  8
0
 10
230.9
 20
76.0
 30
61.7
 70
    64
  0
VERTEX
  5
ED1
  8
0
 10
223.3
 20
76.0
 30
64.8
 70
    64
  0
VERTEX
  5
ED2
  8
0
 10
215.0
 20
76.0
 30
66.0
 70
    64
  0
SEQEND
  5
ED3
  8
0
  0
POLYLINE
  5
ED4
  8
0
 66
     1
 10
0.0
 20
0.0
 30
0.0
 70
    16
 71
     2
 72
     7
  0
VERTEX
  5
ED5
  8
0
 10
234.0
 20
40.5
 30
34.0
 70
    64
  0
VERTEX
  5
ED6
  8
0
 10
234.0
 20
39.8
 30
39.0
 70
    64
  0
VERTEX
  5
ED7
  8
0
 10
234.0
 20
37.9
 30
43.7
 70
    64
  0
VERTEX
  5
ED8
  8
0
 10
234.0
 20
34.8
 30
47.8
 70
    64
  0
VERTEX
  5
ED9
  8
0
 10
234.0
 20
30.7
 30
50.9
 70
    64
  0
VERTEX
  5
EDA
  8
0
 10
234.0
 20
26.0
 30
52.8
 70
    64
  0
VERTEX
  5
EDB
  8
0
 10
234.0
 20
21.0
 30
53.5
 70
    64
  0
VERTEX
  5
EDC
  8
0
 10
232.0
 20
40.5
 30
34.0
 70
    64
  0
VERTEX
  5
EDD
  8
0
 10
232.0
 20
39.8
 30
39.0
 70
    64
  0
VERTEX
  5
EDE
  8
0
 10
232.0
 20
37.9
 30
43.7
 70
    64
  0
VERTEX
  5
EDF
  8
0
 10
232.0
 20
34.8
 30
47.8
 70
    64
  0
VERTEX
  5
EE0
  8
0
 10
232.0
 20
30.7
 30
50.9
 70
    64
  0
VERTEX
  5
EE1
  8
0
 10
232.0
 20
26.0
 30
52.8
 70
    64
  0
VERTEX
  5
EE2
  8
0
 10
232.0
 20
21.0
 30
53.5
 70
    64
  0
SEQEND
  5
EE3
  8
0
  0
POLYLINE
  5
EE4
  8
0
 66
     1
 10
0.0
 20
0.0
 30
0.0
 70
    16
 71
     2
 72
     7
  0
VERTEX
  5
EE5
  8
0
 10
234.0
 20
1.5
 30
34.0
 70
    64
  0
VERTEX
  5
EE6
  8
0
 10
234.0
 20
2.2
 30
39.0
 70
    64
  0
VERTEX
  5
EE7
  8
0
 10
234.0
 20
4.1
 30
43.7
 70
    64
  0
VERTEX
  5
EE8
  8
0
 10
234.0
 20
7.2
 30
47.8
 70
    64
  0
VERTEX
  5
EE9
  8
0
 10
234.0
 20
11.3
 30
50.9
 70
    64
  0
VERTEX
  5
EEA
  8
0
 10
234.0
 20
16.0
 30
52.8
 70
    64
  0
VERTEX
  5
EEB
  8
0
 10
234.0
 20
21.0
 30
53.5
 70
    64
  0
VERTEX
  5
EEC
  8
0
 10
232.0
 20
1.5
 30
34.0
 70
    64
  0
VERTEX
  5
EED
  8
0
 10
232.0
 20
2.2
 30
39.0
 70
    64
  0
VERTEX
  5
EEE
  8
0
 10
232.0
 20
4.1
 30
43.7
 70
    64
  0
VERTEX
  5
EEF
  8
0
 10
232.0
 20
7.2
 30
47.8
 70
    64
  0
VERTEX
  5
EF0
  8
0
 10
232.0
 20
11.3
 30
50.9
 70
    64
  0
VERTEX
  5
EF1
  8
0
 10
232.0
 20
16.0
 30
52.8
 70
    64
  0
VERTEX
  5
EF2
  8
0
 10
232.0
 20
21.0
 30
53.5
 70
    64
  0
SEQEND
  5
EF3
  8
0
  0
POLYLINE
  5
EF4
  8
0
 66
     1
 10
0.0
 20
0.0
 30
0.0
 70
    16
 71
     7
 72
     7
  0
VERTEX
  5
EF5
  8
0
 10
280.0
 20
21.0
 30
34.0
 70
    64
  0
VERTEX
  5
EF6
  8
0
 10
280.0
 20
21.0
 30
34.0
 70
    64
  0
VERTEX
  5
EF7
  8
0
 10
280.0
 20
21.0
 30
34.0
 70
    64
  0
VERTEX
  5
EF8
  8
0
 10
280.0
 20
21.0
 30
34.0
 70
    64
  0
VERTEX
  5
EF9
  8
0
 10
280.0
 20
21.0
 30
34.0
 70
    64
  0
VERTEX
  5
EFA
  8
0
 10
280.0
 20
21.0
 30
34.0
 70
    64
  0
VERTEX
  5
EFB
  8
0
 10
280.0
 20
21.0
 30
34.0
 70
    64
  0
VERTEX
  5
EFC
  8
0
 10
280.0
 20
21.0
 30
26.0
 70
    64
  0
VERTEX
  5
EFD
  8
0
 10
280.0
 20
18.9
 30
26.3
 70
    64
  0
VERTEX
  5
EFE
  8
0
 10
280.0
 20
17.0
 30
27.1
 70
    64
  0
VERTEX
  5
EFF
  8
0
 10
280.0
 20
15.4
 30
28.4
 70
    64
  0
VERTEX
  5
F00
  8
0
 10
280.0
 20
14.1
 30
30.0
 70
    64
  0
VERTEX
  5
F01
  8
0
 10
280.0
 20
13.3
 30
31.9
 70
    64
  0
VERTEX
  5
F02
  8
0
 10
280.0
 20
13.0
 30
34.0
 70
    64
  0
VERTEX
  5
F03
  8
0
 10
279.5
 20
21.0
 30
26.0
 70
    64
  0
VERTEX
  5
F04
  8
0
 10
279.5
 20
18.9
 30
26.3
 70
    64
  0
VERTEX
  5
F05
  8
0
 10
279.5
 20
17.0
 30
27.1
 70
    64
  0
VERTEX
  5
F06
  8
0
 10
279.5
 20
15.4
 30
28.4
 70
    64
  0
VERTEX
  5
F07
  8
0
 10
279.5
 20
14.1
 30
30.0
 70
    64
  0
VERTEX
  5
F08
  8
0
 10
279.5
 20
13.3
 30
31.9
 70
    64
  0
VERTEX
  5
F09
  8
0
 10
279.5
 20
13.0
 30
34.0
 70
    64
  0
VERTEX
  5
F0A
  8
0
 10
278.0
 20
21.0
 30
14.0
 70
    64
  0
VERTEX
  5
F0B
  8
0
 10
278.0
 20
15.8
 30
14.7
 70
    64
  0
VERTEX
  5
F0C
  8
0
 10
278.0
 20
11.0
 30
16.7
 70
    64
  0
VERTEX
  5
F0D
  8
0
 10
278.0
 20
6.9
 30
19.9
 70
    64
  0
VERTEX
  5
F0E
  8
0
 10
278.0
 20
3.7
 30
24.0
 70
    64
  0
VERTEX
  5
F0F
  8
0
 10
278.0
 20
1.7
 30
28.8
 70
    64
  0
VERTEX
  5
F10
  8
0
 10
278.0
 20
1.0
 30
34.0
 70
    64
  0
VERTEX
  5
F11
  8
0
 10
277.0
 20
21.0
 30
13.0
 70
    64
  0
VERTEX
  5
F12
  8
0
 10
277.0
 20
15.6
 30
13.8
 70
    64
  0
VERTEX
  5
F13
  8
0
 10
277.0
 20
10.5
 30
15.8
 70
    64
  0
VERTEX
  5
F14
  8
0
 10
277.0
 20
6.2
 30
19.2
 70
    64
  0
VERTEX
  5
F15
  8
0
 10
277.0
 20
2.8
 30
23.5
 70
    64
  0
VERTEX
  5
F16
  8
0
 10
277.0
 20
0.8
 30
28.6
 70
    64
  0
VERTEX
  5
F17
  8
0
 10
277.0
 20
0.0
 30
34.0
 70
    64
  0
VERTEX
  5
F18
  8
0
 10
234.0
 20
21.0
 30
13.0
 70
    64
  0
VERTEX
  5
F19
  8
0
 10
234.0
 20
15.6
 30
13.8
 70
    64
  0
VERTEX
  5
F1A
  8
0
 10
234.0
 20
10.5
 30
15.8
 70
    64
  0
VERTEX
  5
F1B
  8
0
 10
234.0
 20
6.2
 30
19.2
 70
    64
  0
VERTEX
  5
F1C
  8
0
 10
234.0
 20
2.8
 30
23.5
 70
    64
  0
VERTEX
  5
F1D
  8
0
 10
234.0
 20
0.8
 30
28.6
 70
    64
  0
VERTEX
  5
F1E
  8
0
 10
234.0
 20
0.0
 30
34.0
 70
    64
  0
VERTEX
  5
F1F
  8
0
 10
234.0
 20
21.0
 30
14.5
 70
    64
  0
VERTEX
  5
F20
  8
0
 10
234.0
 20
16.0
 30
15.2
 70
    64
  0
VERTEX
  5
F21
  8
0
 10
234.0
 20
11.3
 30
17.1
 70
    64
  0
VERTEX
  5
F22
  8
0
 10
234.0
 20
7.2
 30
20.2
 70
    64
  0
VERTEX
  5
F23
  8
0
 10
234.0
 20
4.1
 30
24.3
 70
    64
  0
VERTEX
  5
F24
  8
0
 10
234.0
 20
2.2
 30
29.0
 70
    64
  0
VERTEX
  5
F25
  8
0
 10
234.0
 20
1.5
 30
34.0
 70
    64
  0
SEQEND
  5
F26
  8
0
  0
POLYLINE
  5
F27
  8
0
 66
     1
 10
0.0
 20
0.0
 30
0.0
 70
    16
 71
     7
 72
     7
  0
VERTEX
  5
F28
  8
0
 10
280.0
 20
21.0
 30
34.0
 70
    64
  0
VERTEX
  5
F29
  8
0
 10
280.0
 20
21.0
 30
34.0
 70
    64
  0
VERTEX
  5
F2A
  8
0
 10
280.0
 20
21.0
 30
34.0
 70
    64
  0
VERTEX
  5
F2B
  8
0
 10
280.0
 20
21.0
 30
34.0
 70
    64
  0
VERTEX
  5
F2C
  8
0
 10
280.0
 20
21.0
 30
34.0
 70
    64
  0
VERTEX
  5
F2D
  8
0
 10
280.0
 20
21.0
 30
34.0
 70
    64
  0
VERTEX
  5
F2E
  8
0
 10
280.0
 20
21.0
 30
34.0
 70
    64
  0
VERTEX
  5
F2F
  8
0
 10
280.0
 20
21.0
 30
42.0
 70
    64
  0
VERTEX
  5
F30
  8
0
 10
280.0
 20
18.9
 30
41.7
 70
    64
  0
VERTEX
  5
F31
  8
0
 10
280.0
 20
17.0
 30
40.9
 70
    64
  0
VERTEX
  5
F32
  8
0
 10
280.0
 20
15.4
 30
39.6
 70
    64
  0
VERTEX
  5
F33
  8
0
 10
280.0
 20
14.1
 30
38.0
 70
    64
  0
VERTEX
  5
F34
  8
0
 10
280.0
 20
13.3
 30
36.1
 70
    64
  0
VERTEX
  5
F35
  8
0
 10
280.0
 20
13.0
 30
34.0
 70
    64
  0
VERTEX
  5
F36
  8
0
 10
279.5
 20
21.0
 30
42.0
 70
    64
  0
VERTEX
  5
F37
  8
0
 10
279.5
 20
18.9
 30
41.7
 70
    64
  0
VERTEX
  5
F38
  8
0
 10
279.5
 20
17.0
 30
40.9
 70
    64
  0
VERTEX
  5
F39
  8
0
 10
279.5
 20
15.4
 30
39.6
 70
    64
  0
VERTEX
  5
F3A
  8
0
 10
279.5
 20
14.1
 30
38.0
 70
    64
  0
VERTEX
  5
F3B
  8
0
 10
279.5
 20
13.3
 30
36.1
 70
    64
  0
VERTEX
  5
F3C
  8
0
 10
279.5
 20
13.0
 30
34.0
 70
    64
  0
VERTEX
  5
F3D
  8
0
 10
278.0
 20
21.0
 30
54.0
 70
    64
  0
VERTEX
  5
F3E
  8
0
 10
278.0
 20
15.8
 30
53.3
 70
    64
  0
VERTEX
  5
F3F
  8
0
 10
278.0
 20
11.0
 30
51.3
 70
    64
  0
VERTEX
  5
F40
  8
0
 10
278.0
 20
6.9
 30
48.1
 70
    64
  0
VERTEX
  5
F41
  8
0
 10
278.0
 20
3.7
 30
44.0
 70
    64
  0
VERTEX
  5
F42
  8
0
 10
278.0
 20
1.7
 30
39.2
 70
    64
  0
VERTEX
  5
F43
  8
0
 10
278.0
 20
1.0
 30
34.0
 70
    64
  0
VERTEX
  5
F44
  8
0
 10
277.0
 20
21.0
 30
55.0
 70
    64
  0
VERTEX
  5
F45
  8
0
 10
277.0
 20
15.6
 30
54.2
 70
    64
  0
VERTEX
  5
F46
  8
0
 10
277.0
 20
10.5
 30
52.2
 70
    64
  0
VERTEX
  5
F47
  8
0
 10
277.0
 20
6.2
 30
48.8
 70
    64
  0
VERTEX
  5
F48
  8
0
 10
277.0
 20
2.8
 30
44.5
 70
    64
  0
VERTEX
  5
F49
  8
0
 10
277.0
 20
0.8
 30
39.4
 70
    64
  0
VERTEX
  5
F4A
  8
0
 10
277.0
 20
0.0
 30
34.0
 70
    64
  0
VERTEX
  5
F4B
  8
0
 10
234.0
 20
21.0
 30
55.0
 70
    64
  0
VERTEX
  5
F4C
  8
0
 10
234.0
 20
15.6
 30
54.2
 70
    64
  0
VERTEX
  5
F4D
  8
0
 10
234.0
 20
10.5
 30
52.2
 70
    64
  0
VERTEX
  5
F4E
  8
0
 10
234.0
 20
6.2
 30
48.8
 70
    64
  0
VERTEX
  5
F4F
  8
0
 10
234.0
 20
2.8
 30
44.5
 70
    64
  0
VERTEX
  5
F50
  8
0
 10
234.0
 20
0.8
 30
39.4
 70
    64
  0
VERTEX
  5
F51
  8
0
 10
234.0
 20
0.0
 30
34.0
 70
    64
  0
VERTEX
  5
F52
  8
0
 10
234.0
 20
21.0
 30
53.5
 70
    64
  0
VERTEX
  5
F53
  8
0
 10
234.0
 20
16.0
 30
52.8
 70
    64
  0
VERTEX
  5
F54
  8
0
 10
234.0
 20
11.3
 30
50.9
 70
    64
  0
VERTEX
  5
F55
  8
0
 10
234.0
 20
7.2
 30
47.8
 70
    64
  0
VERTEX
  5
F56
  8
0
 10
234.0
 20
4.1
 30
43.7
 70
    64
  0
VERTEX
  5
F57
  8
0
 10
234.0
 20
2.2
 30
39.0
 70
    64
  0
VERTEX
  5
F58
  8
0
 10
234.0
 20
1.5
 30
34.0
 70
    64
  0
SEQEND
  5
F59
  8
0
  0
POLYLINE
  5
F5A
  8
0
 66
     1
 10
0.0
 20
0.0
 30
0.0
 70
    16
 71
     2
 72
     7
  0
VERTEX
  5
F5B
  8
0
 10
183.0
 20
76.0
 30
34.0
 70
    64
  0
VERTEX
  5
F5C
  8
0
 10
184.2
 20
76.0
 30
42.3
 70
    64
  0
VERTEX
  5
F5D
  8
0
 10
187.3
 20
76.0
 30
49.9
 70
    64
  0
VERTEX
  5
F5E
  8
0
 10
192.4
 20
76.0
 30
56.6
 70
    64
  0
VERTEX
  5
F5F
  8
0
 10
199.1
 20
76.0
 30
61.7
 70
    64
  0
VERTEX
  5
F60
  8
0
 10
206.7
 20
76.0
 30
64.8
 70
    64
  0
VERTEX
  5
F61
  8
0
 10
215.0
 20
76.0
 30
66.0
 70
    64
  0
VERTEX
  5
F62
  8
0
 10
215.0
 20
76.0
 30
34.0
 70
    64
  0
VERTEX
  5
F63
  8
0
 10
215.0
 20
76.0
 30
34.0
 70
    64
  0
VERTEX
  5
F64
  8
0
 10
215.0
 20
76.0
 30
34.0
 70
    64
  0
VERTEX
  5
F65
  8
0
 10
215.0
 20
76.0
 30
34.0
 70
    64
  0
VERTEX
  5
F66
  8
0
 10
215.0
 20
76.0
 30
34.0
 70
    64
  0
VERTEX
  5
F67
  8
0
 10
215.0
 20
76.0
 30
34.0
 70
    64
  0
VERTEX
  5
F68
  8
0
 10
215.0
 20
76.0
 30
34.0
 70
    64
  0
SEQEND
  5
F69
  8
0
  0
POLYLINE
  5
F6A
  8
0
 66
     1
 10
0.0
 20
0.0
 30
0.0
 70
    16
 71
     3
 72
     7
  0
VERTEX
  5
F6B
  8
0
 10
181.0
 20
102.0
 30
34.0
 70
    64
  0
VERTEX
  5
F6C
  8
0
 10
182.2
 20
102.0
 30
42.8
 70
    64
  0
VERTEX
  5
F6D
  8
0
 10
185.6
 20
102.0
 30
50.9
 70
    64
  0
VERTEX
  5
F6E
  8
0
 10
191.0
 20
102.0
 30
58.0
 70
    64
  0
VERTEX
  5
F6F
  8
0
 10
198.1
 20
102.0
 30
63.4
 70
    64
  0
VERTEX
  5
F70
  8
0
 10
206.2
 20
102.0
 30
66.8
 70
    64
  0
VERTEX
  5
F71
  8
0
 10
215.0
 20
102.0
 30
68.0
 70
    64
  0
VERTEX
  5
F72
  8
0
 10
181.0
 20
78.0
 30
34.0
 70
    64
  0
VERTEX
  5
F73
  8
0
 10
182.2
 20
78.0
 30
42.8
 70
    64
  0
VERTEX
  5
F74
  8
0
 10
185.6
 20
78.0
 30
50.9
 70
    64
  0
VERTEX
  5
F75
  8
0
 10
191.0
 20
78.0
 30
58.0
 70
    64
  0
VERTEX
  5
F76
  8
0
 10
198.1
 20
78.0
 30
63.4
 70
    64
  0
VERTEX
  5
F77
  8
0
 10
206.2
 20
78.0
 30
66.8
 70
    64
  0
VERTEX
  5
F78
  8
0
 10
215.0
 20
78.0
 30
68.0
 70
    64
  0
VERTEX
  5
F79
  8
0
 10
183.0
 20
76.0
 30
34.0
 70
    64
  0
VERTEX
  5
F7A
  8
0
 10
184.2
 20
76.0
 30
42.3
 70
    64
  0
VERTEX
  5
F7B
  8
0
 10
187.3
 20
76.0
 30
49.9
 70
    64
  0
VERTEX
  5
F7C
  8
0
 10
192.4
 20
76.0
 30
56.6
 70
    64
  0
VERTEX
  5
F7D
  8
0
 10
199.1
 20
76.0
 30
61.7
 70
    64
  0
VERTEX
  5
F7E
  8
0
 10
206.7
 20
76.0
 30
64.8
 70
    64
  0
VERTEX
  5
F7F
  8
0
 10
215.0
 20
76.0
 30
66.0
 70
    64
  0
SEQEND
  5
F80
  8
0
  0
POLYLINE
  5
F81
  8
0
 66
     1
 10
0.0
 20
0.0
 30
0.0
 70
    16
 71
     2
 72
     7
  0
VERTEX
  5
F82
  8
0
 10
205.0
 20
58.0
 30
34.0
 70
    64
  0
VERTEX
  5
F83
  8
0
 10
205.35294
 20
58.0
 30
36.5882
 70
    64
  0
VERTEX
  5
F84
  8
0
 10
206.35294
 20
58.0
 30
38.9706
 70
    64
  0
VERTEX
  5
F85
  8
0
 10
207.94118
 20
58.0
 30
41.0588
 70
    64
  0
VERTEX
  5
F86
  8
0
 10
210.02941
 20
58.0
 30
42.6471
 70
    64
  0
VERTEX
  5
F87
  8
0
 10
212.4118
 20
58.0
 30
43.6471
 70
    64
  0
VERTEX
  5
F88
  8
0
 10
215.0
 20
58.0
 30
44.0
 70
    64
  0
VERTEX
  5
F89
  8
0
 10
201.0
 20
58.0
 30
34.0
 70
    64
  0
VERTEX
  5
F8A
  8
0
 10
201.4941
 20
58.0
 30
37.6235
 70
    64
  0
VERTEX
  5
F8B
  8
0
 10
202.8941
 20
58.0
 30
40.9588
 70
    64
  0
VERTEX
  5
F8C
  8
0
 10
205.1177
 20
58.0
 30
43.8824
 70
    64
  0
VERTEX
  5
F8D
  8
0
 10
208.0412
 20
58.0
 30
46.1059
 70
    64
  0
VERTEX
  5
F8E
  8
0
 10
211.3765
 20
58.0
 30
47.5059
 70
    64
  0
VERTEX
  5
F8F
  8
0
 10
215.0
 20
58.0
 30
48.0
 70
    64
  0
SEQEND
  5
F90
  8
0
  0
POLYLINE
  5
F91
  8
0
 66
     1
 10
0.0
 20
0.0
 30
0.0
 70
    16
 71
     3
 72
     7
  0
VERTEX
  5
F92
  8
0
 10
140.0
 20
0.0
 30
34.0
 70
    64
  0
VERTEX
  5
F93
  8
0
 10
140.0
 20
0.8
 30
39.4
 70
    64
  0
VERTEX
  5
F94
  8
0
 10
140.0
 20
2.8
 30
44.5
 70
    64
  0
VERTEX
  5
F95
  8
0
 10
140.0
 20
6.2
 30
48.8
 70
    64
  0
VERTEX
  5
F96
  8
0
 10
140.0
 20
10.5
 30
52.2
 70
    64
  0
VERTEX
  5
F97
  8
0
 10
140.0
 20
15.6
 30
54.2
 70
    64
  0
VERTEX
  5
F98
  8
0
 10
140.0
 20
21.0
 30
55.0
 70
    64
  0
VERTEX
  5
F99
  8
0
 10
232.0
 20
0.0
 30
34.0
 70
    64
  0
VERTEX
  5
F9A
  8
0
 10
232.0
 20
0.8
 30
39.4
 70
    64
  0
VERTEX
  5
F9B
  8
0
 10
232.0
 20
2.8
 30
44.5
 70
    64
  0
VERTEX
  5
F9C
  8
0
 10
232.0
 20
6.2
 30
48.8
 70
    64
  0
VERTEX
  5
F9D
  8
0
 10
232.0
 20
10.5
 30
52.2
 70
    64
  0
VERTEX
  5
F9E
  8
0
 10
232.0
 20
15.6
 30
54.2
 70
    64
  0
VERTEX
  5
F9F
  8
0
 10
232.0
 20
21.0
 30
55.0
 70
    64
  0
VERTEX
  5
FA0
  8
0
 10
232.0
 20
1.5
 30
34.0
 70
    64
  0
VERTEX
  5
FA1
  8
0
 10
232.0
 20
2.2
 30
39.0
 70
    64
  0
VERTEX
  5
FA2
  8
0
 10
232.0
 20
4.1
 30
43.7
 70
    64
  0
VERTEX
  5
FA3
  8
0
 10
232.0
 20
7.2
 30
47.8
 70
    64
  0
VERTEX
  5
FA4
  8
0
 10
232.0
 20
11.3
 30
50.9
 70
    64
  0
VERTEX
  5
FA5
  8
0
 10
232.0
 20
16.0
 30
52.8
 70
    64
  0
VERTEX
  5
FA6
  8
0
 10
232.0
 20
21.0
 30
53.5
 70
    64
  0
SEQEND
  5
FA7
  8
0
  0
POLYLINE
  5
FA8
  8
0
 66
     1
 10
0.0
 20
0.0
 30
0.0
 70
    16
 71
     3
 72
     7
  0
VERTEX
  5
FA9
  8
0
 10
140.0
 20
42.0
 30
34.0
 70
    64
  0
VERTEX
  5
FAA
  8
0
 10
140.0
 20
41.2
 30
39.4
 70
    64
  0
VERTEX
  5
FAB
  8
0
 10
140.0
 20
39.2
 30
44.5
 70
    64
  0
VERTEX
  5
FAC
  8
0
 10
140.0
 20
35.8
 30
48.8
 70
    64
  0
VERTEX
  5
FAD
  8
0
 10
140.0
 20
31.5
 30
52.2
 70
    64
  0
VERTEX
  5
FAE
  8
0
 10
140.0
 20
26.4
 30
54.2
 70
    64
  0
VERTEX
  5
FAF
  8
0
 10
140.0
 20
21.0
 30
55.0
 70
    64
  0
VERTEX
  5
FB0
  8
0
 10
232.0
 20
42.0
 30
34.0
 70
    64
  0
VERTEX
  5
FB1
  8
0
 10
232.0
 20
41.2
 30
39.4
 70
    64
  0
VERTEX
  5
FB2
  8
0
 10
232.0
 20
39.2
 30
44.5
 70
    64
  0
VERTEX
  5
FB3
  8
0
 10
232.0
 20
35.8
 30
48.8
 70
    64
  0
VERTEX
  5
FB4
  8
0
 10
232.0
 20
31.5
 30
52.2
 70
    64
  0
VERTEX
  5
FB5
  8
0
 10
232.0
 20
26.4
 30
54.2
 70
    64
  0
VERTEX
  5
FB6
  8
0
 10
232.0
 20
21.0
 30
55.0
 70
    64
  0
VERTEX
  5
FB7
  8
0
 10
232.0
 20
40.5
 30
34.0
 70
    64
  0
VERTEX
  5
FB8
  8
0
 10
232.0
 20
39.8
 30
39.0
 70
    64
  0
VERTEX
  5
FB9
  8
0
 10
232.0
 20
37.9
 30
43.7
 70
    64
  0
VERTEX
  5
FBA
  8
0
 10
232.0
 20
34.8
 30
47.8
 70
    64
  0
VERTEX
  5
FBB
  8
0
 10
232.0
 20
30.7
 30
50.9
 70
    64
  0
VERTEX
  5
FBC
  8
0
 10
232.0
 20
26.0
 30
52.8
 70
    64
  0
VERTEX
  5
FBD
  8
0
 10
232.0
 20
21.0
 30
53.5
 70
    64
  0
SEQEND
  5
FBE
  8
0
  0
POLYLINE
  5
FBF
  8
LAYER1
 66
     1
 10
0.0
 20
0.0
 30
0.0
 70
    64
 71
   168
 72
   144
  0
VERTEX
  5
FC0
  8
LAYER1
 10
228.0
 20
72.0
 30
29.2
 70
   192
  0
VERTEX
  5
FC1
  8
LAYER1
 10
228.0
 20
69.0
 30
29.2
 70
   192
  0
VERTEX
  5
FC2
  8
LAYER1
 10
228.0
 20
66.0
 30
29.2
 70
   192
  0
VERTEX
  5
FC3
  8
LAYER1
 10
228.0
 20
74.0
 30
34.0
 70
   192
  0
VERTEX
  5
FC4
  8
LAYER1
 10
228.0
 20
72.0
 30
34.0
 70
   192
  0
VERTEX
  5
FC5
  8
LAYER1
 10
228.0
 20
69.0
 30
34.0
 70
   192
  0
VERTEX
  5
FC6
  8
LAYER1
 10
228.0
 20
66.0
 30
34.0
 70
   192
  0
VERTEX
  5
FC7
  8
LAYER1
 10
228.0
 20
64.0
 30
34.0
 70
   192
  0
VERTEX
  5
FC8
  8
LAYER1
 10
228.0
 20
72.0
 30
38.8
 70
   192
  0
VERTEX
  5
FC9
  8
LAYER1
 10
228.0
 20
69.0
 30
38.8
 70
   192
  0
VERTEX
  5
FCA
  8
LAYER1
 10
228.0
 20
66.0
 30
38.8
 70
   192
  0
VERTEX
  5
FCB
  8
LAYER1
 10
227.5
 20
74.0
 30
30.6
 70
   192
  0
VERTEX
  5
FCC
  8
LAYER1
 10
227.5
 20
64.0
 30
30.6
 70
   192
  0
VERTEX
  5
FCD
  8
LAYER1
 10
227.5
 20
74.0
 30
37.4
 70
   192
  0
VERTEX
  5
FCE
  8
LAYER1
 10
227.5
 20
64.0
 30
37.4
 70
   192
  0
VERTEX
  5
FCF
  8
LAYER1
 10
227.1
 20
72.0
 30
27.0
 70
   192
  0
VERTEX
  5
FD0
  8
LAYER1
 10
227.1
 20
69.0
 30
27.0
 70
   192
  0
VERTEX
  5
FD1
  8
LAYER1
 10
227.1
 20
66.0
 30
27.0
 70
   192
  0
VERTEX
  5
FD2
  8
LAYER1
 10
227.1
 20
72.0
 30
41.0
 70
   192
  0
VERTEX
  5
FD3
  8
LAYER1
 10
227.1
 20
69.0
 30
41.0
 70
   192
  0
VERTEX
  5
FD4
  8
LAYER1
 10
227.1
 20
66.0
 30
41.0
 70
   192
  0
VERTEX
  5
FD5
  8
LAYER1
 10
226.3
 20
74.0
 30
27.5
 70
   192
  0
VERTEX
  5
FD6
  8
LAYER1
 10
226.3
 20
64.0
 30
27.5
 70
   192
  0
VERTEX
  5
FD7
  8
LAYER1
 10
226.3
 20
74.0
 30
40.5
 70
   192
  0
VERTEX
  5
FD8
  8
LAYER1
 10
226.3
 20
64.0
 30
40.5
 70
   192
  0
VERTEX
  5
FD9
  8
LAYER1
 10
226.0
 20
76.0
 30
34.0
 70
   192
  0
VERTEX
  5
FDA
  8
LAYER1
 10
225.0
 20
62.0
 30
34.0
 70
   192
  0
VERTEX
  5
FDB
  8
LAYER1
 10
225.6
 20
76.0
 30
31.2
 70
   192
  0
VERTEX
  5
FDC
  8
LAYER1
 10
224.64706
 20
62.0
 30
31.4118
 70
   192
  0
VERTEX
  5
FDD
  8
LAYER1
 10
225.6
 20
76.0
 30
36.8
 70
   192
  0
VERTEX
  5
FDE
  8
LAYER1
 10
224.64706
 20
62.0
 30
36.5882
 70
   192
  0
VERTEX
  5
FDF
  8
LAYER1
 10
225.4
 20
72.0
 30
24.8
 70
   192
  0
VERTEX
  5
FE0
  8
LAYER1
 10
225.4
 20
69.0
 30
24.8
 70
   192
  0
VERTEX
  5
FE1
  8
LAYER1
 10
225.4
 20
66.0
 30
24.8
 70
   192
  0
VERTEX
  5
FE2
  8
LAYER1
 10
225.4
 20
72.0
 30
43.2
 70
   192
  0
VERTEX
  5
FE3
  8
LAYER1
 10
225.4
 20
69.0
 30
43.2
 70
   192
  0
VERTEX
  5
FE4
  8
LAYER1
 10
225.4
 20
66.0
 30
43.2
 70
   192
  0
VERTEX
  5
FE5
  8
LAYER1
 10
224.5
 20
76.0
 30
28.5
 70
   192
  0
VERTEX
  5
FE6
  8
LAYER1
 10
223.64706
 20
62.0
 30
29.02941
 70
   192
  0
VERTEX
  5
FE7
  8
LAYER1
 10
224.5
 20
76.0
 30
39.5
 70
   192
  0
VERTEX
  5
FE8
  8
LAYER1
 10
223.64706
 20
62.0
 30
38.9706
 70
   192
  0
VERTEX
  5
FE9
  8
LAYER1
 10
224.2
 20
74.0
 30
24.8
 70
   192
  0
VERTEX
  5
FEA
  8
LAYER1
 10
224.2
 20
64.0
 30
24.8
 70
   192
  0
VERTEX
  5
FEB
  8
LAYER1
 10
224.2
 20
74.0
 30
43.2
 70
   192
  0
VERTEX
  5
FEC
  8
LAYER1
 10
224.2
 20
64.0
 30
43.2
 70
   192
  0
VERTEX
  5
FED
  8
LAYER1
 10
222.8
 20
76.0
 30
26.2
 70
   192
  0
VERTEX
  5
FEE
  8
LAYER1
 10
222.05882
 20
62.0
 30
26.94118
 70
   192
  0
VERTEX
  5
FEF
  8
LAYER1
 10
222.8
 20
76.0
 30
41.8
 70
   192
  0
VERTEX
  5
FF0
  8
LAYER1
 10
222.05882
 20
62.0
 30
41.0588
 70
   192
  0
VERTEX
  5
FF1
  8
LAYER1
 10
221.5
 20
72.0
 30
22.6
 70
   192
  0
VERTEX
  5
FF2
  8
LAYER1
 10
221.5
 20
69.0
 30
22.6
 70
   192
  0
VERTEX
  5
FF3
  8
LAYER1
 10
221.5
 20
66.0
 30
22.6
 70
   192
  0
VERTEX
  5
FF4
  8
LAYER1
 10
221.5
 20
74.0
 30
22.7
 70
   192
  0
VERTEX
  5
FF5
  8
LAYER1
 10
221.5
 20
64.0
 30
22.7
 70
   192
  0
VERTEX
  5
FF6
  8
LAYER1
 10
221.5
 20
74.0
 30
45.3
 70
   192
  0
VERTEX
  5
FF7
  8
LAYER1
 10
221.5
 20
64.0
 30
45.3
 70
   192
  0
VERTEX
  5
FF8
  8
LAYER1
 10
221.5
 20
72.0
 30
45.4
 70
   192
  0
VERTEX
  5
FF9
  8
LAYER1
 10
221.5
 20
69.0
 30
45.4
 70
   192
  0
VERTEX
  5
FFA
  8
LAYER1
 10
221.5
 20
66.0
 30
45.4
 70
   192
  0
VERTEX
  5
FFB
  8
LAYER1
 10
220.5
 20
76.0
 30
24.5
 70
   192
  0
VERTEX
  5
FFC
  8
LAYER1
 10
219.97059
 20
62.0
 30
25.35294
 70
   192
  0
VERTEX
  5
FFD
  8
LAYER1
 10
220.5
 20
76.0
 30
43.5
 70
   192
  0
VERTEX
  5
FFE
  8
LAYER1
 10
219.97059
 20
62.0
 30
42.6471
 70
   192
  0
VERTEX
  5
FFF
  8
LAYER1
 10
218.4
 20
74.0
 30
21.5
 70
   192
  0
VERTEX
  5
1000
  8
LAYER1
 10
218.4
 20
64.0
 30
21.5
 70
   192
  0
VERTEX
  5
1001
  8
LAYER1
 10
218.4
 20
74.0
 30
46.5
 70
   192
  0
VERTEX
  5
1002
  8
LAYER1
 10
218.4
 20
64.0
 30
46.5
 70
   192
  0
VERTEX
  5
1003
  8
LAYER1
 10
217.8
 20
76.0
 30
23.4
 70
   192
  0
VERTEX
  5
1004
  8
LAYER1
 10
217.5882
 20
62.0
 30
24.35294
 70
   192
  0
VERTEX
  5
1005
  8
LAYER1
 10
217.8
 20
76.0
 30
44.6
 70
   192
  0
VERTEX
  5
1006
  8
LAYER1
 10
217.5882
 20
62.0
 30
43.6471
 70
   192
  0
VERTEX
  5
1007
  8
LAYER1
 10
217.4
 20
72.0
 30
20.3
 70
   192
  0
VERTEX
  5
1008
  8
LAYER1
 10
217.4
 20
69.0
 30
20.3
 70
   192
  0
VERTEX
  5
1009
  8
LAYER1
 10
217.4
 20
66.0
 30
20.3
 70
   192
  0
VERTEX
  5
100A
  8
LAYER1
 10
217.4
 20
72.0
 30
47.7
 70
   192
  0
VERTEX
  5
100B
  8
LAYER1
 10
217.4
 20
69.0
 30
47.7
 70
   192
  0
VERTEX
  5
100C
  8
LAYER1
 10
217.4
 20
66.0
 30
47.7
 70
   192
  0
VERTEX
  5
100D
  8
LAYER1
 10
215.0
 20
72.0
 30
20.0
 70
   192
  0
VERTEX
  5
100E
  8
LAYER1
 10
215.0
 20
69.0
 30
20.0
 70
   192
  0
VERTEX
  5
100F
  8
LAYER1
 10
215.0
 20
66.0
 30
20.0
 70
   192
  0
VERTEX
  5
1010
  8
LAYER1
 10
215.0
 20
74.0
 30
21.0
 70
   192
  0
VERTEX
  5
1011
  8
LAYER1
 10
215.0
 20
64.0
 30
21.0
 70
   192
  0
VERTEX
  5
1012
  8
LAYER1
 10
215.0
 20
76.0
 30
23.0
 70
   192
  0
VERTEX
  5
1013
  8
LAYER1
 10
215.0
 20
62.0
 30
24.0
 70
   192
  0
VERTEX
  5
1014
  8
LAYER1
 10
215.0
 20
76.0
 30
45.0
 70
   192
  0
VERTEX
  5
1015
  8
LAYER1
 10
215.0
 20
62.0
 30
44.0
 70
   192
  0
VERTEX
  5
1016
  8
LAYER1
 10
215.0
 20
74.0
 30
47.0
 70
   192
  0
VERTEX
  5
1017
  8
LAYER1
 10
215.0
 20
64.0
 30
47.0
 70
   192
  0
VERTEX
  5
1018
  8
LAYER1
 10
215.0
 20
72.0
 30
48.0
 70
   192
  0
VERTEX
  5
1019
  8
LAYER1
 10
215.0
 20
69.0
 30
48.0
 70
   192
  0
VERTEX
  5
101A
  8
LAYER1
 10
215.0
 20
66.0
 30
48.0
 70
   192
  0
VERTEX
  5
101B
  8
LAYER1
 10
212.6
 20
72.0
 30
20.3
 70
   192
  0
VERTEX
  5
101C
  8
LAYER1
 10
212.6
 20
69.0
 30
20.3
 70
   192
  0
VERTEX
  5
101D
  8
LAYER1
 10
212.6
 20
66.0
 30
20.3
 70
   192
  0
VERTEX
  5
101E
  8
LAYER1
 10
212.6
 20
72.0
 30
47.7
 70
   192
  0
VERTEX
  5
101F
  8
LAYER1
 10
212.6
 20
69.0
 30
47.7
 70
   192
  0
VERTEX
  5
1020
  8
LAYER1
 10
212.6
 20
66.0
 30
47.7
 70
   192
  0
VERTEX
  5
1021
  8
LAYER1
 10
212.2
 20
76.0
 30
23.4
 70
   192
  0
VERTEX
  5
1022
  8
LAYER1
 10
212.4118
 20
62.0
 30
24.35294
 70
   192
  0
VERTEX
  5
1023
  8
LAYER1
 10
212.2
 20
76.0
 30
44.6
 70
   192
  0
VERTEX
  5
1024
  8
LAYER1
 10
212.4118
 20
62.0
 30
43.6471
 70
   192
  0
VERTEX
  5
1025
  8
LAYER1
 10
211.6
 20
74.0
 30
21.5
 70
   192
  0
VERTEX
  5
1026
  8
LAYER1
 10
211.6
 20
64.0
 30
21.5
 70
   192
  0
VERTEX
  5
1027
  8
LAYER1
 10
211.6
 20
74.0
 30
46.5
 70
   192
  0
VERTEX
  5
1028
  8
LAYER1
 10
211.6
 20
64.0
 30
46.5
 70
   192
  0
VERTEX
  5
1029
  8
LAYER1
 10
209.5
 20
76.0
 30
24.5
 70
   192
  0
VERTEX
  5
102A
  8
LAYER1
 10
210.0294
 20
62.0
 30
25.35294
 70
   192
  0
VERTEX
  5
102B
  8
LAYER1
 10
209.5
 20
76.0
 30
43.5
 70
   192
  0
VERTEX
  5
102C
  8
LAYER1
 10
210.0294
 20
62.0
 30
42.6471
 70
   192
  0
VERTEX
  5
102D
  8
LAYER1
 10
208.5
 20
72.0
 30
22.6
 70
   192
  0
VERTEX
  5
102E
  8
LAYER1
 10
208.5
 20
69.0
 30
22.6
 70
   192
  0
VERTEX
  5
102F
  8
LAYER1
 10
208.5
 20
66.0
 30
22.6
 70
   192
  0
VERTEX
  5
1030
  8
LAYER1
 10
208.5
 20
74.0
 30
22.7
 70
   192
  0
VERTEX
  5
1031
  8
LAYER1
 10
208.5
 20
64.0
 30
22.7
 70
   192
  0
VERTEX
  5
1032
  8
LAYER1
 10
208.5
 20
74.0
 30
45.3
 70
   192
  0
VERTEX
  5
1033
  8
LAYER1
 10
208.5
 20
64.0
 30
45.3
 70
   192
  0
VERTEX
  5
1034
  8
LAYER1
 10
208.5
 20
72.0
 30
45.4
 70
   192
  0
VERTEX
  5
1035
  8
LAYER1
 10
208.5
 20
69.0
 30
45.4
 70
   192
  0
VERTEX
  5
1036
  8
LAYER1
 10
208.5
 20
66.0
 30
45.4
 70
   192
  0
VERTEX
  5
1037
  8
LAYER1
 10
207.2
 20
76.0
 30
26.2
 70
   192
  0
VERTEX
  5
1038
  8
LAYER1
 10
207.9412
 20
62.0
 30
26.94118
 70
   192
  0
VERTEX
  5
1039
  8
LAYER1
 10
207.2
 20
76.0
 30
41.8
 70
   192
  0
VERTEX
  5
103A
  8
LAYER1
 10
207.9412
 20
62.0
 30
41.0588
 70
   192
  0
VERTEX
  5
103B
  8
LAYER1
 10
205.8
 20
74.0
 30
24.8
 70
   192
  0
VERTEX
  5
103C
  8
LAYER1
 10
205.8
 20
64.0
 30
24.8
 70
   192
  0
VERTEX
  5
103D
  8
LAYER1
 10
205.8
 20
74.0
 30
43.2
 70
   192
  0
VERTEX
  5
103E
  8
LAYER1
 10
205.8
 20
64.0
 30
43.2
 70
   192
  0
VERTEX
  5
103F
  8
LAYER1
 10
205.5
 20
76.0
 30
28.5
 70
   192
  0
VERTEX
  5
1040
  8
LAYER1
 10
206.3529
 20
62.0
 30
29.02941
 70
   192
  0
VERTEX
  5
1041
  8
LAYER1
 10
205.5
 20
76.0
 30
39.5
 70
   192
  0
VERTEX
  5
1042
  8
LAYER1
 10
206.3529
 20
62.0
 30
38.9706
 70
   192
  0
VERTEX
  5
1043
  8
LAYER1
 10
204.6
 20
72.0
 30
24.8
 70
   192
  0
VERTEX
  5
1044
  8
LAYER1
 10
204.6
 20
69.0
 30
24.8
 70
   192
  0
VERTEX
  5
1045
  8
LAYER1
 10
204.6
 20
66.0
 30
24.8
 70
   192
  0
VERTEX
  5
1046
  8
LAYER1
 10
204.6
 20
72.0
 30
43.2
 70
   192
  0
VERTEX
  5
1047
  8
LAYER1
 10
204.6
 20
69.0
 30
43.2
 70
   192
  0
VERTEX
  5
1048
  8
LAYER1
 10
204.6
 20
66.0
 30
43.2
 70
   192
  0
VERTEX
  5
1049
  8
LAYER1
 10
204.4
 20
76.0
 30
31.2
 70
   192
  0
VERTEX
  5
104A
  8
LAYER1
 10
205.3529
 20
62.0
 30
31.4118
 70
   192
  0
VERTEX
  5
104B
  8
LAYER1
 10
204.4
 20
76.0
 30
36.8
 70
   192
  0
VERTEX
  5
104C
  8
LAYER1
 10
205.3529
 20
62.0
 30
36.5882
 70
   192
  0
VERTEX
  5
104D
  8
LAYER1
 10
204.0
 20
76.0
 30
34.0
 70
   192
  0
VERTEX
  5
104E
  8
LAYER1
 10
205.0
 20
62.0
 30
34.0
 70
   192
  0
VERTEX
  5
104F
  8
LAYER1
 10
203.7
 20
74.0
 30
27.5
 70
   192
  0
VERTEX
  5
1050
  8
LAYER1
 10
203.7
 20
64.0
 30
27.5
 70
   192
  0
VERTEX
  5
1051
  8
LAYER1
 10
203.7
 20
74.0
 30
40.5
 70
   192
  0
VERTEX
  5
1052
  8
LAYER1
 10
203.7
 20
64.0
 30
40.5
 70
   192
  0
VERTEX
  5
1053
  8
LAYER1
 10
202.9
 20
72.0
 30
27.0
 70
   192
  0
VERTEX
  5
1054
  8
LAYER1
 10
202.9
 20
69.0
 30
27.0
 70
   192
  0
VERTEX
  5
1055
  8
LAYER1
 10
202.9
 20
66.0
 30
27.0
 70
   192
  0
VERTEX
  5
1056
  8
LAYER1
 10
202.9
 20
72.0
 30
41.0
 70
   192
  0
VERTEX
  5
1057
  8
LAYER1
 10
202.9
 20
69.0
 30
41.0
 70
   192
  0
VERTEX
  5
1058
  8
LAYER1
 10
202.9
 20
66.0
 30
41.0
 70
   192
  0
VERTEX
  5
1059
  8
LAYER1
 10
202.5
 20
74.0
 30
30.6
 70
   192
  0
VERTEX
  5
105A
  8
LAYER1
 10
202.5
 20
64.0
 30
30.6
 70
   192
  0
VERTEX
  5
105B
  8
LAYER1
 10
202.5
 20
74.0
 30
37.4
 70
   192
  0
VERTEX
  5
105C
  8
LAYER1
 10
202.5
 20
64.0
 30
37.4
 70
   192
  0
VERTEX
  5
105D
  8
LAYER1
 10
202.0
 20
72.0
 30
29.2
 70
   192
  0
VERTEX
  5
105E
  8
LAYER1
 10
202.0
 20
69.0
 30
29.2
 70
   192
  0
VERTEX
  5
105F
  8
LAYER1
 10
202.0
 20
66.0
 30
29.2
 70
   192
  0
VERTEX
  5
1060
  8
LAYER1
 10
202.0
 20
74.0
 30
34.0
 70
   192
  0
VERTEX
  5
1061
  8
LAYER1
 10
202.0
 20
72.0
 30
34.0
 70
   192
  0
VERTEX
  5
1062
  8
LAYER1
 10
202.0
 20
69.0
 30
34.0
 70
   192
  0
VERTEX
  5
1063
  8
LAYER1
 10
202.0
 20
66.0
 30
34.0
 70
   192
  0
VERTEX
  5
1064
  8
LAYER1
 10
202.0
 20
64.0
 30
34.0
 70
   192
  0
VERTEX
  5
1065
  8
LAYER1
 10
202.0
 20
72.0
 30
38.8
 70
   192
  0
VERTEX
  5
1066
  8
LAYER1
 10
202.0
 20
69.0
 30
38.8
 70
   192
  0
VERTEX
  5
1067
  8
LAYER1
 10
202.0
 20
66.0
 30
38.8
 70
   192
  0
VERTEX
  5
1068
  8
LAYER1
 10
0.0
 20
0.0
 30
0.0
 70
   128
 71
    69
 72
    65
 73
    82
 74
    84
  0
VERTEX
  5
1069
  8
LAYER1
 10
0.0
 20
0.0
 30
0.0
 70
   128
 71
    61
 72
    54
 73
    65
 74
    69
  0
VERTEX
  5
106A
  8
LAYER1
 10
0.0
 20
0.0
 30
0.0
 70
   128
 71
    47
 72
    43
 73
    54
 74
    61
  0
VERTEX
  5
106B
  8
LAYER1
 10
0.0
 20
0.0
 30
0.0
 70
   128
 71
    39
 72
    23
 73
    43
 74
    47
  0
VERTEX
  5
106C
  8
LAYER1
 10
0.0
 20
0.0
 30
0.0
 70
   128
 71
    29
 72
    13
 73
    23
 74
    39
  0
VERTEX
  5
106D
  8
LAYER1
 10
0.0
 20
0.0
 30
0.0
 70
   128
 71
    27
 72
     8
 73
    13
 74
    29
  0
VERTEX
  5
106E
  8
LAYER1
 10
0.0
 20
0.0
 30
0.0
 70
   128
 71
    65
 72
    74
 73
    80
 74
    82
  0
VERTEX
  5
106F
  8
LAYER1
 10
0.0
 20
0.0
 30
0.0
 70
   128
 71
    54
 72
    52
 73
    74
 74
    65
  0
VERTEX
  5
1070
  8
LAYER1
 10
0.0
 20
0.0
 30
0.0
 70
   128
 71
    43
 72
    34
 73
    52
 74
    54
  0
VERTEX
  5
1071
  8
LAYER1
 10
0.0
 20
0.0
 30
0.0
 70
   128
 71
    23
 72
    18
 73
    34
 74
    43
  0
VERTEX
  5
1072
  8
LAYER1
 10
0.0
 20
0.0
 30
0.0
 70
   128
 71
    13
 72
     3
 73
    18
 74
    23
  0
VERTEX
  5
1073
  8
LAYER1
 10
0.0
 20
0.0
 30
0.0
 70
   128
 71
     8
 72
     7
 73
     3
 74
    13
  0
VERTEX
  5
1074
  8
LAYER1
 10
0.0
 20
0.0
 30
0.0
 70
   128
 71
    74
 72
    73
 73
    79
 74
    80
  0
VERTEX
  5
1075
  8
LAYER1
 10
0.0
 20
0.0
 30
0.0
 70
   128
 71
    52
 72
    51
 73
    73
 74
    74
  0
VERTEX
  5
1076
  8
LAYER1
 10
0.0
 20
0.0
 30
0.0
 70
   128
 71
    34
 72
    33
 73
    51
 74
    52
  0
VERTEX
  5
1077
  8
LAYER1
 10
0.0
 20
0.0
 30
0.0
 70
   128
 71
    18
 72
    17
 73
    33
 74
    34
  0
VERTEX
  5
1078
  8
LAYER1
 10
0.0
 20
0.0
 30
0.0
 70
   128
 71
     3
 72
     2
 73
    17
 74
    18
  0
VERTEX
  5
1079
  8
LAYER1
 10
0.0
 20
0.0
 30
0.0
 70
   128
 71
     7
 72
     6
 73
     2
 74
     3
  0
VERTEX
  5
107A
  8
LAYER1
 10
0.0
 20
0.0
 30
0.0
 70
   128
 71
    86
 72
    88
 73
    67
 74
    71
  0
VERTEX
  5
107B
  8
LAYER1
 10
0.0
 20
0.0
 30
0.0
 70
   128
 71
    71
 72
    67
 73
    56
 74
    63
  0
VERTEX
  5
107C
  8
LAYER1
 10
0.0
 20
0.0
 30
0.0
 70
   128
 71
    63
 72
    56
 73
    45
 74
    49
  0
VERTEX
  5
107D
  8
LAYER1
 10
0.0
 20
0.0
 30
0.0
 70
   128
 71
    49
 72
    45
 73
    25
 74
    41
  0
VERTEX
  5
107E
  8
LAYER1
 10
0.0
 20
0.0
 30
0.0
 70
   128
 71
    41
 72
    25
 73
    15
 74
    31
  0
VERTEX
  5
107F
  8
LAYER1
 10
0.0
 20
0.0
 30
0.0
 70
   128
 71
    31
 72
    15
 73
     8
 74
    27
  0
VERTEX
  5
1080
  8
LAYER1
 10
0.0
 20
0.0
 30
0.0
 70
   128
 71
    88
 72
    91
 73
    77
 74
    67
  0
VERTEX
  5
1081
  8
LAYER1
 10
0.0
 20
0.0
 30
0.0
 70
   128
 71
    67
 72
    77
 73
    59
 74
    56
  0
VERTEX
  5
1082
  8
LAYER1
 10
0.0
 20
0.0
 30
0.0
 70
   128
 71
    56
 72
    59
 73
    37
 74
    45
  0
VERTEX
  5
1083
  8
LAYER1
 10
0.0
 20
0.0
 30
0.0
 70
   128
 71
    45
 72
    37
 73
    21
 74
    25
  0
VERTEX
  5
1084
  8
LAYER1
 10
0.0
 20
0.0
 30
0.0
 70
   128
 71
    25
 72
    21
 73
    11
 74
    15
  0
VERTEX
  5
1085
  8
LAYER1
 10
0.0
 20
0.0
 30
0.0
 70
   128
 71
    15
 72
    11
 73
     7
 74
     8
  0
VERTEX
  5
1086
  8
LAYER1
 10
0.0
 20
0.0
 30
0.0
 70
   128
 71
    91
 72
    90
 73
    76
 74
    77
  0
VERTEX
  5
1087
  8
LAYER1
 10
0.0
 20
0.0
 30
0.0
 70
   128
 71
    77
 72
    76
 73
    58
 74
    59
  0
VERTEX
  5
1088
  8
LAYER1
 10
0.0
 20
0.0
 30
0.0
 70
   128
 71
    59
 72
    58
 73
    36
 74
    37
  0
VERTEX
  5
1089
  8
LAYER1
 10
0.0
 20
0.0
 30
0.0
 70
   128
 71
    37
 72
    36
 73
    20
 74
    21
  0
VERTEX
  5
108A
  8
LAYER1
 10
0.0
 20
0.0
 30
0.0
 70
   128
 71
    21
 72
    20
 73
    10
 74
    11
  0
VERTEX
  5
108B
  8
LAYER1
 10
0.0
 20
0.0
 30
0.0
 70
   128
 71
    11
 72
    10
 73
     6
 74
     7
  0
VERTEX
  5
108C
  8
LAYER1
 10
0.0
 20
0.0
 30
0.0
 70
   128
 71
    70
 72
    66
 73
    87
 74
    85
  0
VERTEX
  5
108D
  8
LAYER1
 10
0.0
 20
0.0
 30
0.0
 70
   128
 71
    62
 72
    55
 73
    66
 74
    70
  0
VERTEX
  5
108E
  8
LAYER1
 10
0.0
 20
0.0
 30
0.0
 70
   128
 71
    48
 72
    44
 73
    55
 74
    62
  0
VERTEX
  5
108F
  8
LAYER1
 10
0.0
 20
0.0
 30
0.0
 70
   128
 71
    40
 72
    24
 73
    44
 74
    48
  0
VERTEX
  5
1090
  8
LAYER1
 10
0.0
 20
0.0
 30
0.0
 70
   128
 71
    30
 72
    14
 73
    24
 74
    40
  0
VERTEX
  5
1091
  8
LAYER1
 10
0.0
 20
0.0
 30
0.0
 70
   128
 71
    26
 72
     4
 73
    14
 74
    30
  0
VERTEX
  5
1092
  8
LAYER1
 10
0.0
 20
0.0
 30
0.0
 70
   128
 71
    66
 72
    75
 73
    89
 74
    87
  0
VERTEX
  5
1093
  8
LAYER1
 10
0.0
 20
0.0
 30
0.0
 70
   128
 71
    55
 72
    57
 73
    75
 74
    66
  0
VERTEX
  5
1094
  8
LAYER1
 10
0.0
 20
0.0
 30
0.0
 70
   128
 71
    44
 72
    35
 73
    57
 74
    55
  0
VERTEX
  5
1095
  8
LAYER1
 10
0.0
 20
0.0
 30
0.0
 70
   128
 71
    24
 72
    19
 73
    35
 74
    44
  0
VERTEX
  5
1096
  8
LAYER1
 10
0.0
 20
0.0
 30
0.0
 70
   128
 71
    14
 72
     9
 73
    19
 74
    24
  0
VERTEX
  5
1097
  8
LAYER1
 10
0.0
 20
0.0
 30
0.0
 70
   128
 71
     4
 72
     5
 73
     9
 74
    14
  0
VERTEX
  5
1098
  8
LAYER1
 10
0.0
 20
0.0
 30
0.0
 70
   128
 71
    75
 72
    76
 73
    90
 74
    89
  0
VERTEX
  5
1099
  8
LAYER1
 10
0.0
 20
0.0
 30
0.0
 70
   128
 71
    57
 72
    58
 73
    76
 74
    75
  0
VERTEX
  5
109A
  8
LAYER1
 10
0.0
 20
0.0
 30
0.0
 70
   128
 71
    35
 72
    36
 73
    58
 74
    57
  0
VERTEX
  5
109B
  8
LAYER1
 10
0.0
 20
0.0
 30
0.0
 70
   128
 71
    19
 72
    20
 73
    36
 74
    35
  0
VERTEX
  5
109C
  8
LAYER1
 10
0.0
 20
0.0
 30
0.0
 70
   128
 71
     9
 72
    10
 73
    20
 74
    19
  0
VERTEX
  5
109D
  8
LAYER1
 10
0.0
 20
0.0
 30
0.0
 70
   128
 71
     5
 72
     6
 73
    10
 74
     9
  0
VERTEX
  5
109E
  8
LAYER1
 10
0.0
 20
0.0
 30
0.0
 70
   128
 71
    83
 72
    81
 73
    64
 74
    68
  0
VERTEX
  5
109F
  8
LAYER1
 10
0.0
 20
0.0
 30
0.0
 70
   128
 71
    68
 72
    64
 73
    53
 74
    60
  0
VERTEX
  5
10A0
  8
LAYER1
 10
0.0
 20
0.0
 30
0.0
 70
   128
 71
    60
 72
    53
 73
    42
 74
    46
  0
VERTEX
  5
10A1
  8
LAYER1
 10
0.0
 20
0.0
 30
0.0
 70
   128
 71
    46
 72
    42
 73
    22
 74
    38
  0
VERTEX
  5
10A2
  8
LAYER1
 10
0.0
 20
0.0
 30
0.0
 70
   128
 71
    38
 72
    22
 73
    12
 74
    28
  0
VERTEX
  5
10A3
  8
LAYER1
 10
0.0
 20
0.0
 30
0.0
 70
   128
 71
    28
 72
    12
 73
     4
 74
    26
  0
VERTEX
  5
10A4
  8
LAYER1
 10
0.0
 20
0.0
 30
0.0
 70
   128
 71
    81
 72
    78
 73
    72
 74
    64
  0
VERTEX
  5
10A5
  8
LAYER1
 10
0.0
 20
0.0
 30
0.0
 70
   128
 71
    64
 72
    72
 73
    50
 74
    53
  0
VERTEX
  5
10A6
  8
LAYER1
 10
0.0
 20
0.0
 30
0.0
 70
   128
 71
    53
 72
    50
 73
    32
 74
    42
  0
VERTEX
  5
10A7
  8
LAYER1
 10
0.0
 20
0.0
 30
0.0
 70
   128
 71
    42
 72
    32
 73
    16
 74
    22
  0
VERTEX
  5
10A8
  8
LAYER1
 10
0.0
 20
0.0
 30
0.0
 70
   128
 71
    22
 72
    16
 73
     1
 74
    12
  0
VERTEX
  5
10A9
  8
LAYER1
 10
0.0
 20
0.0
 30
0.0
 70
   128
 71
    12
 72
     1
 73
     5
 74
     4
  0
VERTEX
  5
10AA
  8
LAYER1
 10
0.0
 20
0.0
 30
0.0
 70
   128
 71
    78
 72
    79
 73
    73
 74
    72
  0
VERTEX
  5
10AB
  8
LAYER1
 10
0.0
 20
0.0
 30
0.0
 70
   128
 71
    72
 72
    73
 73
    51
 74
    50
  0
VERTEX
  5
10AC
  8
LAYER1
 10
0.0
 20
0.0
 30
0.0
 70
   128
 71
    50
 72
    51
 73
    33
 74
    32
  0
VERTEX
  5
10AD
  8
LAYER1
 10
0.0
 20
0.0
 30
0.0
 70
   128
 71
    32
 72
    33
 73
    17
 74
    16
  0
VERTEX
  5
10AE
  8
LAYER1
 10
0.0
 20
0.0
 30
0.0
 70
   128
 71
    16
 72
    17
 73
     2
 74
     1
  0
VERTEX
  5
10AF
  8
LAYER1
 10
0.0
 20
0.0
 30
0.0
 70
   128
 71
     1
 72
     2
 73
     6
 74
     5
  0
VERTEX
  5
10B0
  8
LAYER1
 10
0.0
 20
0.0
 30
0.0
 70
   128
 71
    84
 72
    82
 73
   103
 74
    99
  0
VERTEX
  5
10B1
  8
LAYER1
 10
0.0
 20
0.0
 30
0.0
 70
   128
 71
    99
 72
   103
 73
   114
 74
   107
  0
VERTEX
  5
10B2
  8
LAYER1
 10
0.0
 20
0.0
 30
0.0
 70
   128
 71
   107
 72
   114
 73
   125
 74
   121
  0
VERTEX
  5
10B3
  8
LAYER1
 10
0.0
 20
0.0
 30
0.0
 70
   128
 71
   121
 72
   125
 73
   145
 74
   129
  0
VERTEX
  5
10B4
  8
LAYER1
 10
0.0
 20
0.0
 30
0.0
 70
   128
 71
   129
 72
   145
 73
   155
 74
   139
  0
VERTEX
  5
10B5
  8
LAYER1
 10
0.0
 20
0.0
 30
0.0
 70
   128
 71
   139
 72
   155
 73
   165
 74
   143
  0
VERTEX
  5
10B6
  8
LAYER1
 10
0.0
 20
0.0
 30
0.0
 70
   128
 71
    82
 72
    80
 73
    94
 74
   103
  0
VERTEX
  5
10B7
  8
LAYER1
 10
0.0
 20
0.0
 30
0.0
 70
   128
 71
   103
 72
    94
 73
   112
 74
   114
  0
VERTEX
  5
10B8
  8
LAYER1
 10
0.0
 20
0.0
 30
0.0
 70
   128
 71
   114
 72
   112
 73
   134
 74
   125
  0
VERTEX
  5
10B9
  8
LAYER1
 10
0.0
 20
0.0
 30
0.0
 70
   128
 71
   125
 72
   134
 73
   150
 74
   145
  0
VERTEX
  5
10BA
  8
LAYER1
 10
0.0
 20
0.0
 30
0.0
 70
   128
 71
   145
 72
   150
 73
   160
 74
   155
  0
VERTEX
  5
10BB
  8
LAYER1
 10
0.0
 20
0.0
 30
0.0
 70
   128
 71
   155
 72
   160
 73
   164
 74
   165
  0
VERTEX
  5
10BC
  8
LAYER1
 10
0.0
 20
0.0
 30
0.0
 70
   128
 71
    80
 72
    79
 73
    93
 74
    94
  0
VERTEX
  5
10BD
  8
LAYER1
 10
0.0
 20
0.0
 30
0.0
 70
   128
 71
    94
 72
    93
 73
   111
 74
   112
  0
VERTEX
  5
10BE
  8
LAYER1
 10
0.0
 20
0.0
 30
0.0
 70
   128
 71
   112
 72
   111
 73
   133
 74
   134
  0
VERTEX
  5
10BF
  8
LAYER1
 10
0.0
 20
0.0
 30
0.0
 70
   128
 71
   134
 72
   133
 73
   149
 74
   150
  0
VERTEX
  5
10C0
  8
LAYER1
 10
0.0
 20
0.0
 30
0.0
 70
   128
 71
   150
 72
   149
 73
   159
 74
   160
  0
VERTEX
  5
10C1
  8
LAYER1
 10
0.0
 20
0.0
 30
0.0
 70
   128
 71
   160
 72
   159
 73
   163
 74
   164
  0
VERTEX
  5
10C2
  8
LAYER1
 10
0.0
 20
0.0
 30
0.0
 70
   128
 71
    98
 72
   102
 73
    81
 74
    83
  0
VERTEX
  5
10C3
  8
LAYER1
 10
0.0
 20
0.0
 30
0.0
 70
   128
 71
   106
 72
   113
 73
   102
 74
    98
  0
VERTEX
  5
10C4
  8
LAYER1
 10
0.0
 20
0.0
 30
0.0
 70
   128
 71
   120
 72
   124
 73
   113
 74
   106
  0
VERTEX
  5
10C5
  8
LAYER1
 10
0.0
 20
0.0
 30
0.0
 70
   128
 71
   128
 72
   144
 73
   124
 74
   120
  0
VERTEX
  5
10C6
  8
LAYER1
 10
0.0
 20
0.0
 30
0.0
 70
   128
 71
   138
 72
   154
 73
   144
 74
   128
  0
VERTEX
  5
10C7
  8
LAYER1
 10
0.0
 20
0.0
 30
0.0
 70
   128
 71
   142
 72
   161
 73
   154
 74
   138
  0
VERTEX
  5
10C8
  8
LAYER1
 10
0.0
 20
0.0
 30
0.0
 70
   128
 71
   102
 72
    92
 73
    78
 74
    81
  0
VERTEX
  5
10C9
  8
LAYER1
 10
0.0
 20
0.0
 30
0.0
 70
   128
 71
   113
 72
   110
 73
    92
 74
   102
  0
VERTEX
  5
10CA
  8
LAYER1
 10
0.0
 20
0.0
 30
0.0
 70
   128
 71
   124
 72
   132
 73
   110
 74
   113
  0
VERTEX
  5
10CB
  8
LAYER1
 10
0.0
 20
0.0
 30
0.0
 70
   128
 71
   144
 72
   148
 73
   132
 74
   124
  0
VERTEX
  5
10CC
  8
LAYER1
 10
0.0
 20
0.0
 30
0.0
 70
   128
 71
   154
 72
   158
 73
   148
 74
   144
  0
VERTEX
  5
10CD
  8
LAYER1
 10
0.0
 20
0.0
 30
0.0
 70
   128
 71
   161
 72
   162
 73
   158
 74
   154
  0
VERTEX
  5
10CE
  8
LAYER1
 10
0.0
 20
0.0
 30
0.0
 70
   128
 71
    92
 72
    93
 73
    79
 74
    78
  0
VERTEX
  5
10CF
  8
LAYER1
 10
0.0
 20
0.0
 30
0.0
 70
   128
 71
   110
 72
   111
 73
    93
 74
    92
  0
VERTEX
  5
10D0
  8
LAYER1
 10
0.0
 20
0.0
 30
0.0
 70
   128
 71
   132
 72
   133
 73
   111
 74
   110
  0
VERTEX
  5
10D1
  8
LAYER1
 10
0.0
 20
0.0
 30
0.0
 70
   128
 71
   148
 72
   149
 73
   133
 74
   132
  0
VERTEX
  5
10D2
  8
LAYER1
 10
0.0
 20
0.0
 30
0.0
 70
   128
 71
   158
 72
   159
 73
   149
 74
   148
  0
VERTEX
  5
10D3
  8
LAYER1
 10
0.0
 20
0.0
 30
0.0
 70
   128
 71
   162
 72
   163
 73
   159
 74
   158
  0
VERTEX
  5
10D4
  8
LAYER1
 10
0.0
 20
0.0
 30
0.0
 70
   128
 71
   101
 72
   105
 73
    88
 74
    86
  0
VERTEX
  5
10D5
  8
LAYER1
 10
0.0
 20
0.0
 30
0.0
 70
   128
 71
   109
 72
   116
 73
   105
 74
   101
  0
VERTEX
  5
10D6
  8
LAYER1
 10
0.0
 20
0.0
 30
0.0
 70
   128
 71
   123
 72
   127
 73
   116
 74
   109
  0
VERTEX
  5
10D7
  8
LAYER1
 10
0.0
 20
0.0
 30
0.0
 70
   128
 71
   131
 72
   147
 73
   127
 74
   123
  0
VERTEX
  5
10D8
  8
LAYER1
 10
0.0
 20
0.0
 30
0.0
 70
   128
 71
   141
 72
   157
 73
   147
 74
   131
  0
VERTEX
  5
10D9
  8
LAYER1
 10
0.0
 20
0.0
 30
0.0
 70
   128
 71
   143
 72
   165
 73
   157
 74
   141
  0
VERTEX
  5
10DA
  8
LAYER1
 10
0.0
 20
0.0
 30
0.0
 70
   128
 71
   105
 72
    97
 73
    91
 74
    88
  0
VERTEX
  5
10DB
  8
LAYER1
 10
0.0
 20
0.0
 30
0.0
 70
   128
 71
   116
 72
   119
 73
    97
 74
   105
  0
VERTEX
  5
10DC
  8
LAYER1
 10
0.0
 20
0.0
 30
0.0
 70
   128
 71
   127
 72
   137
 73
   119
 74
   116
  0
VERTEX
  5
10DD
  8
LAYER1
 10
0.0
 20
0.0
 30
0.0
 70
   128
 71
   147
 72
   153
 73
   137
 74
   127
  0
VERTEX
  5
10DE
  8
LAYER1
 10
0.0
 20
0.0
 30
0.0
 70
   128
 71
   157
 72
   168
 73
   153
 74
   147
  0
VERTEX
  5
10DF
  8
LAYER1
 10
0.0
 20
0.0
 30
0.0
 70
   128
 71
   165
 72
   164
 73
   168
 74
   157
  0
VERTEX
  5
10E0
  8
LAYER1
 10
0.0
 20
0.0
 30
0.0
 70
   128
 71
    97
 72
    96
 73
    90
 74
    91
  0
VERTEX
  5
10E1
  8
LAYER1
 10
0.0
 20
0.0
 30
0.0
 70
   128
 71
   119
 72
   118
 73
    96
 74
    97
  0
VERTEX
  5
10E2
  8
LAYER1
 10
0.0
 20
0.0
 30
0.0
 70
   128
 71
   137
 72
   136
 73
   118
 74
   119
  0
VERTEX
  5
10E3
  8
LAYER1
 10
0.0
 20
0.0
 30
0.0
 70
   128
 71
   153
 72
   152
 73
   136
 74
   137
  0
VERTEX
  5
10E4
  8
LAYER1
 10
0.0
 20
0.0
 30
0.0
 70
   128
 71
   168
 72
   167
 73
   152
 74
   153
  0
VERTEX
  5
10E5
  8
LAYER1
 10
0.0
 20
0.0
 30
0.0
 70
   128
 71
   164
 72
   163
 73
   167
 74
   168
  0
VERTEX
  5
10E6
  8
LAYER1
 10
0.0
 20
0.0
 30
0.0
 70
   128
 71
    85
 72
    87
 73
   104
 74
   100
  0
VERTEX
  5
10E7
  8
LAYER1
 10
0.0
 20
0.0
 30
0.0
 70
   128
 71
   100
 72
   104
 73
   115
 74
   108
  0
VERTEX
  5
10E8
  8
LAYER1
 10
0.0
 20
0.0
 30
0.0
 70
   128
 71
   108
 72
   115
 73
   126
 74
   122
  0
VERTEX
  5
10E9
  8
LAYER1
 10
0.0
 20
0.0
 30
0.0
 70
   128
 71
   122
 72
   126
 73
   146
 74
   130
  0
VERTEX
  5
10EA
  8
LAYER1
 10
0.0
 20
0.0
 30
0.0
 70
   128
 71
   130
 72
   146
 73
   156
 74
   140
  0
VERTEX
  5
10EB
  8
LAYER1
 10
0.0
 20
0.0
 30
0.0
 70
   128
 71
   140
 72
   156
 73
   161
 74
   142
  0
VERTEX
  5
10EC
  8
LAYER1
 10
0.0
 20
0.0
 30
0.0
 70
   128
 71
    87
 72
    89
 73
    95
 74
   104
  0
VERTEX
  5
10ED
  8
LAYER1
 10
0.0
 20
0.0
 30
0.0
 70
   128
 71
   104
 72
    95
 73
   117
 74
   115
  0
VERTEX
  5
10EE
  8
LAYER1
 10
0.0
 20
0.0
 30
0.0
 70
   128
 71
   115
 72
   117
 73
   135
 74
   126
  0
VERTEX
  5
10EF
  8
LAYER1
 10
0.0
 20
0.0
 30
0.0
 70
   128
 71
   126
 72
   135
 73
   151
 74
   146
  0
VERTEX
  5
10F0
  8
LAYER1
 10
0.0
 20
0.0
 30
0.0
 70
   128
 71
   146
 72
   151
 73
   166
 74
   156
  0
VERTEX
  5
10F1
  8
LAYER1
 10
0.0
 20
0.0
 30
0.0
 70
   128
 71
   156
 72
   166
 73
   162
 74
   161
  0
VERTEX
  5
10F2
  8
LAYER1
 10
0.0
 20
0.0
 30
0.0
 70
   128
 71
    89
 72
    90
 73
    96
 74
    95
  0
VERTEX
  5
10F3
  8
LAYER1
 10
0.0
 20
0.0
 30
0.0
 70
   128
 71
    95
 72
    96
 73
   118
 74
   117
  0
VERTEX
  5
10F4
  8
LAYER1
 10
0.0
 20
0.0
 30
0.0
 70
   128
 71
   117
 72
   118
 73
   136
 74
   135
  0
VERTEX
  5
10F5
  8
LAYER1
 10
0.0
 20
0.0
 30
0.0
 70
   128
 71
   135
 72
   136
 73
   152
 74
   151
  0
VERTEX
  5
10F6
  8
LAYER1
 10
0.0
 20
0.0
 30
0.0
 70
   128
 71
   151
 72
   152
 73
   167
 74
   166
  0
VERTEX
  5
10F7
  8
LAYER1
 10
0.0
 20
0.0
 30
0.0
 70
   128
 71
   166
 72
   167
 73
   163
 74
   162
  0
SEQEND
  5
10F8
  8
LAYER1
  0
POLYLINE
  5
10F9
  8
LAYER1
 66
     1
 10
0.0
 20
0.0
 30
0.0
 70
    64
 71
    96
 72
    48
  0
VERTEX
  5
10FA
  8
LAYER1
 10
229.0
 20
58.0
 30
34.0
 70
   192
  0
VERTEX
  5
10FB
  8
LAYER1
 10
229.0
 20
36.0
 30
34.0
 70
   192
  0
VERTEX
  5
10FC
  8
LAYER1
 10
228.505882
 20
58.0
 30
30.3765
 70
   192
  0
VERTEX
  5
10FD
  8
LAYER1
 10
228.505882
 20
36.0
 30
30.3765
 70
   192
  0
VERTEX
  5
10FE
  8
LAYER1
 10
228.505882
 20
58.0
 30
37.6235
 70
   192
  0
VERTEX
  5
10FF
  8
LAYER1
 10
228.505882
 20
36.0
 30
37.6235
 70
   192
  0
VERTEX
  5
1100
  8
LAYER1
 10
227.10588
 20
58.0
 30
27.04118
 70
   192
  0
VERTEX
  5
1101
  8
LAYER1
 10
227.10588
 20
36.0
 30
27.04118
 70
   192
  0
VERTEX
  5
1102
  8
LAYER1
 10
227.10588
 20
58.0
 30
40.9588
 70
   192
  0
VERTEX
  5
1103
  8
LAYER1
 10
227.10588
 20
36.0
 30
40.9588
 70
   192
  0
VERTEX
  5
1104
  8
LAYER1
 10
225.0
 20
62.0
 30
34.0
 70
   192
  0
VERTEX
  5
1105
  8
LAYER1
 10
225.0
 20
58.0
 30
34.0
 70
   192
  0
VERTEX
  5
1106
  8
LAYER1
 10
224.88235
 20
58.0
 30
24.11765
 70
   192
  0
VERTEX
  5
1107
  8
LAYER1
 10
224.88235
 20
36.0
 30
24.11765
 70
   192
  0
VERTEX
  5
1108
  8
LAYER1
 10
224.88235
 20
58.0
 30
43.8824
 70
   192
  0
VERTEX
  5
1109
  8
LAYER1
 10
224.88235
 20
36.0
 30
43.8824
 70
   192
  0
VERTEX
  5
110A
  8
LAYER1
 10
224.64706
 20
62.0
 30
31.4118
 70
   192
  0
VERTEX
  5
110B
  8
LAYER1
 10
224.64706
 20
58.0
 30
31.4118
 70
   192
  0
VERTEX
  5
110C
  8
LAYER1
 10
224.64706
 20
62.0
 30
36.5882
 70
   192
  0
VERTEX
  5
110D
  8
LAYER1
 10
224.64706
 20
58.0
 30
36.5882
 70
   192
  0
VERTEX
  5
110E
  8
LAYER1
 10
223.64706
 20
62.0
 30
29.02941
 70
   192
  0
VERTEX
  5
110F
  8
LAYER1
 10
223.64706
 20
58.0
 30
29.02941
 70
   192
  0
VERTEX
  5
1110
  8
LAYER1
 10
223.64706
 20
62.0
 30
38.9706
 70
   192
  0
VERTEX
  5
1111
  8
LAYER1
 10
223.64706
 20
58.0
 30
38.9706
 70
   192
  0
VERTEX
  5
1112
  8
LAYER1
 10
222.05882
 20
62.0
 30
26.94118
 70
   192
  0
VERTEX
  5
1113
  8
LAYER1
 10
222.05882
 20
58.0
 30
26.94118
 70
   192
  0
VERTEX
  5
1114
  8
LAYER1
 10
222.05882
 20
62.0
 30
41.0588
 70
   192
  0
VERTEX
  5
1115
  8
LAYER1
 10
222.05882
 20
58.0
 30
41.0588
 70
   192
  0
VERTEX
  5
1116
  8
LAYER1
 10
221.95882
 20
58.0
 30
21.89412
 70
   192
  0
VERTEX
  5
1117
  8
LAYER1
 10
221.95882
 20
36.0
 30
21.89412
 70
   192
  0
VERTEX
  5
1118
  8
LAYER1
 10
221.95882
 20
58.0
 30
46.1059
 70
   192
  0
VERTEX
  5
1119
  8
LAYER1
 10
221.95882
 20
36.0
 30
46.1059
 70
   192
  0
VERTEX
  5
111A
  8
LAYER1
 10
219.97059
 20
62.0
 30
25.35294
 70
   192
  0
VERTEX
  5
111B
  8
LAYER1
 10
219.97059
 20
58.0
 30
25.35294
 70
   192
  0
VERTEX
  5
111C
  8
LAYER1
 10
219.97059
 20
62.0
 30
42.6471
 70
   192
  0
VERTEX
  5
111D
  8
LAYER1
 10
219.97059
 20
58.0
 30
42.6471
 70
   192
  0
VERTEX
  5
111E
  8
LAYER1
 10
218.6235
 20
58.0
 30
20.494118
 70
   192
  0
VERTEX
  5
111F
  8
LAYER1
 10
218.6235
 20
36.0
 30
20.494118
 70
   192
  0
VERTEX
  5
1120
  8
LAYER1
 10
218.6235
 20
58.0
 30
47.5059
 70
   192
  0
VERTEX
  5
1121
  8
LAYER1
 10
218.6235
 20
36.0
 30
47.5059
 70
   192
  0
VERTEX
  5
1122
  8
LAYER1
 10
217.5882
 20
62.0
 30
24.35294
 70
   192
  0
VERTEX
  5
1123
  8
LAYER1
 10
217.5882
 20
58.0
 30
24.35294
 70
   192
  0
VERTEX
  5
1124
  8
LAYER1
 10
217.5882
 20
62.0
 30
43.6471
 70
   192
  0
VERTEX
  5
1125
  8
LAYER1
 10
217.5882
 20
58.0
 30
43.6471
 70
   192
  0
VERTEX
  5
1126
  8
LAYER1
 10
215.0
 20
58.0
 30
20.0
 70
   192
  0
VERTEX
  5
1127
  8
LAYER1
 10
215.0
 20
36.0
 30
20.0
 70
   192
  0
VERTEX
  5
1128
  8
LAYER1
 10
215.0
 20
62.0
 30
24.0
 70
   192
  0
VERTEX
  5
1129
  8
LAYER1
 10
215.0
 20
58.0
 30
24.0
 70
   192
  0
VERTEX
  5
112A
  8
LAYER1
 10
215.0
 20
62.0
 30
44.0
 70
   192
  0
VERTEX
  5
112B
  8
LAYER1
 10
215.0
 20
58.0
 30
44.0
 70
   192
  0
VERTEX
  5
112C
  8
LAYER1
 10
215.0
 20
58.0
 30
48.0
 70
   192
  0
VERTEX
  5
112D
  8
LAYER1
 10
215.0
 20
36.0
 30
48.0
 70
   192
  0
VERTEX
  5
112E
  8
LAYER1
 10
212.4118
 20
62.0
 30
24.35294
 70
   192
  0
VERTEX
  5
112F
  8
LAYER1
 10
212.4118
 20
58.0
 30
24.35294
 70
   192
  0
VERTEX
  5
1130
  8
LAYER1
 10
212.4118
 20
62.0
 30
43.6471
 70
   192
  0
VERTEX
  5
1131
  8
LAYER1
 10
212.4118
 20
58.0
 30
43.6471
 70
   192
  0
VERTEX
  5
1132
  8
LAYER1
 10
211.3765
 20
58.0
 30
20.494118
 70
   192
  0
VERTEX
  5
1133
  8
LAYER1
 10
211.3765
 20
36.0
 30
20.494118
 70
   192
  0
VERTEX
  5
1134
  8
LAYER1
 10
211.3765
 20
58.0
 30
47.5059
 70
   192
  0
VERTEX
  5
1135
  8
LAYER1
 10
211.3765
 20
36.0
 30
47.5059
 70
   192
  0
VERTEX
  5
1136
  8
LAYER1
 10
210.0294
 20
62.0
 30
25.35294
 70
   192
  0
VERTEX
  5
1137
  8
LAYER1
 10
210.0294
 20
58.0
 30
25.35294
 70
   192
  0
VERTEX
  5
1138
  8
LAYER1
 10
210.0294
 20
62.0
 30
42.6471
 70
   192
  0
VERTEX
  5
1139
  8
LAYER1
 10
210.0294
 20
58.0
 30
42.6471
 70
   192
  0
VERTEX
  5
113A
  8
LAYER1
 10
208.0412
 20
58.0
 30
21.89412
 70
   192
  0
VERTEX
  5
113B
  8
LAYER1
 10
208.0412
 20
36.0
 30
21.89412
 70
   192
  0
VERTEX
  5
113C
  8
LAYER1
 10
208.0412
 20
58.0
 30
46.1059
 70
   192
  0
VERTEX
  5
113D
  8
LAYER1
 10
208.0412
 20
36.0
 30
46.1059
 70
   192
  0
VERTEX
  5
113E
  8
LAYER1
 10
207.9412
 20
62.0
 30
26.94118
 70
   192
  0
VERTEX
  5
113F
  8
LAYER1
 10
207.9412
 20
58.0
 30
26.94118
 70
   192
  0
VERTEX
  5
1140
  8
LAYER1
 10
207.9412
 20
62.0
 30
41.0588
 70
   192
  0
VERTEX
  5
1141
  8
LAYER1
 10
207.9412
 20
58.0
 30
41.0588
 70
   192
  0
VERTEX
  5
1142
  8
LAYER1
 10
206.3529
 20
62.0
 30
29.02941
 70
   192
  0
VERTEX
  5
1143
  8
LAYER1
 10
206.3529
 20
58.0
 30
29.02941
 70
   192
  0
VERTEX
  5
1144
  8
LAYER1
 10
206.3529
 20
62.0
 30
38.9706
 70
   192
  0
VERTEX
  5
1145
  8
LAYER1
 10
206.3529
 20
58.0
 30
38.9706
 70
   192
  0
VERTEX
  5
1146
  8
LAYER1
 10
205.3529
 20
62.0
 30
31.4118
 70
   192
  0
VERTEX
  5
1147
  8
LAYER1
 10
205.3529
 20
58.0
 30
31.4118
 70
   192
  0
VERTEX
  5
1148
  8
LAYER1
 10
205.3529
 20
62.0
 30
36.5882
 70
   192
  0
VERTEX
  5
1149
  8
LAYER1
 10
205.3529
 20
58.0
 30
36.5882
 70
   192
  0
VERTEX
  5
114A
  8
LAYER1
 10
205.1176
 20
58.0
 30
24.11765
 70
   192
  0
VERTEX
  5
114B
  8
LAYER1
 10
205.1176
 20
36.0
 30
24.11765
 70
   192
  0
VERTEX
  5
114C
  8
LAYER1
 10
205.1176
 20
58.0
 30
43.8824
 70
   192
  0
VERTEX
  5
114D
  8
LAYER1
 10
205.1176
 20
36.0
 30
43.8824
 70
   192
  0
VERTEX
  5
114E
  8
LAYER1
 10
205.0
 20
62.0
 30
34.0
 70
   192
  0
VERTEX
  5
114F
  8
LAYER1
 10
205.0
 20
58.0
 30
34.0
 70
   192
  0
VERTEX
  5
1150
  8
LAYER1
 10
202.8941
 20
58.0
 30
27.04118
 70
   192
  0
VERTEX
  5
1151
  8
LAYER1
 10
202.8941
 20
36.0
 30
27.04118
 70
   192
  0
VERTEX
  5
1152
  8
LAYER1
 10
202.8941
 20
58.0
 30
40.9588
 70
   192
  0
VERTEX
  5
1153
  8
LAYER1
 10
202.8941
 20
36.0
 30
40.9588
 70
   192
  0
VERTEX
  5
1154
  8
LAYER1
 10
201.4941
 20
58.0
 30
30.3765
 70
   192
  0
VERTEX
  5
1155
  8
LAYER1
 10
201.4941
 20
36.0
 30
30.3765
 70
   192
  0
VERTEX
  5
1156
  8
LAYER1
 10
201.4941
 20
58.0
 30
37.6235
 70
   192
  0
VERTEX
  5
1157
  8
LAYER1
 10
201.4941
 20
36.0
 30
37.6235
 70
   192
  0
VERTEX
  5
1158
  8
LAYER1
 10
201.0
 20
58.0
 30
34.0
 70
   192
  0
VERTEX
  5
1159
  8
LAYER1
 10
201.0
 20
36.0
 30
34.0
 70
   192
  0
VERTEX
  5
115A
  8
LAYER1
 10
0.0
 20
0.0
 30
0.0
 70
   128
 71
     1
 72
     3
 73
     4
 74
     2
  0
VERTEX
  5
115B
  8
LAYER1
 10
0.0
 20
0.0
 30
0.0
 70
   128
 71
     3
 72
     7
 73
     8
 74
     4
  0
VERTEX
  5
115C
  8
LAYER1
 10
0.0
 20
0.0
 30
0.0
 70
   128
 71
     7
 72
    13
 73
    14
 74
     8
  0
VERTEX
  5
115D
  8
LAYER1
 10
0.0
 20
0.0
 30
0.0
 70
   128
 71
    13
 72
    29
 73
    30
 74
    14
  0
VERTEX
  5
115E
  8
LAYER1
 10
0.0
 20
0.0
 30
0.0
 70
   128
 71
    29
 72
    37
 73
    38
 74
    30
  0
VERTEX
  5
115F
  8
LAYER1
 10
0.0
 20
0.0
 30
0.0
 70
   128
 71
    37
 72
    45
 73
    46
 74
    38
  0
VERTEX
  5
1160
  8
LAYER1
 10
0.0
 20
0.0
 30
0.0
 70
   128
 71
     2
 72
     6
 73
     5
 74
     1
  0
VERTEX
  5
1161
  8
LAYER1
 10
0.0
 20
0.0
 30
0.0
 70
   128
 71
     6
 72
    10
 73
     9
 74
     5
  0
VERTEX
  5
1162
  8
LAYER1
 10
0.0
 20
0.0
 30
0.0
 70
   128
 71
    10
 72
    16
 73
    15
 74
     9
  0
VERTEX
  5
1163
  8
LAYER1
 10
0.0
 20
0.0
 30
0.0
 70
   128
 71
    16
 72
    32
 73
    31
 74
    15
  0
VERTEX
  5
1164
  8
LAYER1
 10
0.0
 20
0.0
 30
0.0
 70
   128
 71
    32
 72
    40
 73
    39
 74
    31
  0
VERTEX
  5
1165
  8
LAYER1
 10
0.0
 20
0.0
 30
0.0
 70
   128
 71
    40
 72
    52
 73
    51
 74
    39
  0
VERTEX
  5
1166
  8
LAYER1
 10
0.0
 20
0.0
 30
0.0
 70
   128
 71
    96
 72
    92
 73
    91
 74
    95
  0
VERTEX
  5
1167
  8
LAYER1
 10
0.0
 20
0.0
 30
0.0
 70
   128
 71
    92
 72
    88
 73
    87
 74
    91
  0
VERTEX
  5
1168
  8
LAYER1
 10
0.0
 20
0.0
 30
0.0
 70
   128
 71
    88
 72
    82
 73
    81
 74
    87
  0
VERTEX
  5
1169
  8
LAYER1
 10
0.0
 20
0.0
 30
0.0
 70
   128
 71
    82
 72
    66
 73
    65
 74
    81
  0
VERTEX
  5
116A
  8
LAYER1
 10
0.0
 20
0.0
 30
0.0
 70
   128
 71
    66
 72
    58
 73
    57
 74
    65
  0
VERTEX
  5
116B
  8
LAYER1
 10
0.0
 20
0.0
 30
0.0
 70
   128
 71
    58
 72
    46
 73
    45
 74
    57
  0
VERTEX
  5
116C
  8
LAYER1
 10
0.0
 20
0.0
 30
0.0
 70
   128
 71
    95
 72
    93
 73
    94
 74
    96
  0
VERTEX
  5
116D
  8
LAYER1
 10
0.0
 20
0.0
 30
0.0
 70
   128
 71
    93
 72
    89
 73
    90
 74
    94
  0
VERTEX
  5
116E
  8
LAYER1
 10
0.0
 20
0.0
 30
0.0
 70
   128
 71
    89
 72
    83
 73
    84
 74
    90
  0
VERTEX
  5
116F
  8
LAYER1
 10
0.0
 20
0.0
 30
0.0
 70
   128
 71
    83
 72
    67
 73
    68
 74
    84
  0
VERTEX
  5
1170
  8
LAYER1
 10
0.0
 20
0.0
 30
0.0
 70
   128
 71
    67
 72
    59
 73
    60
 74
    68
  0
VERTEX
  5
1171
  8
LAYER1
 10
0.0
 20
0.0
 30
0.0
 70
   128
 71
    59
 72
    51
 73
    52
 74
    60
  0
VERTEX
  5
1172
  8
LAYER1
 10
0.0
 20
0.0
 30
0.0
 70
   128
 71
    11
 72
    17
 73
    18
 74
    12
  0
VERTEX
  5
1173
  8
LAYER1
 10
0.0
 20
0.0
 30
0.0
 70
   128
 71
    17
 72
    21
 73
    22
 74
    18
  0
VERTEX
  5
1174
  8
LAYER1
 10
0.0
 20
0.0
 30
0.0
 70
   128
 71
    21
 72
    25
 73
    26
 74
    22
  0
VERTEX
  5
1175
  8
LAYER1
 10
0.0
 20
0.0
 30
0.0
 70
   128
 71
    25
 72
    33
 73
    34
 74
    26
  0
VERTEX
  5
1176
  8
LAYER1
 10
0.0
 20
0.0
 30
0.0
 70
   128
 71
    33
 72
    41
 73
    42
 74
    34
  0
VERTEX
  5
1177
  8
LAYER1
 10
0.0
 20
0.0
 30
0.0
 70
   128
 71
    41
 72
    47
 73
    48
 74
    42
  0
VERTEX
  5
1178
  8
LAYER1
 10
0.0
 20
0.0
 30
0.0
 70
   128
 71
    12
 72
    20
 73
    19
 74
    11
  0
VERTEX
  5
1179
  8
LAYER1
 10
0.0
 20
0.0
 30
0.0
 70
   128
 71
    20
 72
    24
 73
    23
 74
    19
  0
VERTEX
  5
117A
  8
LAYER1
 10
0.0
 20
0.0
 30
0.0
 70
   128
 71
    24
 72
    28
 73
    27
 74
    23
  0
VERTEX
  5
117B
  8
LAYER1
 10
0.0
 20
0.0
 30
0.0
 70
   128
 71
    28
 72
    36
 73
    35
 74
    27
  0
VERTEX
  5
117C
  8
LAYER1
 10
0.0
 20
0.0
 30
0.0
 70
   128
 71
    36
 72
    44
 73
    43
 74
    35
  0
VERTEX
  5
117D
  8
LAYER1
 10
0.0
 20
0.0
 30
0.0
 70
   128
 71
    44
 72
    50
 73
    49
 74
    43
  0
VERTEX
  5
117E
  8
LAYER1
 10
0.0
 20
0.0
 30
0.0
 70
   128
 71
    86
 72
    78
 73
    77
 74
    85
  0
VERTEX
  5
117F
  8
LAYER1
 10
0.0
 20
0.0
 30
0.0
 70
   128
 71
    78
 72
    74
 73
    73
 74
    77
  0
VERTEX
  5
1180
  8
LAYER1
 10
0.0
 20
0.0
 30
0.0
 70
   128
 71
    74
 72
    70
 73
    69
 74
    73
  0
VERTEX
  5
1181
  8
LAYER1
 10
0.0
 20
0.0
 30
0.0
 70
   128
 71
    70
 72
    62
 73
    61
 74
    69
  0
VERTEX
  5
1182
  8
LAYER1
 10
0.0
 20
0.0
 30
0.0
 70
   128
 71
    62
 72
    54
 73
    53
 74
    61
  0
VERTEX
  5
1183
  8
LAYER1
 10
0.0
 20
0.0
 30
0.0
 70
   128
 71
    54
 72
    48
 73
    47
 74
    53
  0
VERTEX
  5
1184
  8
LAYER1
 10
0.0
 20
0.0
 30
0.0
 70
   128
 71
    85
 72
    79
 73
    80
 74
    86
  0
VERTEX
  5
1185
  8
LAYER1
 10
0.0
 20
0.0
 30
0.0
 70
   128
 71
    79
 72
    75
 73
    76
 74
    80
  0
VERTEX
  5
1186
  8
LAYER1
 10
0.0
 20
0.0
 30
0.0
 70
   128
 71
    75
 72
    71
 73
    72
 74
    76
  0
VERTEX
  5
1187
  8
LAYER1
 10
0.0
 20
0.0
 30
0.0
 70
   128
 71
    71
 72
    63
 73
    64
 74
    72
  0
VERTEX
  5
1188
  8
LAYER1
 10
0.0
 20
0.0
 30
0.0
 70
   128
 71
    63
 72
    55
 73
    56
 74
    64
  0
VERTEX
  5
1189
  8
LAYER1
 10
0.0
 20
0.0
 30
0.0
 70
   128
 71
    55
 72
    49
 73
    50
 74
    56
  0
SEQEND
  5
118A
  8
LAYER1
  0
POLYLINE
  5
118B
  8
0
 66
     1
 10
0.0
 20
0.0
 30
0.0
 70
    16
 71
     2
 72
     7
  0
VERTEX
  5
118C
  8
0
 10
205.0
 20
58.0
 30
34.0
 70
    64
  0
VERTEX
  5
118D
  8
0
 10
205.35294
 20
58.0
 30
31.4118
 70
    64
  0
VERTEX
  5
118E
  8
0
 10
206.35294
 20
58.0
 30
29.0294
 70
    64
  0
VERTEX
  5
118F
  8
0
 10
207.94118
 20
58.0
 30
26.9412
 70
    64
  0
VERTEX
  5
1190
  8
0
 10
210.02941
 20
58.0
 30
25.3529
 70
    64
  0
VERTEX
  5
1191
  8
0
 10
212.4118
 20
58.0
 30
24.3529
 70
    64
  0
VERTEX
  5
1192
  8
0
 10
215.0
 20
58.0
 30
24.0
 70
    64
  0
VERTEX
  5
1193
  8
0
 10
201.0
 20
58.0
 30
34.0
 70
    64
  0
VERTEX
  5
1194
  8
0
 10
201.4941
 20
58.0
 30
30.3765
 70
    64
  0
VERTEX
  5
1195
  8
0
 10
202.8941
 20
58.0
 30
27.0412
 70
    64
  0
VERTEX
  5
1196
  8
0
 10
205.1177
 20
58.0
 30
24.1176
 70
    64
  0
VERTEX
  5
1197
  8
0
 10
208.0412
 20
58.0
 30
21.8941
 70
    64
  0
VERTEX
  5
1198
  8
0
 10
211.3765
 20
58.0
 30
20.4941
 70
    64
  0
VERTEX
  5
1199
  8
0
 10
215.0
 20
58.0
 30
20.0
 70
    64
  0
SEQEND
  5
119A
  8
0
  0
POLYLINE
  5
119B
  8
0
 66
     1
 10
0.0
 20
0.0
 30
0.0
 70
    16
 71
     3
 72
     7
  0
VERTEX
  5
119C
  8
0
 10
181.0
 20
102.0
 30
34.0
 70
    64
  0
VERTEX
  5
119D
  8
0
 10
182.2
 20
102.0
 30
25.2
 70
    64
  0
VERTEX
  5
119E
  8
0
 10
185.6
 20
102.0
 30
17.1
 70
    64
  0
VERTEX
  5
119F
  8
0
 10
191.0
 20
102.0
 30
10.0
 70
    64
  0
VERTEX
  5
11A0
  8
0
 10
198.1
 20
102.0
 30
4.6
 70
    64
  0
VERTEX
  5
11A1
  8
0
 10
206.2
 20
102.0
 30
1.2
 70
    64
  0
VERTEX
  5
11A2
  8
0
 10
215.0
 20
102.0
 30
0.0
 70
    64
  0
VERTEX
  5
11A3
  8
0
 10
181.0
 20
78.0
 30
34.0
 70
    64
  0
VERTEX
  5
11A4
  8
0
 10
182.2
 20
78.0
 30
25.2
 70
    64
  0
VERTEX
  5
11A5
  8
0
 10
185.6
 20
78.0
 30
17.1
 70
    64
  0
VERTEX
  5
11A6
  8
0
 10
191.0
 20
78.0
 30
10.0
 70
    64
  0
VERTEX
  5
11A7
  8
0
 10
198.1
 20
78.0
 30
4.6
 70
    64
  0
VERTEX
  5
11A8
  8
0
 10
206.2
 20
78.0
 30
1.2
 70
    64
  0
VERTEX
  5
11A9
  8
0
 10
215.0
 20
78.0
 30
0.0
 70
    64
  0
VERTEX
  5
11AA
  8
0
 10
183.0
 20
76.0
 30
34.0
 70
    64
  0
VERTEX
  5
11AB
  8
0
 10
184.2
 20
76.0
 30
25.7
 70
    64
  0
VERTEX
  5
11AC
  8
0
 10
187.3
 20
76.0
 30
18.1
 70
    64
  0
VERTEX
  5
11AD
  8
0
 10
192.4
 20
76.0
 30
11.4
 70
    64
  0
VERTEX
  5
11AE
  8
0
 10
199.1
 20
76.0
 30
6.3
 70
    64
  0
VERTEX
  5
11AF
  8
0
 10
206.7
 20
76.0
 30
3.2
 70
    64
  0
VERTEX
  5
11B0
  8
0
 10
215.0
 20
76.0
 30
2.0
 70
    64
  0
SEQEND
  5
11B1
  8
0
  0
POLYLINE
  5
11B2
  8
0
 66
     1
 10
0.0
 20
0.0
 30
0.0
 70
    16
 71
     2
 72
     7
  0
VERTEX
  5
11B3
  8
0
 10
183.0
 20
76.0
 30
34.0
 70
    64
  0
VERTEX
  5
11B4
  8
0
 10
184.2
 20
76.0
 30
25.7
 70
    64
  0
VERTEX
  5
11B5
  8
0
 10
187.3
 20
76.0
 30
18.1
 70
    64
  0
VERTEX
  5
11B6
  8
0
 10
192.4
 20
76.0
 30
11.4
 70
    64
  0
VERTEX
  5
11B7
  8
0
 10
199.1
 20
76.0
 30
6.3
 70
    64
  0
VERTEX
  5
11B8
  8
0
 10
206.7
 20
76.0
 30
3.2
 70
    64
  0
VERTEX
  5
11B9
  8
0
 10
215.0
 20
76.0
 30
2.0
 70
    64
  0
VERTEX
  5
11BA
  8
0
 10
215.0
 20
76.0
 30
34.0
 70
    64
  0
VERTEX
  5
11BB
  8
0
 10
215.0
 20
76.0
 30
34.0
 70
    64
  0
VERTEX
  5
11BC
  8
0
 10
215.0
 20
76.0
 30
34.0
 70
    64
  0
VERTEX
  5
11BD
  8
0
 10
215.0
 20
76.0
 30
34.0
 70
    64
  0
VERTEX
  5
11BE
  8
0
 10
215.0
 20
76.0
 30
34.0
 70
    64
  0
VERTEX
  5
11BF
  8
0
 10
215.0
 20
76.0
 30
34.0
 70
    64
  0
VERTEX
  5
11C0
  8
0
 10
215.0
 20
76.0
 30
34.0
 70
    64
  0
SEQEND
  5
11C1
  8
0
  0
POLYLINE
  5
11C2
  8
0
 66
     1
 10
0.0
 20
0.0
 30
0.0
 70
    16
 71
     3
 72
     7
  0
VERTEX
  5
11C3
  8
0
 10
140.0
 20
0.0
 30
34.0
 70
    64
  0
VERTEX
  5
11C4
  8
0
 10
140.0
 20
0.8
 30
28.6
 70
    64
  0
VERTEX
  5
11C5
  8
0
 10
140.0
 20
2.8
 30
23.5
 70
    64
  0
VERTEX
  5
11C6
  8
0
 10
140.0
 20
6.2
 30
19.2
 70
    64
  0
VERTEX
  5
11C7
  8
0
 10
140.0
 20
10.5
 30
15.8
 70
    64
  0
VERTEX
  5
11C8
  8
0
 10
140.0
 20
15.6
 30
13.8
 70
    64
  0
VERTEX
  5
11C9
  8
0
 10
140.0
 20
21.0
 30
13.0
 70
    64
  0
VERTEX
  5
11CA
  8
0
 10
232.0
 20
0.0
 30
34.0
 70
    64
  0
VERTEX
  5
11CB
  8
0
 10
232.0
 20
0.8
 30
28.6
 70
    64
  0
VERTEX
  5
11CC
  8
0
 10
232.0
 20
2.8
 30
23.5
 70
    64
  0
VERTEX
  5
11CD
  8
0
 10
232.0
 20
6.2
 30
19.2
 70
    64
  0
VERTEX
  5
11CE
  8
0
 10
232.0
 20
10.5
 30
15.8
 70
    64
  0
VERTEX
  5
11CF
  8
0
 10
232.0
 20
15.6
 30
13.8
 70
    64
  0
VERTEX
  5
11D0
  8
0
 10
232.0
 20
21.0
 30
13.0
 70
    64
  0
VERTEX
  5
11D1
  8
0
 10
232.0
 20
1.5
 30
34.0
 70
    64
  0
VERTEX
  5
11D2
  8
0
 10
232.0
 20
2.2
 30
29.0
 70
    64
  0
VERTEX
  5
11D3
  8
0
 10
232.0
 20
4.1
 30
24.3
 70
    64
  0
VERTEX
  5
11D4
  8
0
 10
232.0
 20
7.2
 30
20.2
 70
    64
  0
VERTEX
  5
11D5
  8
0
 10
232.0
 20
11.3
 30
17.1
 70
    64
  0
VERTEX
  5
11D6
  8
0
 10
232.0
 20
16.0
 30
15.2
 70
    64
  0
VERTEX
  5
11D7
  8
0
 10
232.0
 20
21.0
 30
14.5
 70
    64
  0
SEQEND
  5
11D8
  8
0
  0
POLYLINE
  5
11D9
  8
0
 66
     1
 10
0.0
 20
0.0
 30
0.0
 70
    16
 71
     3
 72
     7
  0
VERTEX
  5
11DA
  8
0
 10
140.0
 20
42.0
 30
34.0
 70
    64
  0
VERTEX
  5
11DB
  8
0
 10
140.0
 20
41.2
 30
28.6
 70
    64
  0
VERTEX
  5
11DC
  8
0
 10
140.0
 20
39.2
 30
23.5
 70
    64
  0
VERTEX
  5
11DD
  8
0
 10
140.0
 20
35.8
 30
19.2
 70
    64
  0
VERTEX
  5
11DE
  8
0
 10
140.0
 20
31.5
 30
15.8
 70
    64
  0
VERTEX
  5
11DF
  8
0
 10
140.0
 20
26.4
 30
13.8
 70
    64
  0
VERTEX
  5
11E0
  8
0
 10
140.0
 20
21.0
 30
13.0
 70
    64
  0
VERTEX
  5
11E1
  8
0
 10
232.0
 20
42.0
 30
34.0
 70
    64
  0
VERTEX
  5
11E2
  8
0
 10
232.0
 20
41.2
 30
28.6
 70
    64
  0
VERTEX
  5
11E3
  8
0
 10
232.0
 20
39.2
 30
23.5
 70
    64
  0
VERTEX
  5
11E4
  8
0
 10
232.0
 20
35.8
 30
19.2
 70
    64
  0
VERTEX
  5
11E5
  8
0
 10
232.0
 20
31.5
 30
15.8
 70
    64
  0
VERTEX
  5
11E6
  8
0
 10
232.0
 20
26.4
 30
13.8
 70
    64
  0
VERTEX
  5
11E7
  8
0
 10
232.0
 20
21.0
 30
13.0
 70
    64
  0
VERTEX
  5
11E8
  8
0
 10
232.0
 20
40.5
 30
34.0
 70
    64
  0
VERTEX
  5
11E9
  8
0
 10
232.0
 20
39.8
 30
29.0
 70
    64
  0
VERTEX
  5
11EA
  8
0
 10
232.0
 20
37.9
 30
24.3
 70
    64
  0
VERTEX
  5
11EB
  8
0
 10
232.0
 20
34.8
 30
20.2
 70
    64
  0
VERTEX
  5
11EC
  8
0
 10
232.0
 20
30.7
 30
17.1
 70
    64
  0
VERTEX
  5
11ED
  8
0
 10
232.0
 20
26.0
 30
15.2
 70
    64
  0
VERTEX
  5
11EE
  8
0
 10
232.0
 20
21.0
 30
14.5
 70
    64
  0
SEQEND
  5
11EF
  8
0
  0
POLYLINE
  5
11F0
  8
0
 66
     1
 10
0.0
 20
0.0
 30
0.0
 70
    16
 71
     3
 72
     7
  0
VERTEX
  5
11F1
  8
0
 10
251.0
 20
41.0
 30
34.0
 70
    64
  0
VERTEX
  5
11F2
  8
0
 10
251.3
 20
41.0
 30
32.7
 70
    64
  0
VERTEX
  5
11F3
  8
0
 10
251.9
 20
41.0
 30
31.5
 70
    64
  0
VERTEX
  5
11F4
  8
0
 10
253.1
 20
41.0
 30
30.5
 70
    64
  0
VERTEX
  5
11F5
  8
0
 10
254.5
 20
41.0
 30
29.7
 70
    64
  0
VERTEX
  5
11F6
  8
0
 10
256.2
 20
41.0
 30
29.2
 70
    64
  0
VERTEX
  5
11F7
  8
0
 10
258.0
 20
41.0
 30
29.0
 70
    64
  0
VERTEX
  5
11F8
  8
0
 10
251.0
 20
44.0
 30
34.0
 70
    64
  0
VERTEX
  5
11F9
  8
0
 10
251.3
 20
44.0
 30
32.7
 70
    64
  0
VERTEX
  5
11FA
  8
0
 10
251.9
 20
44.0
 30
31.5
 70
    64
  0
VERTEX
  5
11FB
  8
0
 10
253.1
 20
44.0
 30
30.5
 70
    64
  0
VERTEX
  5
11FC
  8
0
 10
254.5
 20
44.0
 30
29.7
 70
    64
  0
VERTEX
  5
11FD
  8
0
 10
256.2
 20
44.0
 30
29.2
 70
    64
  0
VERTEX
  5
11FE
  8
0
 10
258.0
 20
44.0
 30
29.0
 70
    64
  0
VERTEX
  5
11FF
  8
0
 10
258.0
 20
44.0
 30
34.0
 70
    64
  0
VERTEX
  5
1200
  8
0
 10
258.0
 20
44.0
 30
34.0
 70
    64
  0
VERTEX
  5
1201
  8
0
 10
258.0
 20
44.0
 30
34.0
 70
    64
  0
VERTEX
  5
1202
  8
0
 10
258.0
 20
44.0
 30
34.0
 70
    64
  0
VERTEX
  5
1203
  8
0
 10
258.0
 20
44.0
 30
34.0
 70
    64
  0
VERTEX
  5
1204
  8
0
 10
258.0
 20
44.0
 30
34.0
 70
    64
  0
VERTEX
  5
1205
  8
0
 10
258.0
 20
44.0
 30
34.0
 70
    64
  0
SEQEND
  5
1206
  8
0
  0
POLYLINE
  5
1207
  8
0
 66
     1
 10
0.0
 20
0.0
 30
0.0
 70
    16
 71
     3
 72
     7
  0
VERTEX
  5
1208
  8
0
 10
265.0
 20
41.0
 30
34.0
 70
    64
  0
VERTEX
  5
1209
  8
0
 10
264.7
 20
41.0
 30
32.7
 70
    64
  0
VERTEX
  5
120A
  8
0
 10
264.1
 20
41.0
 30
31.5
 70
    64
  0
VERTEX
  5
120B
  8
0
 10
262.9
 20
41.0
 30
30.5
 70
    64
  0
VERTEX
  5
120C
  8
0
 10
261.5
 20
41.0
 30
29.7
 70
    64
  0
VERTEX
  5
120D
  8
0
 10
259.8
 20
41.0
 30
29.2
 70
    64
  0
VERTEX
  5
120E
  8
0
 10
258.0
 20
41.0
 30
29.0
 70
    64
  0
VERTEX
  5
120F
  8
0
 10
265.0
 20
44.0
 30
34.0
 70
    64
  0
VERTEX
  5
1210
  8
0
 10
264.7
 20
44.0
 30
32.7
 70
    64
  0
VERTEX
  5
1211
  8
0
 10
264.1
 20
44.0
 30
31.5
 70
    64
  0
VERTEX
  5
1212
  8
0
 10
262.9
 20
44.0
 30
30.5
 70
    64
  0
VERTEX
  5
1213
  8
0
 10
261.5
 20
44.0
 30
29.7
 70
    64
  0
VERTEX
  5
1214
  8
0
 10
259.8
 20
44.0
 30
29.2
 70
    64
  0
VERTEX
  5
1215
  8
0
 10
258.0
 20
44.0
 30
29.0
 70
    64
  0
VERTEX
  5
1216
  8
0
 10
258.0
 20
44.0
 30
34.0
 70
    64
  0
VERTEX
  5
1217
  8
0
 10
258.0
 20
44.0
 30
34.0
 70
    64
  0
VERTEX
  5
1218
  8
0
 10
258.0
 20
44.0
 30
34.0
 70
    64
  0
VERTEX
  5
1219
  8
0
 10
258.0
 20
44.0
 30
34.0
 70
    64
  0
VERTEX
  5
121A
  8
0
 10
258.0
 20
44.0
 30
34.0
 70
    64
  0
VERTEX
  5
121B
  8
0
 10
258.0
 20
44.0
 30
34.0
 70
    64
  0
VERTEX
  5
121C
  8
0
 10
258.0
 20
44.0
 30
34.0
 70
    64
  0
SEQEND
  5
121D
  8
0
  0
POLYLINE
  5
121E
  8
0
 66
     1
 10
0.0
 20
0.0
 30
0.0
 70
    16
 71
     3
 72
     7
  0
VERTEX
  5
121F
  8
0
 10
265.0
 20
41.0
 30
34.0
 70
    64
  0
VERTEX
  5
1220
  8
0
 10
264.7
 20
41.0
 30
35.3
 70
    64
  0
VERTEX
  5
1221
  8
0
 10
264.1
 20
41.0
 30
36.5
 70
    64
  0
VERTEX
  5
1222
  8
0
 10
262.9
 20
41.0
 30
37.5
 70
    64
  0
VERTEX
  5
1223
  8
0
 10
261.5
 20
41.0
 30
38.3
 70
    64
  0
VERTEX
  5
1224
  8
0
 10
259.8
 20
41.0
 30
38.8
 70
    64
  0
VERTEX
  5
1225
  8
0
 10
258.0
 20
41.0
 30
39.0
 70
    64
  0
VERTEX
  5
1226
  8
0
 10
265.0
 20
44.0
 30
34.0
 70
    64
  0
VERTEX
  5
1227
  8
0
 10
264.7
 20
44.0
 30
35.3
 70
    64
  0
VERTEX
  5
1228
  8
0
 10
264.1
 20
44.0
 30
36.5
 70
    64
  0
VERTEX
  5
1229
  8
0
 10
262.9
 20
44.0
 30
37.5
 70
    64
  0
VERTEX
  5
122A
  8
0
 10
261.5
 20
44.0
 30
38.3
 70
    64
  0
VERTEX
  5
122B
  8
0
 10
259.8
 20
44.0
 30
38.8
 70
    64
  0
VERTEX
  5
122C
  8
0
 10
258.0
 20
44.0
 30
39.0
 70
    64
  0
VERTEX
  5
122D
  8
0
 10
258.0
 20
44.0
 30
34.0
 70
    64
  0
VERTEX
  5
122E
  8
0
 10
258.0
 20
44.0
 30
34.0
 70
    64
  0
VERTEX
  5
122F
  8
0
 10
258.0
 20
44.0
 30
34.0
 70
    64
  0
VERTEX
  5
1230
  8
0
 10
258.0
 20
44.0
 30
34.0
 70
    64
  0
VERTEX
  5
1231
  8
0
 10
258.0
 20
44.0
 30
34.0
 70
    64
  0
VERTEX
  5
1232
  8
0
 10
258.0
 20
44.0
 30
34.0
 70
    64
  0
VERTEX
  5
1233
  8
0
 10
258.0
 20
44.0
 30
34.0
 70
    64
  0
SEQEND
  5
1234
  8
0
  0
POLYLINE
  5
1235
  8
0
 66
     1
 10
0.0
 20
0.0
 30
0.0
 70
    16
 71
     3
 72
     7
  0
VERTEX
  5
1236
  8
0
 10
251.0
 20
41.0
 30
34.0
 70
    64
  0
VERTEX
  5
1237
  8
0
 10
251.3
 20
41.0
 30
35.3
 70
    64
  0
VERTEX
  5
1238
  8
0
 10
251.9
 20
41.0
 30
36.5
 70
    64
  0
VERTEX
  5
1239
  8
0
 10
253.1
 20
41.0
 30
37.5
 70
    64
  0
VERTEX
  5
123A
  8
0
 10
254.5
 20
41.0
 30
38.3
 70
    64
  0
VERTEX
  5
123B
  8
0
 10
256.2
 20
41.0
 30
38.8
 70
    64
  0
VERTEX
  5
123C
  8
0
 10
258.0
 20
41.0
 30
39.0
 70
    64
  0
VERTEX
  5
123D
  8
0
 10
251.0
 20
44.0
 30
34.0
 70
    64
  0
VERTEX
  5
123E
  8
0
 10
251.3
 20
44.0
 30
35.3
 70
    64
  0
VERTEX
  5
123F
  8
0
 10
251.9
 20
44.0
 30
36.5
 70
    64
  0
VERTEX
  5
1240
  8
0
 10
253.1
 20
44.0
 30
37.5
 70
    64
  0
VERTEX
  5
1241
  8
0
 10
254.5
 20
44.0
 30
38.3
 70
    64
  0
VERTEX
  5
1242
  8
0
 10
256.2
 20
44.0
 30
38.8
 70
    64
  0
VERTEX
  5
1243
  8
0
 10
258.0
 20
44.0
 30
39.0
 70
    64
  0
VERTEX
  5
1244
  8
0
 10
258.0
 20
44.0
 30
34.0
 70
    64
  0
VERTEX
  5
1245
  8
0
 10
258.0
 20
44.0
 30
34.0
 70
    64
  0
VERTEX
  5
1246
  8
0
 10
258.0
 20
44.0
 30
34.0
 70
    64
  0
VERTEX
  5
1247
  8
0
 10
258.0
 20
44.0
 30
34.0
 70
    64
  0
VERTEX
  5
1248
  8
0
 10
258.0
 20
44.0
 30
34.0
 70
    64
  0
VERTEX
  5
1249
  8
0
 10
258.0
 20
44.0
 30
34.0
 70
    64
  0
VERTEX
  5
124A
  8
0
 10
258.0
 20
44.0
 30
34.0
 70
    64
  0
SEQEND
  5
124B
  8
0
  0
POLYLINE
  5
124C
  8
0
 66
     1
 10
0.0
 20
0.0
 30
0.0
 70
    16
 71
     7
 72
     7
  0
VERTEX
  5
124D
  8
0
 10
280.0
 20
21.0
 30
34.0
 70
    64
  0
VERTEX
  5
124E
  8
0
 10
280.0
 20
21.0
 30
34.0
 70
    64
  0
VERTEX
  5
124F
  8
0
 10
280.0
 20
21.0
 30
34.0
 70
    64
  0
VERTEX
  5
1250
  8
0
 10
280.0
 20
21.0
 30
34.0
 70
    64
  0
VERTEX
  5
1251
  8
0
 10
280.0
 20
21.0
 30
34.0
 70
    64
  0
VERTEX
  5
1252
  8
0
 10
280.0
 20
21.0
 30
34.0
 70
    64
  0
VERTEX
  5
1253
  8
0
 10
280.0
 20
21.0
 30
34.0
 70
    64
  0
VERTEX
  5
1254
  8
0
 10
280.0
 20
21.0
 30
26.0
 70
    64
  0
VERTEX
  5
1255
  8
0
 10
280.0
 20
23.1
 30
26.3
 70
    64
  0
VERTEX
  5
1256
  8
0
 10
280.0
 20
25.0
 30
27.1
 70
    64
  0
VERTEX
  5
1257
  8
0
 10
280.0
 20
26.6
 30
28.4
 70
    64
  0
VERTEX
  5
1258
  8
0
 10
280.0
 20
27.9
 30
30.0
 70
    64
  0
VERTEX
  5
1259
  8
0
 10
280.0
 20
28.7
 30
31.9
 70
    64
  0
VERTEX
  5
125A
  8
0
 10
280.0
 20
29.0
 30
34.0
 70
    64
  0
VERTEX
  5
125B
  8
0
 10
279.5
 20
21.0
 30
26.0
 70
    64
  0
VERTEX
  5
125C
  8
0
 10
279.5
 20
23.1
 30
26.3
 70
    64
  0
VERTEX
  5
125D
  8
0
 10
279.5
 20
25.0
 30
27.1
 70
    64
  0
VERTEX
  5
125E
  8
0
 10
279.5
 20
26.6
 30
28.4
 70
    64
  0
VERTEX
  5
125F
  8
0
 10
279.5
 20
27.9
 30
30.0
 70
    64
  0
VERTEX
  5
1260
  8
0
 10
279.5
 20
28.7
 30
31.9
 70
    64
  0
VERTEX
  5
1261
  8
0
 10
279.5
 20
29.0
 30
34.0
 70
    64
  0
VERTEX
  5
1262
  8
0
 10
278.0
 20
21.0
 30
14.0
 70
    64
  0
VERTEX
  5
1263
  8
0
 10
278.0
 20
26.2
 30
14.7
 70
    64
  0
VERTEX
  5
1264
  8
0
 10
278.0
 20
31.0
 30
16.7
 70
    64
  0
VERTEX
  5
1265
  8
0
 10
278.0
 20
35.1
 30
19.9
 70
    64
  0
VERTEX
  5
1266
  8
0
 10
278.0
 20
38.3
 30
24.0
 70
    64
  0
VERTEX
  5
1267
  8
0
 10
278.0
 20
40.3
 30
28.8
 70
    64
  0
VERTEX
  5
1268
  8
0
 10
278.0
 20
41.0
 30
34.0
 70
    64
  0
VERTEX
  5
1269
  8
0
 10
277.0
 20
21.0
 30
13.0
 70
    64
  0
VERTEX
  5
126A
  8
0
 10
277.0
 20
26.4
 30
13.8
 70
    64
  0
VERTEX
  5
126B
  8
0
 10
277.0
 20
31.5
 30
15.8
 70
    64
  0
VERTEX
  5
126C
  8
0
 10
277.0
 20
35.8
 30
19.2
 70
    64
  0
VERTEX
  5
126D
  8
0
 10
277.0
 20
39.2
 30
23.5
 70
    64
  0
VERTEX
  5
126E
  8
0
 10
277.0
 20
41.2
 30
28.6
 70
    64
  0
VERTEX
  5
126F
  8
0
 10
277.0
 20
42.0
 30
34.0
 70
    64
  0
VERTEX
  5
1270
  8
0
 10
234.0
 20
21.0
 30
13.0
 70
    64
  0
VERTEX
  5
1271
  8
0
 10
234.0
 20
26.4
 30
13.8
 70
    64
  0
VERTEX
  5
1272
  8
0
 10
234.0
 20
31.5
 30
15.8
 70
    64
  0
VERTEX
  5
1273
  8
0
 10
234.0
 20
35.8
 30
19.2
 70
    64
  0
VERTEX
  5
1274
  8
0
 10
234.0
 20
39.2
 30
23.5
 70
    64
  0
VERTEX
  5
1275
  8
0
 10
234.0
 20
41.2
 30
28.6
 70
    64
  0
VERTEX
  5
1276
  8
0
 10
234.0
 20
42.0
 30
34.0
 70
    64
  0
VERTEX
  5
1277
  8
0
 10
234.0
 20
21.0
 30
14.5
 70
    64
  0
VERTEX
  5
1278
  8
0
 10
234.0
 20
26.0
 30
15.2
 70
    64
  0
VERTEX
  5
1279
  8
0
 10
234.0
 20
30.7
 30
17.1
 70
    64
  0
VERTEX
  5
127A
  8
0
 10
234.0
 20
34.8
 30
20.2
 70
    64
  0
VERTEX
  5
127B
  8
0
 10
234.0
 20
37.9
 30
24.3
 70
    64
  0
VERTEX
  5
127C
  8
0
 10
234.0
 20
39.8
 30
29.0
 70
    64
  0
VERTEX
  5
127D
  8
0
 10
234.0
 20
40.5
 30
34.0
 70
    64
  0
SEQEND
  5
127E
  8
0
  0
POLYLINE
  5
127F
  8
0
 66
     1
 10
0.0
 20
0.0
 30
0.0
 70
    16
 71
     7
 72
     7
  0
VERTEX
  5
1280
  8
0
 10
280.0
 20
21.0
 30
34.0
 70
    64
  0
VERTEX
  5
1281
  8
0
 10
280.0
 20
21.0
 30
34.0
 70
    64
  0
VERTEX
  5
1282
  8
0
 10
280.0
 20
21.0
 30
34.0
 70
    64
  0
VERTEX
  5
1283
  8
0
 10
280.0
 20
21.0
 30
34.0
 70
    64
  0
VERTEX
  5
1284
  8
0
 10
280.0
 20
21.0
 30
34.0
 70
    64
  0
VERTEX
  5
1285
  8
0
 10
280.0
 20
21.0
 30
34.0
 70
    64
  0
VERTEX
  5
1286
  8
0
 10
280.0
 20
21.0
 30
34.0
 70
    64
  0
VERTEX
  5
1287
  8
0
 10
280.0
 20
21.0
 30
42.0
 70
    64
  0
VERTEX
  5
1288
  8
0
 10
280.0
 20
23.1
 30
41.7
 70
    64
  0
VERTEX
  5
1289
  8
0
 10
280.0
 20
25.0
 30
40.9
 70
    64
  0
VERTEX
  5
128A
  8
0
 10
280.0
 20
26.6
 30
39.6
 70
    64
  0
VERTEX
  5
128B
  8
0
 10
280.0
 20
27.9
 30
38.0
 70
    64
  0
VERTEX
  5
128C
  8
0
 10
280.0
 20
28.7
 30
36.1
 70
    64
  0
VERTEX
  5
128D
  8
0
 10
280.0
 20
29.0
 30
34.0
 70
    64
  0
VERTEX
  5
128E
  8
0
 10
279.5
 20
21.0
 30
42.0
 70
    64
  0
VERTEX
  5
128F
  8
0
 10
279.5
 20
23.1
 30
41.7
 70
    64
  0
VERTEX
  5
1290
  8
0
 10
279.5
 20
25.0
 30
40.9
 70
    64
  0
VERTEX
  5
1291
  8
0
 10
279.5
 20
26.6
 30
39.6
 70
    64
  0
VERTEX
  5
1292
  8
0
 10
279.5
 20
27.9
 30
38.0
 70
    64
  0
VERTEX
  5
1293
  8
0
 10
279.5
 20
28.7
 30
36.1
 70
    64
  0
VERTEX
  5
1294
  8
0
 10
279.5
 20
29.0
 30
34.0
 70
    64
  0
VERTEX
  5
1295
  8
0
 10
278.0
 20
21.0
 30
54.0
 70
    64
  0
VERTEX
  5
1296
  8
0
 10
278.0
 20
26.2
 30
53.3
 70
    64
  0
VERTEX
  5
1297
  8
0
 10
278.0
 20
31.0
 30
51.3
 70
    64
  0
VERTEX
  5
1298
  8
0
 10
278.0
 20
35.1
 30
48.1
 70
    64
  0
VERTEX
  5
1299
  8
0
 10
278.0
 20
38.3
 30
44.0
 70
    64
  0
VERTEX
  5
129A
  8
0
 10
278.0
 20
40.3
 30
39.2
 70
    64
  0
VERTEX
  5
129B
  8
0
 10
278.0
 20
41.0
 30
34.0
 70
    64
  0
VERTEX
  5
129C
  8
0
 10
277.0
 20
21.0
 30
55.0
 70
    64
  0
VERTEX
  5
129D
  8
0
 10
277.0
 20
26.4
 30
54.2
 70
    64
  0
VERTEX
  5
129E
  8
0
 10
277.0
 20
31.5
 30
52.2
 70
    64
  0
VERTEX
  5
129F
  8
0
 10
277.0
 20
35.8
 30
48.8
 70
    64
  0
VERTEX
  5
12A0
  8
0
 10
277.0
 20
39.2
 30
44.5
 70
    64
  0
VERTEX
  5
12A1
  8
0
 10
277.0
 20
41.2
 30
39.4
 70
    64
  0
VERTEX
  5
12A2
  8
0
 10
277.0
 20
42.0
 30
34.0
 70
    64
  0
VERTEX
  5
12A3
  8
0
 10
234.0
 20
21.0
 30
55.0
 70
    64
  0
VERTEX
  5
12A4
  8
0
 10
234.0
 20
26.4
 30
54.2
 70
    64
  0
VERTEX
  5
12A5
  8
0
 10
234.0
 20
31.5
 30
52.2
 70
    64
  0
VERTEX
  5
12A6
  8
0
 10
234.0
 20
35.8
 30
48.8
 70
    64
  0
VERTEX
  5
12A7
  8
0
 10
234.0
 20
39.2
 30
44.5
 70
    64
  0
VERTEX
  5
12A8
  8
0
 10
234.0
 20
41.2
 30
39.4
 70
    64
  0
VERTEX
  5
12A9
  8
0
 10
234.0
 20
42.0
 30
34.0
 70
    64
  0
VERTEX
  5
12AA
  8
0
 10
234.0
 20
21.0
 30
53.5
 70
    64
  0
VERTEX
  5
12AB
  8
0
 10
234.0
 20
26.0
 30
52.8
 70
    64
  0
VERTEX
  5
12AC
  8
0
 10
234.0
 20
30.7
 30
50.9
 70
    64
  0
VERTEX
  5
12AD
  8
0
 10
234.0
 20
34.8
 30
47.8
 70
    64
  0
VERTEX
  5
12AE
  8
0
 10
234.0
 20
37.9
 30
43.7
 70
    64
  0
VERTEX
  5
12AF
  8
0
 10
234.0
 20
39.8
 30
39.0
 70
    64
  0
VERTEX
  5
12B0
  8
0
 10
234.0
 20
40.5
 30
34.0
 70
    64
  0
SEQEND
  5
12B1
  8
0
  0
POLYLINE
  5
12B2
  8
0
 66
     1
 10
0.0
 20
0.0
 30
0.0
 70
    16
 71
     2
 72
     7
  0
VERTEX
  5
12B3
  8
0
 10
234.0
 20
1.5
 30
34.0
 70
    64
  0
VERTEX
  5
12B4
  8
0
 10
234.0
 20
2.2
 30
29.0
 70
    64
  0
VERTEX
  5
12B5
  8
0
 10
234.0
 20
4.1
 30
24.3
 70
    64
  0
VERTEX
  5
12B6
  8
0
 10
234.0
 20
7.2
 30
20.2
 70
    64
  0
VERTEX
  5
12B7
  8
0
 10
234.0
 20
11.3
 30
17.1
 70
    64
  0
VERTEX
  5
12B8
  8
0
 10
234.0
 20
16.0
 30
15.2
 70
    64
  0
VERTEX
  5
12B9
  8
0
 10
234.0
 20
21.0
 30
14.5
 70
    64
  0
VERTEX
  5
12BA
  8
0
 10
232.0
 20
1.5
 30
34.0
 70
    64
  0
VERTEX
  5
12BB
  8
0
 10
232.0
 20
2.2
 30
29.0
 70
    64
  0
VERTEX
  5
12BC
  8
0
 10
232.0
 20
4.1
 30
24.3
 70
    64
  0
VERTEX
  5
12BD
  8
0
 10
232.0
 20
7.2
 30
20.2
 70
    64
  0
VERTEX
  5
12BE
  8
0
 10
232.0
 20
11.3
 30
17.1
 70
    64
  0
VERTEX
  5
12BF
  8
0
 10
232.0
 20
16.0
 30
15.2
 70
    64
  0
VERTEX
  5
12C0
  8
0
 10
232.0
 20
21.0
 30
14.5
 70
    64
  0
SEQEND
  5
12C1
  8
0
  0
POLYLINE
  5
12C2
  8
0
 66
     1
 10
0.0
 20
0.0
 30
0.0
 70
    16
 71
     2
 72
     7
  0
VERTEX
  5
12C3
  8
0
 10
234.0
 20
40.5
 30
34.0
 70
    64
  0
VERTEX
  5
12C4
  8
0
 10
234.0
 20
39.8
 30
29.0
 70
    64
  0
VERTEX
  5
12C5
  8
0
 10
234.0
 20
37.9
 30
24.3
 70
    64
  0
VERTEX
  5
12C6
  8
0
 10
234.0
 20
34.8
 30
20.2
 70
    64
  0
VERTEX
  5
12C7
  8
0
 10
234.0
 20
30.7
 30
17.1
 70
    64
  0
VERTEX
  5
12C8
  8
0
 10
234.0
 20
26.0
 30
15.2
 70
    64
  0
VERTEX
  5
12C9
  8
0
 10
234.0
 20
21.0
 30
14.5
 70
    64
  0
VERTEX
  5
12CA
  8
0
 10
232.0
 20
40.5
 30
34.0
 70
    64
  0
VERTEX
  5
12CB
  8
0
 10
232.0
 20
39.8
 30
29.0
 70
    64
  0
VERTEX
  5
12CC
  8
0
 10
232.0
 20
37.9
 30
24.3
 70
    64
  0
VERTEX
  5
12CD
  8
0
 10
232.0
 20
34.8
 30
20.2
 70
    64
  0
VERTEX
  5
12CE
  8
0
 10
232.0
 20
30.7
 30
17.1
 70
    64
  0
VERTEX
  5
12CF
  8
0
 10
232.0
 20
26.0
 30
15.2
 70
    64
  0
VERTEX
  5
12D0
  8
0
 10
232.0
 20
21.0
 30
14.5
 70
    64
  0
SEQEND
  5
12D1
  8
0
  0
POLYLINE
  5
12D2
  8
0
 66
     1
 10
0.0
 20
0.0
 30
0.0
 70
    16
 71
     3
 72
     7
  0
VERTEX
  5
12D3
  8
0
 10
249.0
 20
102.0
 30
34.0
 70
    64
  0
VERTEX
  5
12D4
  8
0
 10
247.8
 20
102.0
 30
25.2
 70
    64
  0
VERTEX
  5
12D5
  8
0
 10
244.4
 20
102.0
 30
17.1
 70
    64
  0
VERTEX
  5
12D6
  8
0
 10
239.0
 20
102.0
 30
10.0
 70
    64
  0
VERTEX
  5
12D7
  8
0
 10
231.9
 20
102.0
 30
4.6
 70
    64
  0
VERTEX
  5
12D8
  8
0
 10
223.8
 20
102.0
 30
1.2
 70
    64
  0
VERTEX
  5
12D9
  8
0
 10
215.0
 20
102.0
 30
0.0
 70
    64
  0
VERTEX
  5
12DA
  8
0
 10
249.0
 20
78.0
 30
34.0
 70
    64
  0
VERTEX
  5
12DB
  8
0
 10
247.8
 20
78.0
 30
25.2
 70
    64
  0
VERTEX
  5
12DC
  8
0
 10
244.4
 20
78.0
 30
17.1
 70
    64
  0
VERTEX
  5
12DD
  8
0
 10
239.0
 20
78.0
 30
10.0
 70
    64
  0
VERTEX
  5
12DE
  8
0
 10
231.9
 20
78.0
 30
4.6
 70
    64
  0
VERTEX
  5
12DF
  8
0
 10
223.8
 20
78.0
 30
1.2
 70
    64
  0
VERTEX
  5
12E0
  8
0
 10
215.0
 20
78.0
 30
0.0
 70
    64
  0
VERTEX
  5
12E1
  8
0
 10
247.0
 20
76.0
 30
34.0
 70
    64
  0
VERTEX
  5
12E2
  8
0
 10
245.8
 20
76.0
 30
25.7
 70
    64
  0
VERTEX
  5
12E3
  8
0
 10
242.7
 20
76.0
 30
18.1
 70
    64
  0
VERTEX
  5
12E4
  8
0
 10
237.6
 20
76.0
 30
11.4
 70
    64
  0
VERTEX
  5
12E5
  8
0
 10
230.9
 20
76.0
 30
6.3
 70
    64
  0
VERTEX
  5
12E6
  8
0
 10
223.3
 20
76.0
 30
3.2
 70
    64
  0
VERTEX
  5
12E7
  8
0
 10
215.0
 20
76.0
 30
2.0
 70
    64
  0
SEQEND
  5
12E8
  8
0
  0
POLYLINE
  5
12E9
  8
0
 66
     1
 10
0.0
 20
0.0
 30
0.0
 70
    16
 71
     2
 72
     7
  0
VERTEX
  5
12EA
  8
0
 10
247.0
 20
76.0
 30
34.0
 70
    64
  0
VERTEX
  5
12EB
  8
0
 10
245.8
 20
76.0
 30
25.7
 70
    64
  0
VERTEX
  5
12EC
  8
0
 10
242.7
 20
76.0
 30
18.1
 70
    64
  0
VERTEX
  5
12ED
  8
0
 10
237.6
 20
76.0
 30
11.4
 70
    64
  0
VERTEX
  5
12EE
  8
0
 10
230.9
 20
76.0
 30
6.3
 70
    64
  0
VERTEX
  5
12EF
  8
0
 10
223.3
 20
76.0
 30
3.2
 70
    64
  0
VERTEX
  5
12F0
  8
0
 10
215.0
 20
76.0
 30
2.0
 70
    64
  0
VERTEX
  5
12F1
  8
0
 10
215.0
 20
76.0
 30
34.0
 70
    64
  0
VERTEX
  5
12F2
  8
0
 10
215.0
 20
76.0
 30
34.0
 70
    64
  0
VERTEX
  5
12F3
  8
0
 10
215.0
 20
76.0
 30
34.0
 70
    64
  0
VERTEX
  5
12F4
  8
0
 10
215.0
 20
76.0
 30
34.0
 70
    64
  0
VERTEX
  5
12F5
  8
0
 10
215.0
 20
76.0
 30
34.0
 70
    64
  0
VERTEX
  5
12F6
  8
0
 10
215.0
 20
76.0
 30
34.0
 70
    64
  0
VERTEX
  5
12F7
  8
0
 10
215.0
 20
76.0
 30
34.0
 70
    64
  0
SEQEND
  5
12F8
  8
0
  0
POLYLINE
  5
12F9
  8
0
 66
     1
 10
0.0
 20
0.0
 30
0.0
 70
    16
 71
     2
 72
     7
  0
VERTEX
  5
12FA
  8
0
 10
225.0
 20
58.0
 30
34.0
 70
    64
  0
VERTEX
  5
12FB
  8
0
 10
224.64706
 20
58.0
 30
31.4118
 70
    64
  0
VERTEX
  5
12FC
  8
0
 10
223.64706
 20
58.0
 30
29.0294
 70
    64
  0
VERTEX
  5
12FD
  8
0
 10
222.05882
 20
58.0
 30
26.9412
 70
    64
  0
VERTEX
  5
12FE
  8
0
 10
219.97059
 20
58.0
 30
25.3529
 70
    64
  0
VERTEX
  5
12FF
  8
0
 10
217.5882
 20
58.0
 30
24.3529
 70
    64
  0
VERTEX
  5
1300
  8
0
 10
215.0
 20
58.0
 30
24.0
 70
    64
  0
VERTEX
  5
1301
  8
0
 10
229.0
 20
58.0
 30
34.0
 70
    64
  0
VERTEX
  5
1302
  8
0
 10
228.5059
 20
58.0
 30
30.3765
 70
    64
  0
VERTEX
  5
1303
  8
0
 10
227.1059
 20
58.0
 30
27.0412
 70
    64
  0
VERTEX
  5
1304
  8
0
 10
224.8823
 20
58.0
 30
24.1176
 70
    64
  0
VERTEX
  5
1305
  8
0
 10
221.9588
 20
58.0
 30
21.8941
 70
    64
  0
VERTEX
  5
1306
  8
0
 10
218.6235
 20
58.0
 30
20.4941
 70
    64
  0
VERTEX
  5
1307
  8
0
 10
215.0
 20
58.0
 30
20.0
 70
    64
  0
SEQEND
  5
1308
  8
0
  0
POLYLINE
  5
1309
  8
0
 66
     1
 10
0.0
 20
0.0
 30
0.0
 70
    16
 71
     3
 72
     7
  0
VERTEX
  5
130A
  8
0
 10
140.0
 20
21.0
 30
12.0
 70
    64
  0
VERTEX
  5
130B
  8
0
 10
140.0
 20
21.0
 30
12.0
 70
    64
  0
VERTEX
  5
130C
  8
0
 10
140.0
 20
21.0
 30
12.0
 70
    64
  0
VERTEX
  5
130D
  8
0
 10
140.0
 20
21.0
 30
12.0
 70
    64
  0
VERTEX
  5
130E
  8
0
 10
140.0
 20
21.0
 30
12.0
 70
    64
  0
VERTEX
  5
130F
  8
0
 10
140.0
 20
21.0
 30
12.0
 70
    64
  0
VERTEX
  5
1310
  8
0
 10
140.0
 20
21.0
 30
12.0
 70
    64
  0
VERTEX
  5
1311
  8
0
 10
140.0
 20
11.0
 30
12.0
 70
    64
  0
VERTEX
  5
1312
  8
0
 10
142.6
 20
11.4
 30
12.0
 70
    64
  0
VERTEX
  5
1313
  8
0
 10
145.0
 20
12.3
 30
12.0
 70
    64
  0
VERTEX
  5
1314
  8
0
 10
147.1
 20
13.9
 30
12.0
 70
    64
  0
VERTEX
  5
1315
  8
0
 10
148.7
 20
16.0
 30
12.0
 70
    64
  0
VERTEX
  5
1316
  8
0
 10
149.6
 20
18.4
 30
12.0
 70
    64
  0
VERTEX
  5
1317
  8
0
 10
150.0
 20
21.0
 30
12.0
 70
    64
  0
VERTEX
  5
1318
  8
0
 10
140.0
 20
11.0
 30
16.0
 70
    64
  0
VERTEX
  5
1319
  8
0
 10
142.6
 20
11.4
 30
16.0
 70
    64
  0
VERTEX
  5
131A
  8
0
 10
145.0
 20
12.3
 30
16.0
 70
    64
  0
VERTEX
  5
131B
  8
0
 10
147.1
 20
13.9
 30
16.0
 70
    64
  0
VERTEX
  5
131C
  8
0
 10
148.7
 20
16.0
 30
16.0
 70
    64
  0
VERTEX
  5
131D
  8
0
 10
149.6
 20
18.4
 30
16.0
 70
    64
  0
VERTEX
  5
131E
  8
0
 10
150.0
 20
21.0
 30
16.0
 70
    64
  0
SEQEND
  5
131F
  8
0
  0
POLYLINE
  5
1320
  8
0
 66
     1
 10
0.0
 20
0.0
 30
0.0
 70
    16
 71
     3
 72
     7
  0
VERTEX
  5
1321
  8
0
 10
140.0
 20
21.0
 30
12.0
 70
    64
  0
VERTEX
  5
1322
  8
0
 10
140.0
 20
21.0
 30
12.0
 70
    64
  0
VERTEX
  5
1323
  8
0
 10
140.0
 20
21.0
 30
12.0
 70
    64
  0
VERTEX
  5
1324
  8
0
 10
140.0
 20
21.0
 30
12.0
 70
    64
  0
VERTEX
  5
1325
  8
0
 10
140.0
 20
21.0
 30
12.0
 70
    64
  0
VERTEX
  5
1326
  8
0
 10
140.0
 20
21.0
 30
12.0
 70
    64
  0
VERTEX
  5
1327
  8
0
 10
140.0
 20
21.0
 30
12.0
 70
    64
  0
VERTEX
  5
1328
  8
0
 10
140.0
 20
31.0
 30
12.0
 70
    64
  0
VERTEX
  5
1329
  8
0
 10
142.6
 20
30.6
 30
12.0
 70
    64
  0
VERTEX
  5
132A
  8
0
 10
145.0
 20
29.7
 30
12.0
 70
    64
  0
VERTEX
  5
132B
  8
0
 10
147.1
 20
28.1
 30
12.0
 70
    64
  0
VERTEX
  5
132C
  8
0
 10
148.7
 20
26.0
 30
12.0
 70
    64
  0
VERTEX
  5
132D
  8
0
 10
149.6
 20
23.6
 30
12.0
 70
    64
  0
VERTEX
  5
132E
  8
0
 10
150.0
 20
21.0
 30
12.0
 70
    64
  0
VERTEX
  5
132F
  8
0
 10
140.0
 20
31.0
 30
16.0
 70
    64
  0
VERTEX
  5
1330
  8
0
 10
142.6
 20
30.6
 30
16.0
 70
    64
  0
VERTEX
  5
1331
  8
0
 10
145.0
 20
29.7
 30
16.0
 70
    64
  0
VERTEX
  5
1332
  8
0
 10
147.1
 20
28.1
 30
16.0
 70
    64
  0
VERTEX
  5
1333
  8
0
 10
148.7
 20
26.0
 30
16.0
 70
    64
  0
VERTEX
  5
1334
  8
0
 10
149.6
 20
23.6
 30
16.0
 70
    64
  0
VERTEX
  5
1335
  8
0
 10
150.0
 20
21.0
 30
16.0
 70
    64
  0
SEQEND
  5
1336
  8
0
  0
POLYLINE
  5
1337
  8
0
 66
     1
 10
0.0
 20
0.0
 30
0.0
 70
    16
 71
     2
 72
     7
  0
VERTEX
  5
1338
  8
0
 10
265.0
 20
1.0
 30
34.0
 70
    64
  0
VERTEX
  5
1339
  8
0
 10
264.7
 20
1.0
 30
32.7
 70
    64
  0
VERTEX
  5
133A
  8
0
 10
264.1
 20
1.0
 30
31.5
 70
    64
  0
VERTEX
  5
133B
  8
0
 10
262.9
 20
1.0
 30
30.5
 70
    64
  0
VERTEX
  5
133C
  8
0
 10
261.5
 20
1.0
 30
29.7
 70
    64
  0
VERTEX
  5
133D
  8
0
 10
259.8
 20
1.0
 30
29.2
 70
    64
  0
VERTEX
  5
133E
  8
0
 10
258.0
 20
1.0
 30
29.0
 70
    64
  0
VERTEX
  5
133F
  8
0
 10
265.0
 20
-2.0
 30
34.0
 70
    64
  0
VERTEX
  5
1340
  8
0
 10
264.7
 20
-2.0
 30
32.7
 70
    64
  0
VERTEX
  5
1341
  8
0
 10
264.1
 20
-2.0
 30
31.5
 70
    64
  0
VERTEX
  5
1342
  8
0
 10
262.9
 20
-2.0
 30
30.5
 70
    64
  0
VERTEX
  5
1343
  8
0
 10
261.5
 20
-2.0
 30
29.7
 70
    64
  0
VERTEX
  5
1344
  8
0
 10
259.8
 20
-2.0
 30
29.2
 70
    64
  0
VERTEX
  5
1345
  8
0
 10
258.0
 20
-2.0
 30
29.0
 70
    64
  0
SEQEND
  5
1346
  8
0
  0
POLYLINE
  5
1347
  8
0
 66
     1
 10
0.0
 20
0.0
 30
0.0
 70
    16
 71
     2
 72
     7
  0
VERTEX
  5
1348
  8
0
 10
251.0
 20
1.0
 30
34.0
 70
    64
  0
VERTEX
  5
1349
  8
0
 10
251.3
 20
1.0
 30
32.7
 70
    64
  0
VERTEX
  5
134A
  8
0
 10
251.9
 20
1.0
 30
31.5
 70
    64
  0
VERTEX
  5
134B
  8
0
 10
253.1
 20
1.0
 30
30.5
 70
    64
  0
VERTEX
  5
134C
  8
0
 10
254.5
 20
1.0
 30
29.7
 70
    64
  0
VERTEX
  5
134D
  8
0
 10
256.2
 20
1.0
 30
29.2
 70
    64
  0
VERTEX
  5
134E
  8
0
 10
258.0
 20
1.0
 30
29.0
 70
    64
  0
VERTEX
  5
134F
  8
0
 10
251.0
 20
-2.0
 30
34.0
 70
    64
  0
VERTEX
  5
1350
  8
0
 10
251.3
 20
-2.0
 30
32.7
 70
    64
  0
VERTEX
  5
1351
  8
0
 10
251.9
 20
-2.0
 30
31.5
 70
    64
  0
VERTEX
  5
1352
  8
0
 10
253.1
 20
-2.0
 30
30.5
 70
    64
  0
VERTEX
  5
1353
  8
0
 10
254.5
 20
-2.0
 30
29.7
 70
    64
  0
VERTEX
  5
1354
  8
0
 10
256.2
 20
-2.0
 30
29.2
 70
    64
  0
VERTEX
  5
1355
  8
0
 10
258.0
 20
-2.0
 30
29.0
 70
    64
  0
SEQEND
  5
1356
  8
0
  0
POLYLINE
  5
1357
  8
0
 66
     1
 10
0.0
 20
0.0
 30
0.0
 70
    16
 71
     2
 72
     7
  0
VERTEX
  5
1358
  8
0
 10
251.0
 20
1.0
 30
34.0
 70
    64
  0
VERTEX
  5
1359
  8
0
 10
251.3
 20
1.0
 30
35.3
 70
    64
  0
VERTEX
  5
135A
  8
0
 10
251.9
 20
1.0
 30
36.5
 70
    64
  0
VERTEX
  5
135B
  8
0
 10
253.1
 20
1.0
 30
37.5
 70
    64
  0
VERTEX
  5
135C
  8
0
 10
254.5
 20
1.0
 30
38.3
 70
    64
  0
VERTEX
  5
135D
  8
0
 10
256.2
 20
1.0
 30
38.8
 70
    64
  0
VERTEX
  5
135E
  8
0
 10
258.0
 20
1.0
 30
39.0
 70
    64
  0
VERTEX
  5
135F
  8
0
 10
251.0
 20
-2.0
 30
34.0
 70
    64
  0
VERTEX
  5
1360
  8
0
 10
251.3
 20
-2.0
 30
35.3
 70
    64
  0
VERTEX
  5
1361
  8
0
 10
251.9
 20
-2.0
 30
36.5
 70
    64
  0
VERTEX
  5
1362
  8
0
 10
253.1
 20
-2.0
 30
37.5
 70
    64
  0
VERTEX
  5
1363
  8
0
 10
254.5
 20
-2.0
 30
38.3
 70
    64
  0
VERTEX
  5
1364
  8
0
 10
256.2
 20
-2.0
 30
38.8
 70
    64
  0
VERTEX
  5
1365
  8
0
 10
258.0
 20
-2.0
 30
39.0
 70
    64
  0
SEQEND
  5
1366
  8
0
  0
POLYLINE
  5
1367
  8
0
 66
     1
 10
0.0
 20
0.0
 30
0.0
 70
    16
 71
     2
 72
     7
  0
VERTEX
  5
1368
  8
0
 10
265.0
 20
1.0
 30
34.0
 70
    64
  0
VERTEX
  5
1369
  8
0
 10
264.7
 20
1.0
 30
35.3
 70
    64
  0
VERTEX
  5
136A
  8
0
 10
264.1
 20
1.0
 30
36.5
 70
    64
  0
VERTEX
  5
136B
  8
0
 10
262.9
 20
1.0
 30
37.5
 70
    64
  0
VERTEX
  5
136C
  8
0
 10
261.5
 20
1.0
 30
38.3
 70
    64
  0
VERTEX
  5
136D
  8
0
 10
259.8
 20
1.0
 30
38.8
 70
    64
  0
VERTEX
  5
136E
  8
0
 10
258.0
 20
1.0
 30
39.0
 70
    64
  0
VERTEX
  5
136F
  8
0
 10
265.0
 20
-2.0
 30
34.0
 70
    64
  0
VERTEX
  5
1370
  8
0
 10
264.7
 20
-2.0
 30
35.3
 70
    64
  0
VERTEX
  5
1371
  8
0
 10
264.1
 20
-2.0
 30
36.5
 70
    64
  0
VERTEX
  5
1372
  8
0
 10
262.9
 20
-2.0
 30
37.5
 70
    64
  0
VERTEX
  5
1373
  8
0
 10
261.5
 20
-2.0
 30
38.3
 70
    64
  0
VERTEX
  5
1374
  8
0
 10
259.8
 20
-2.0
 30
38.8
 70
    64
  0
VERTEX
  5
1375
  8
0
 10
258.0
 20
-2.0
 30
39.0
 70
    64
  0
SEQEND
  5
1376
  8
0
  0
POLYLINE
  5
1377
  8
0
 66
     1
 10
0.0
 20
0.0
 30
0.0
 70
    16
 71
     4
 72
     7
  0
VERTEX
  5
1378
  8
0
 10
265.0
 20
-2.0
 30
34.0
 70
    64
  0
VERTEX
  5
1379
  8
0
 10
264.7
 20
-2.0
 30
32.7
 70
    64
  0
VERTEX
  5
137A
  8
0
 10
264.1
 20
-2.0
 30
31.5
 70
    64
  0
VERTEX
  5
137B
  8
0
 10
262.9
 20
-2.0
 30
30.5
 70
    64
  0
VERTEX
  5
137C
  8
0
 10
261.5
 20
-2.0
 30
29.7
 70
    64
  0
VERTEX
  5
137D
  8
0
 10
259.8
 20
-2.0
 30
29.2
 70
    64
  0
VERTEX
  5
137E
  8
0
 10
258.0
 20
-2.0
 30
29.0
 70
    64
  0
VERTEX
  5
137F
  8
0
 10
265.0
 20
-4.0
 30
34.0
 70
    64
  0
VERTEX
  5
1380
  8
0
 10
264.7
 20
-4.0
 30
32.7
 70
    64
  0
VERTEX
  5
1381
  8
0
 10
264.1
 20
-4.0
 30
31.5
 70
    64
  0
VERTEX
  5
1382
  8
0
 10
262.9
 20
-4.0
 30
30.5
 70
    64
  0
VERTEX
  5
1383
  8
0
 10
261.5
 20
-4.0
 30
29.7
 70
    64
  0
VERTEX
  5
1384
  8
0
 10
259.8
 20
-4.0
 30
29.2
 70
    64
  0
VERTEX
  5
1385
  8
0
 10
258.0
 20
-4.0
 30
29.0
 70
    64
  0
VERTEX
  5
1386
  8
0
 10
261.0
 20
-5.0
 30
34.0
 70
    64
  0
VERTEX
  5
1387
  8
0
 10
260.9
 20
-5.0
 30
33.5
 70
    64
  0
VERTEX
  5
1388
  8
0
 10
260.6
 20
-5.0
 30
33.0
 70
    64
  0
VERTEX
  5
1389
  8
0
 10
260.1
 20
-5.0
 30
32.6
 70
    64
  0
VERTEX
  5
138A
  8
0
 10
259.5
 20
-5.0
 30
32.3
 70
    64
  0
VERTEX
  5
138B
  8
0
 10
258.8
 20
-5.0
 30
32.1
 70
    64
  0
VERTEX
  5
138C
  8
0
 10
258.0
 20
-5.0
 30
32.0
 70
    64
  0
VERTEX
  5
138D
  8
0
 10
258.0
 20
-5.3
 30
34.0
 70
    64
  0
VERTEX
  5
138E
  8
0
 10
258.0
 20
-5.3
 30
34.0
 70
    64
  0
VERTEX
  5
138F
  8
0
 10
258.0
 20
-5.3
 30
34.0
 70
    64
  0
VERTEX
  5
1390
  8
0
 10
258.0
 20
-5.3
 30
34.0
 70
    64
  0
VERTEX
  5
1391
  8
0
 10
258.0
 20
-5.3
 30
34.0
 70
    64
  0
VERTEX
  5
1392
  8
0
 10
258.0
 20
-5.3
 30
34.0
 70
    64
  0
VERTEX
  5
1393
  8
0
 10
258.0
 20
-5.3
 30
34.0
 70
    64
  0
SEQEND
  5
1394
  8
0
  0
POLYLINE
  5
1395
  8
0
 66
     1
 10
0.0
 20
0.0
 30
0.0
 70
    16
 71
     4
 72
     7
  0
VERTEX
  5
1396
  8
0
 10
251.0
 20
-2.0
 30
34.0
 70
    64
  0
VERTEX
  5
1397
  8
0
 10
251.3
 20
-2.0
 30
32.7
 70
    64
  0
VERTEX
  5
1398
  8
0
 10
251.9
 20
-2.0
 30
31.5
 70
    64
  0
VERTEX
  5
1399
  8
0
 10
253.1
 20
-2.0
 30
30.5
 70
    64
  0
VERTEX
  5
139A
  8
0
 10
254.5
 20
-2.0
 30
29.7
 70
    64
  0
VERTEX
  5
139B
  8
0
 10
256.2
 20
-2.0
 30
29.2
 70
    64
  0
VERTEX
  5
139C
  8
0
 10
258.0
 20
-2.0
 30
29.0
 70
    64
  0
VERTEX
  5
139D
  8
0
 10
251.0
 20
-4.0
 30
34.0
 70
    64
  0
VERTEX
  5
139E
  8
0
 10
251.3
 20
-4.0
 30
32.7
 70
    64
  0
VERTEX
  5
139F
  8
0
 10
251.9
 20
-4.0
 30
31.5
 70
    64
  0
VERTEX
  5
13A0
  8
0
 10
253.1
 20
-4.0
 30
30.5
 70
    64
  0
VERTEX
  5
13A1
  8
0
 10
254.5
 20
-4.0
 30
29.7
 70
    64
  0
VERTEX
  5
13A2
  8
0
 10
256.2
 20
-4.0
 30
29.2
 70
    64
  0
VERTEX
  5
13A3
  8
0
 10
258.0
 20
-4.0
 30
29.0
 70
    64
  0
VERTEX
  5
13A4
  8
0
 10
255.0
 20
-5.0
 30
34.0
 70
    64
  0
VERTEX
  5
13A5
  8
0
 10
255.1
 20
-5.0
 30
33.5
 70
    64
  0
VERTEX
  5
13A6
  8
0
 10
255.4
 20
-5.0
 30
33.0
 70
    64
  0
VERTEX
  5
13A7
  8
0
 10
255.9
 20
-5.0
 30
32.6
 70
    64
  0
VERTEX
  5
13A8
  8
0
 10
256.5
 20
-5.0
 30
32.3
 70
    64
  0
VERTEX
  5
13A9
  8
0
 10
257.2
 20
-5.0
 30
32.1
 70
    64
  0
VERTEX
  5
13AA
  8
0
 10
258.0
 20
-5.0
 30
32.0
 70
    64
  0
VERTEX
  5
13AB
  8
0
 10
258.0
 20
-5.3
 30
34.0
 70
    64
  0
VERTEX
  5
13AC
  8
0
 10
258.0
 20
-5.3
 30
34.0
 70
    64
  0
VERTEX
  5
13AD
  8
0
 10
258.0
 20
-5.3
 30
34.0
 70
    64
  0
VERTEX
  5
13AE
  8
0
 10
258.0
 20
-5.3
 30
34.0
 70
    64
  0
VERTEX
  5
13AF
  8
0
 10
258.0
 20
-5.3
 30
34.0
 70
    64
  0
VERTEX
  5
13B0
  8
0
 10
258.0
 20
-5.3
 30
34.0
 70
    64
  0
VERTEX
  5
13B1
  8
0
 10
258.0
 20
-5.3
 30
34.0
 70
    64
  0
SEQEND
  5
13B2
  8
0
  0
POLYLINE
  5
13B3
  8
0
 66
     1
 10
0.0
 20
0.0
 30
0.0
 70
    16
 71
     4
 72
     7
  0
VERTEX
  5
13B4
  8
0
 10
265.0
 20
-2.0
 30
34.0
 70
    64
  0
VERTEX
  5
13B5
  8
0
 10
264.7
 20
-2.0
 30
35.3
 70
    64
  0
VERTEX
  5
13B6
  8
0
 10
264.1
 20
-2.0
 30
36.5
 70
    64
  0
VERTEX
  5
13B7
  8
0
 10
262.9
 20
-2.0
 30
37.5
 70
    64
  0
VERTEX
  5
13B8
  8
0
 10
261.5
 20
-2.0
 30
38.3
 70
    64
  0
VERTEX
  5
13B9
  8
0
 10
259.8
 20
-2.0
 30
38.8
 70
    64
  0
VERTEX
  5
13BA
  8
0
 10
258.0
 20
-2.0
 30
39.0
 70
    64
  0
VERTEX
  5
13BB
  8
0
 10
265.0
 20
-4.0
 30
34.0
 70
    64
  0
VERTEX
  5
13BC
  8
0
 10
264.7
 20
-4.0
 30
35.3
 70
    64
  0
VERTEX
  5
13BD
  8
0
 10
264.1
 20
-4.0
 30
36.5
 70
    64
  0
VERTEX
  5
13BE
  8
0
 10
262.9
 20
-4.0
 30
37.5
 70
    64
  0
VERTEX
  5
13BF
  8
0
 10
261.5
 20
-4.0
 30
38.3
 70
    64
  0
VERTEX
  5
13C0
  8
0
 10
259.8
 20
-4.0
 30
38.8
 70
    64
  0
VERTEX
  5
13C1
  8
0
 10
258.0
 20
-4.0
 30
39.0
 70
    64
  0
VERTEX
  5
13C2
  8
0
 10
261.0
 20
-5.0
 30
34.0
 70
    64
  0
VERTEX
  5
13C3
  8
0
 10
260.9
 20
-5.0
 30
34.5
 70
    64
  0
VERTEX
  5
13C4
  8
0
 10
260.6
 20
-5.0
 30
35.0
 70
    64
  0
VERTEX
  5
13C5
  8
0
 10
260.1
 20
-5.0
 30
35.4
 70
    64
  0
VERTEX
  5
13C6
  8
0
 10
259.5
 20
-5.0
 30
35.7
 70
    64
  0
VERTEX
  5
13C7
  8
0
 10
258.8
 20
-5.0
 30
35.9
 70
    64
  0
VERTEX
  5
13C8
  8
0
 10
258.0
 20
-5.0
 30
36.0
 70
    64
  0
VERTEX
  5
13C9
  8
0
 10
258.0
 20
-5.3
 30
34.0
 70
    64
  0
VERTEX
  5
13CA
  8
0
 10
258.0
 20
-5.3
 30
34.0
 70
    64
  0
VERTEX
  5
13CB
  8
0
 10
258.0
 20
-5.3
 30
34.0
 70
    64
  0
VERTEX
  5
13CC
  8
0
 10
258.0
 20
-5.3
 30
34.0
 70
    64
  0
VERTEX
  5
13CD
  8
0
 10
258.0
 20
-5.3
 30
34.0
 70
    64
  0
VERTEX
  5
13CE
  8
0
 10
258.0
 20
-5.3
 30
34.0
 70
    64
  0
VERTEX
  5
13CF
  8
0
 10
258.0
 20
-5.3
 30
34.0
 70
    64
  0
SEQEND
  5
13D0
  8
0
  0
POLYLINE
  5
13D1
  8
0
 66
     1
 10
0.0
 20
0.0
 30
0.0
 70
    16
 71
     4
 72
     7
  0
VERTEX
  5
13D2
  8
0
 10
251.0
 20
-2.0
 30
34.0
 70
    64
  0
VERTEX
  5
13D3
  8
0
 10
251.3
 20
-2.0
 30
35.3
 70
    64
  0
VERTEX
  5
13D4
  8
0
 10
251.9
 20
-2.0
 30
36.5
 70
    64
  0
VERTEX
  5
13D5
  8
0
 10
253.1
 20
-2.0
 30
37.5
 70
    64
  0
VERTEX
  5
13D6
  8
0
 10
254.5
 20
-2.0
 30
38.3
 70
    64
  0
VERTEX
  5
13D7
  8
0
 10
256.2
 20
-2.0
 30
38.8
 70
    64
  0
VERTEX
  5
13D8
  8
0
 10
258.0
 20
-2.0
 30
39.0
 70
    64
  0
VERTEX
  5
13D9
  8
0
 10
251.0
 20
-4.0
 30
34.0
 70
    64
  0
VERTEX
  5
13DA
  8
0
 10
251.3
 20
-4.0
 30
35.3
 70
    64
  0
VERTEX
  5
13DB
  8
0
 10
251.9
 20
-4.0
 30
36.5
 70
    64
  0
VERTEX
  5
13DC
  8
0
 10
253.1
 20
-4.0
 30
37.5
 70
    64
  0
VERTEX
  5
13DD
  8
0
 10
254.5
 20
-4.0
 30
38.3
 70
    64
  0
VERTEX
  5
13DE
  8
0
 10
256.2
 20
-4.0
 30
38.8
 70
    64
  0
VERTEX
  5
13DF
  8
0
 10
258.0
 20
-4.0
 30
39.0
 70
    64
  0
VERTEX
  5
13E0
  8
0
 10
255.0
 20
-5.0
 30
34.0
 70
    64
  0
VERTEX
  5
13E1
  8
0
 10
255.1
 20
-5.0
 30
34.5
 70
    64
  0
VERTEX
  5
13E2
  8
0
 10
255.4
 20
-5.0
 30
35.0
 70
    64
  0
VERTEX
  5
13E3
  8
0
 10
255.9
 20
-5.0
 30
35.4
 70
    64
  0
VERTEX
  5
13E4
  8
0
 10
256.5
 20
-5.0
 30
35.7
 70
    64
  0
VERTEX
  5
13E5
  8
0
 10
257.2
 20
-5.0
 30
35.9
 70
    64
  0
VERTEX
  5
13E6
  8
0
 10
258.0
 20
-5.0
 30
36.0
 70
    64
  0
VERTEX
  5
13E7
  8
0
 10
258.0
 20
-5.3
 30
34.0
 70
    64
  0
VERTEX
  5
13E8
  8
0
 10
258.0
 20
-5.3
 30
34.0
 70
    64
  0
VERTEX
  5
13E9
  8
0
 10
258.0
 20
-5.3
 30
34.0
 70
    64
  0
VERTEX
  5
13EA
  8
0
 10
258.0
 20
-5.3
 30
34.0
 70
    64
  0
VERTEX
  5
13EB
  8
0
 10
258.0
 20
-5.3
 30
34.0
 70
    64
  0
VERTEX
  5
13EC
  8
0
 10
258.0
 20
-5.3
 30
34.0
 70
    64
  0
VERTEX
  5
13ED
  8
0
 10
258.0
 20
-5.3
 30
34.0
 70
    64
  0
SEQEND
  5
13EE
  8
0
  0
ENDSEC
  0
EOF
