  0
SECTION
  2
HEADER
  9
$ACADVER
  1
AC1009
  9
$INSBASE
 10
0.0
 20
0.0
 30
0.0
  9
$EXTMIN
 10
0.0
 20
0.0
 30
0.0
  9
$EXTMAX
 10
179.0
 20
179.0
 30
120.0
  9
$LIMMIN
 10
0.0
 20
0.0
  9
$LIMMAX
 10
12.0
 20
9.0
  9
$ORTHOMODE
 70
     0
  9
$REGENMODE
 70
     1
  9
$FILLMODE
 70
     1
  9
$QTEXTMODE
 70
     0
  9
$MIRRTEXT
 70
     1
  9
$DRAGMODE
 70
     2
  9
$LTSCALE
 40
1.0
  9
$OSMODE
 70
     0
  9
$ATTMODE
 70
     1
  9
$TEXTSIZE
 40
0.2
  9
$TRACEWID
 40
0.05
  9
$TEXTSTYLE
  7
STANDARD
  9
$CLAYER
  8
0
  9
$CELTYPE
  6
BYLAYER
  9
$CECOLOR
 62
   256
  9
$DIMSCALE
 40
1.0
  9
$DIMASZ
 40
0.18
  9
$DIMEXO
 40
0.0625
  9
$DIMDLI
 40
0.38
  9
$DIMRND
 40
0.0
  9
$DIMDLE
 40
0.0
  9
$DIMEXE
 40
0.18
  9
$DIMTP
 40
0.0
  9
$DIMTM
 40
0.0
  9
$DIMTXT
 40
0.18
  9
$DIMCEN
 40
0.09
  9
$DIMTSZ
 40
0.0
  9
$DIMTOL
 70
     0
  9
$DIMLIM
 70
     0
  9
$DIMTIH
 70
     1
  9
$DIMTOH
 70
     1
  9
$DIMSE1
 70
     0
  9
$DIMSE2
 70
     0
  9
$DIMTAD
 70
     0
  9
$DIMZIN
 70
     0
  9
$DIMBLK
  1

  9
$DIMASO
 70
     1
  9
$DIMSHO
 70
     1
  9
$DIMPOST
  1

  9
$DIMAPOST
  1

  9
$DIMALT
 70
     0
  9
$DIMALTD
 70
     2
  9
$DIMALTF
 40
25.4
  9
$DIMLFAC
 40
1.0
  9
$DIMTOFL
 70
     0
  9
$DIMTVP
 40
0.0
  9
$DIMTIX
 70
     0
  9
$DIMSOXD
 70
     0
  9
$DIMSAH
 70
     0
  9
$DIMBLK1
  1

  9
$DIMBLK2
  1

  9
$DIMSTYLE
  2
STANDARD
  9
$DIMCLRD
 70
     0
  9
$DIMCLRE
 70
     0
  9
$DIMCLRT
 70
     0
  9
$DIMTFAC
 40
1.0
  9
$DIMGAP
 40
0.09
  9
$LUNITS
 70
     2
  9
$LUPREC
 70
     4
  9
$SKETCHINC
 40
0.1
  9
$FILLETRAD
 40
0.5
  9
$AUNITS
 70
     0
  9
$AUPREC
 70
     0
  9
$MENU
  1
.
  9
$ELEVATION
 40
0.0
  9
$PELEVATION
 40
0.0
  9
$THICKNESS
 40
0.0
  9
$LIMCHECK
 70
     0
  9
$BLIPMODE
 70
     0
  9
$CHAMFERA
 40
0.5
  9
$CHAMFERB
 40
0.5
  9
$SKPOLY
 70
     1
  9
$TDCREATE
 40
2452375.400349
  9
$TDUPDATE
 40
2452375.407026
  9
$TDINDWG
 40
0.006677
  9
$TDUSRTIMER
 40
0.006677
  9
$USRTIMER
 70
     1
  9
$ANGBASE
 50
0.0
  9
$ANGDIR
 70
     0
  9
$PDMODE
 70
     0
  9
$PDSIZE
 40
0.0
  9
$PLINEWID
 40
0.0
  9
$COORDS
 70
     1
  9
$SPLFRAME
 70
     0
  9
$SPLINETYPE
 70
     6
  9
$SPLINESEGS
 70
     8
  9
$ATTDIA
 70
     0
  9
$ATTREQ
 70
     1
  9
$HANDLING
 70
     1
  9
$HANDSEED
  5
151F
  9
$SURFTAB1
 70
     6
  9
$SURFTAB2
 70
     6
  9
$SURFTYPE
 70
     6
  9
$SURFU
 70
     6
  9
$SURFV
 70
     6
  9
$UCSNAME
  2

  9
$UCSORG
 10
0.0
 20
0.0
 30
0.0
  9
$UCSXDIR
 10
1.0
 20
0.0
 30
0.0
  9
$UCSYDIR
 10
0.0
 20
1.0
 30
0.0
  9
$PUCSNAME
  2

  9
$PUCSORG
 10
0.0
 20
0.0
 30
0.0
  9
$PUCSXDIR
 10
1.0
 20
0.0
 30
0.0
  9
$PUCSYDIR
 10
0.0
 20
1.0
 30
0.0
  9
$USERI1
 70
     0
  9
$USERI2
 70
     0
  9
$USERI3
 70
     0
  9
$USERI4
 70
     0
  9
$USERI5
 70
     0
  9
$USERR1
 40
0.0
  9
$USERR2
 40
0.0
  9
$USERR3
 40
0.0
  9
$USERR4
 40
0.0
  9
$USERR5
 40
0.0
  9
$WORLDVIEW
 70
     1
  9
$SHADEDGE
 70
     3
  9
$SHADEDIF
 70
    70
  9
$TILEMODE
 70
     1
  9
$MAXACTVP
 70
    48
  9
$PLIMCHECK
 70
     0
  9
$PEXTMIN
 10
1.000000E+020
 20
1.000000E+020
 30
1.000000E+020
  9
$PEXTMAX
 10
-1.000000E+020
 20
-1.000000E+020
 30
-1.000000E+020
  9
$PLIMMIN
 10
0.0
 20
0.0
  9
$PLIMMAX
 10
12.0
 20
9.0
  9
$UNITMODE
 70
     0
  9
$VISRETAIN
 70
     1
  9
$PLINEGEN
 70
     0
  9
$PSLTSCALE
 70
     1
  0
ENDSEC
  0
SECTION
  2
TABLES
  0
TABLE
  2
VPORT
 70
     4
  0
VPORT
  2
*ACTIVE
 70
     0
 10
0.0
 20
0.0
 11
1.0
 21
1.0
 12
126.572114
 22
48.989795
 13
0.0
 23
0.0
 14
0.5
 24
0.5
 15
0.5
 25
0.5
 16
1.0
 26
-1.0
 36
1.0
 17
0.0
 27
0.0
 37
0.0
 40
246.662348
 41
1.882353
 42
50.0
 43
0.0
 44
0.0
 50
0.0
 51
0.0
 71
     0
 72
   100
 73
     1
 74
     1
 75
     0
 76
     0
 77
     0
 78
     0
  0
ENDTAB
  0
TABLE
  2
LTYPE
 70
     1
  0
LTYPE
  2
CONTINUOUS
 70
     0
  3
Solid line
 72
    65
 73
     0
 40
0.0
  0
ENDTAB
  0
TABLE
  2
LAYER
 70
     1
  0
LAYER
  2
0
 70
     0
 62
     7
  6
CONTINUOUS
  0
ENDTAB
  0
TABLE
  2
STYLE
 70
     1
  0
STYLE
  2
STANDARD
 70
     0
 40
0.0
 41
1.0
 50
0.0
 71
     0
 42
0.2
  3
txt
  4

  0
ENDTAB
  0
TABLE
  2
VIEW
 70
     0
  0
ENDTAB
  0
TABLE
  2
UCS
 70
     0
  0
ENDTAB
  0
TABLE
  2
APPID
 70
     1
  0
APPID
  2
ACAD
 70
     0
  0
ENDTAB
  0
TABLE
  2
DIMSTYLE
 70
     1
  0
DIMSTYLE
  2
STANDARD
 70
     0
  3

  4

  5

  6

  7

 40
1.0
 41
0.18
 42
0.0625
 43
0.38
 44
0.18
 45
0.0
 46
0.0
 47
0.0
 48
0.0
140
0.18
141
0.09
142
0.0
143
25.4
144
1.0
145
0.0
146
1.0
147
0.09
 71
     0
 72
     0
 73
     1
 74
     1
 75
     0
 76
     0
 77
     0
 78
     0
170
     0
171
     2
172
     0
173
     0
174
     0
175
     0
176
     0
177
     0
178
     0
  0
ENDTAB
  0
ENDSEC
  0
SECTION
  2
BLOCKS
  0
BLOCK
  8
0
  2
$MODEL_SPACE
 70
     0
 10
0.0
 20
0.0
 30
0.0
  3
$MODEL_SPACE
  1

  0
ENDBLK
  5
1B
  8
0
  0
BLOCK
 67
     1
  8
0
  2
$PAPER_SPACE
 70
     0
 10
0.0
 20
0.0
 30
0.0
  3
$PAPER_SPACE
  1

  0
ENDBLK
  5
18
 67
     1
  8
0
  0
ENDSEC
  0
SECTION
  2
ENTITIES
  0
POLYLINE
  5
4D
  8
0
 66
     1
 10
0.0
 20
0.0
 30
0.0
 70
    16
 71
    12
 72
     7
  0
VERTEX
  5
4E
  8
0
 10
89.5
 20
89.5
 30
120.0
 70
    64
  0
VERTEX
  5
4F
  8
0
 10
89.5
 20
89.5
 30
120.0
 70
    64
  0
VERTEX
  5
50
  8
0
 10
89.5
 20
89.5
 30
120.0
 70
    64
  0
VERTEX
  5
51
  8
0
 10
89.5
 20
89.5
 30
120.0
 70
    64
  0
VERTEX
  5
52
  8
0
 10
89.5
 20
89.5
 30
120.0
 70
    64
  0
VERTEX
  5
53
  8
0
 10
89.5
 20
89.5
 30
120.0
 70
    64
  0
VERTEX
  5
54
  8
0
 10
89.5
 20
89.5
 30
120.0
 70
    64
  0
VERTEX
  5
55
  8
0
 10
58.0
 20
89.5
 30
120.0
 70
    64
  0
VERTEX
  5
56
  8
0
 10
58.3
 20
85.4
 30
120.0
 70
    64
  0
VERTEX
  5
57
  8
0
 10
59.1
 20
81.4
 30
120.0
 70
    64
  0
VERTEX
  5
58
  8
0
 10
60.4
 20
77.4
 30
120.0
 70
    64
  0
VERTEX
  5
59
  8
0
 10
62.2
 20
73.8
 30
120.0
 70
    64
  0
VERTEX
  5
5A
  8
0
 10
64.5
 20
70.3
 30
120.0
 70
    64
  0
VERTEX
  5
5B
  8
0
 10
67.3
 20
67.3
 30
120.0
 70
    64
  0
VERTEX
  5
5C
  8
0
 10
58.0
 20
89.5
 30
117.0
 70
    64
  0
VERTEX
  5
5D
  8
0
 10
58.3
 20
85.4
 30
117.0
 70
    64
  0
VERTEX
  5
5E
  8
0
 10
59.1
 20
81.4
 30
117.0
 70
    64
  0
VERTEX
  5
5F
  8
0
 10
60.4
 20
77.4
 30
117.0
 70
    64
  0
VERTEX
  5
60
  8
0
 10
62.2
 20
73.8
 30
117.0
 70
    64
  0
VERTEX
  5
61
  8
0
 10
64.5
 20
70.3
 30
117.0
 70
    64
  0
VERTEX
  5
62
  8
0
 10
67.3
 20
67.3
 30
117.0
 70
    64
  0
VERTEX
  5
63
  8
0
 10
76.0
 20
89.5
 30
115.0
 70
    64
  0
VERTEX
  5
64
  8
0
 10
76.1
 20
87.7
 30
115.0
 70
    64
  0
VERTEX
  5
65
  8
0
 10
76.5
 20
86.0
 30
115.0
 70
    64
  0
VERTEX
  5
66
  8
0
 10
77.0
 20
84.3
 30
115.0
 70
    64
  0
VERTEX
  5
67
  8
0
 10
77.8
 20
82.8
 30
115.0
 70
    64
  0
VERTEX
  5
68
  8
0
 10
78.8
 20
81.3
 30
115.0
 70
    64
  0
VERTEX
  5
69
  8
0
 10
80.0
 20
80.0
 30
115.0
 70
    64
  0
VERTEX
  5
6A
  8
0
 10
76.0
 20
89.5
 30
15.0
 70
    64
  0
VERTEX
  5
6B
  8
0
 10
76.1
 20
87.7
 30
15.0
 70
    64
  0
VERTEX
  5
6C
  8
0
 10
76.5
 20
86.0
 30
15.0
 70
    64
  0
VERTEX
  5
6D
  8
0
 10
77.0
 20
84.3
 30
15.0
 70
    64
  0
VERTEX
  5
6E
  8
0
 10
77.8
 20
82.8
 30
15.0
 70
    64
  0
VERTEX
  5
6F
  8
0
 10
78.8
 20
81.3
 30
15.0
 70
    64
  0
VERTEX
  5
70
  8
0
 10
80.0
 20
80.0
 30
15.0
 70
    64
  0
VERTEX
  5
71
  8
0
 10
58.0
 20
89.5
 30
15.0
 70
    64
  0
VERTEX
  5
72
  8
0
 10
58.3
 20
85.4
 30
15.0
 70
    64
  0
VERTEX
  5
73
  8
0
 10
59.1
 20
81.4
 30
15.0
 70
    64
  0
VERTEX
  5
74
  8
0
 10
60.4
 20
77.4
 30
15.0
 70
    64
  0
VERTEX
  5
75
  8
0
 10
62.2
 20
73.8
 30
15.0
 70
    64
  0
VERTEX
  5
76
  8
0
 10
64.5
 20
70.3
 30
15.0
 70
    64
  0
VERTEX
  5
77
  8
0
 10
67.3
 20
67.3
 30
15.0
 70
    64
  0
VERTEX
  5
78
  8
0
 10
58.0
 20
89.5
 30
14.0
 70
    64
  0
VERTEX
  5
79
  8
0
 10
58.3
 20
85.4
 30
14.0
 70
    64
  0
VERTEX
  5
7A
  8
0
 10
59.1
 20
81.4
 30
14.0
 70
    64
  0
VERTEX
  5
7B
  8
0
 10
60.4
 20
77.4
 30
14.0
 70
    64
  0
VERTEX
  5
7C
  8
0
 10
62.2
 20
73.8
 30
14.0
 70
    64
  0
VERTEX
  5
7D
  8
0
 10
64.5
 20
70.3
 30
14.0
 70
    64
  0
VERTEX
  5
7E
  8
0
 10
67.3
 20
67.3
 30
14.0
 70
    64
  0
VERTEX
  5
7F
  8
0
 10
36.0
 20
89.5
 30
14.0
 70
    64
  0
VERTEX
  5
80
  8
0
 10
36.5
 20
82.5
 30
14.0
 70
    64
  0
VERTEX
  5
81
  8
0
 10
37.9
 20
75.7
 30
14.0
 70
    64
  0
VERTEX
  5
82
  8
0
 10
40.1
 20
69.0
 30
14.0
 70
    64
  0
VERTEX
  5
83
  8
0
 10
43.1
 20
62.8
 30
14.0
 70
    64
  0
VERTEX
  5
84
  8
0
 10
47.1
 20
57.0
 30
14.0
 70
    64
  0
VERTEX
  5
85
  8
0
 10
51.7
 20
51.7
 30
14.0
 70
    64
  0
VERTEX
  5
86
  8
0
 10
36.0
 20
89.5
 30
12.0
 70
    64
  0
VERTEX
  5
87
  8
0
 10
36.5
 20
82.5
 30
12.0
 70
    64
  0
VERTEX
  5
88
  8
0
 10
37.9
 20
75.7
 30
12.0
 70
    64
  0
VERTEX
  5
89
  8
0
 10
40.1
 20
69.0
 30
12.0
 70
    64
  0
VERTEX
  5
8A
  8
0
 10
43.1
 20
62.8
 30
12.0
 70
    64
  0
VERTEX
  5
8B
  8
0
 10
47.1
 20
57.0
 30
12.0
 70
    64
  0
VERTEX
  5
8C
  8
0
 10
51.7
 20
51.7
 30
12.0
 70
    64
  0
VERTEX
  5
8D
  8
0
 10
0.0
 20
89.5
 30
12.0
 70
    64
  0
VERTEX
  5
8E
  8
0
 10
0.8
 20
77.8
 30
12.0
 70
    64
  0
VERTEX
  5
8F
  8
0
 10
3.2
 20
66.4
 30
12.0
 70
    64
  0
VERTEX
  5
90
  8
0
 10
6.9
 20
55.3
 30
12.0
 70
    64
  0
VERTEX
  5
91
  8
0
 10
11.9
 20
44.9
 30
12.0
 70
    64
  0
VERTEX
  5
92
  8
0
 10
18.6
 20
35.1
 30
12.0
 70
    64
  0
VERTEX
  5
93
  8
0
 10
26.2
 20
26.2
 30
12.0
 70
    64
  0
VERTEX
  5
94
  8
0
 10
0.0
 20
89.5
 30
2.0
 70
    64
  0
VERTEX
  5
95
  8
0
 10
0.8
 20
77.8
 30
2.0
 70
    64
  0
VERTEX
  5
96
  8
0
 10
3.2
 20
66.4
 30
2.0
 70
    64
  0
VERTEX
  5
97
  8
0
 10
6.9
 20
55.3
 30
2.0
 70
    64
  0
VERTEX
  5
98
  8
0
 10
11.9
 20
44.9
 30
2.0
 70
    64
  0
VERTEX
  5
99
  8
0
 10
18.6
 20
35.1
 30
2.0
 70
    64
  0
VERTEX
  5
9A
  8
0
 10
26.2
 20
26.2
 30
2.0
 70
    64
  0
VERTEX
  5
9B
  8
0
 10
89.5
 20
89.5
 30
2.0
 70
    64
  0
VERTEX
  5
9C
  8
0
 10
89.5
 20
89.5
 30
2.0
 70
    64
  0
VERTEX
  5
9D
  8
0
 10
89.5
 20
89.5
 30
2.0
 70
    64
  0
VERTEX
  5
9E
  8
0
 10
89.5
 20
89.5
 30
2.0
 70
    64
  0
VERTEX
  5
9F
  8
0
 10
89.5
 20
89.5
 30
2.0
 70
    64
  0
VERTEX
  5
A0
  8
0
 10
89.5
 20
89.5
 30
2.0
 70
    64
  0
VERTEX
  5
A1
  8
0
 10
89.5
 20
89.5
 30
2.0
 70
    64
  0
SEQEND
  5
A2
  8
0
  0
POLYLINE
  5
A3
  8
0
 66
     1
 10
0.0
 20
0.0
 30
0.0
 70
    16
 71
    12
 72
     7
  0
VERTEX
  5
A4
  8
0
 10
89.5
 20
89.5
 30
120.0
 70
    64
  0
VERTEX
  5
A5
  8
0
 10
89.5
 20
89.5
 30
120.0
 70
    64
  0
VERTEX
  5
A6
  8
0
 10
89.5
 20
89.5
 30
120.0
 70
    64
  0
VERTEX
  5
A7
  8
0
 10
89.5
 20
89.5
 30
120.0
 70
    64
  0
VERTEX
  5
A8
  8
0
 10
89.5
 20
89.5
 30
120.0
 70
    64
  0
VERTEX
  5
A9
  8
0
 10
89.5
 20
89.5
 30
120.0
 70
    64
  0
VERTEX
  5
AA
  8
0
 10
89.5
 20
89.5
 30
120.0
 70
    64
  0
VERTEX
  5
AB
  8
0
 10
89.5
 20
58.0
 30
120.0
 70
    64
  0
VERTEX
  5
AC
  8
0
 10
85.4
 20
58.3
 30
120.0
 70
    64
  0
VERTEX
  5
AD
  8
0
 10
81.4
 20
59.1
 30
120.0
 70
    64
  0
VERTEX
  5
AE
  8
0
 10
77.4
 20
60.4
 30
120.0
 70
    64
  0
VERTEX
  5
AF
  8
0
 10
73.8
 20
62.2
 30
120.0
 70
    64
  0
VERTEX
  5
B0
  8
0
 10
70.3
 20
64.5
 30
120.0
 70
    64
  0
VERTEX
  5
B1
  8
0
 10
67.3
 20
67.3
 30
120.0
 70
    64
  0
VERTEX
  5
B2
  8
0
 10
89.5
 20
58.0
 30
117.0
 70
    64
  0
VERTEX
  5
B3
  8
0
 10
85.4
 20
58.3
 30
117.0
 70
    64
  0
VERTEX
  5
B4
  8
0
 10
81.4
 20
59.1
 30
117.0
 70
    64
  0
VERTEX
  5
B5
  8
0
 10
77.4
 20
60.4
 30
117.0
 70
    64
  0
VERTEX
  5
B6
  8
0
 10
73.8
 20
62.2
 30
117.0
 70
    64
  0
VERTEX
  5
B7
  8
0
 10
70.3
 20
64.5
 30
117.0
 70
    64
  0
VERTEX
  5
B8
  8
0
 10
67.3
 20
67.3
 30
117.0
 70
    64
  0
VERTEX
  5
B9
  8
0
 10
89.5
 20
76.0
 30
115.0
 70
    64
  0
VERTEX
  5
BA
  8
0
 10
87.7
 20
76.1
 30
115.0
 70
    64
  0
VERTEX
  5
BB
  8
0
 10
86.0
 20
76.5
 30
115.0
 70
    64
  0
VERTEX
  5
BC
  8
0
 10
84.3
 20
77.0
 30
115.0
 70
    64
  0
VERTEX
  5
BD
  8
0
 10
82.8
 20
77.8
 30
115.0
 70
    64
  0
VERTEX
  5
BE
  8
0
 10
81.3
 20
78.8
 30
115.0
 70
    64
  0
VERTEX
  5
BF
  8
0
 10
80.0
 20
80.0
 30
115.0
 70
    64
  0
VERTEX
  5
C0
  8
0
 10
89.5
 20
76.0
 30
15.0
 70
    64
  0
VERTEX
  5
C1
  8
0
 10
87.7
 20
76.1
 30
15.0
 70
    64
  0
VERTEX
  5
C2
  8
0
 10
86.0
 20
76.5
 30
15.0
 70
    64
  0
VERTEX
  5
C3
  8
0
 10
84.3
 20
77.0
 30
15.0
 70
    64
  0
VERTEX
  5
C4
  8
0
 10
82.8
 20
77.8
 30
15.0
 70
    64
  0
VERTEX
  5
C5
  8
0
 10
81.3
 20
78.8
 30
15.0
 70
    64
  0
VERTEX
  5
C6
  8
0
 10
80.0
 20
80.0
 30
15.0
 70
    64
  0
VERTEX
  5
C7
  8
0
 10
89.5
 20
58.0
 30
15.0
 70
    64
  0
VERTEX
  5
C8
  8
0
 10
85.4
 20
58.3
 30
15.0
 70
    64
  0
VERTEX
  5
C9
  8
0
 10
81.4
 20
59.1
 30
15.0
 70
    64
  0
VERTEX
  5
CA
  8
0
 10
77.4
 20
60.4
 30
15.0
 70
    64
  0
VERTEX
  5
CB
  8
0
 10
73.8
 20
62.2
 30
15.0
 70
    64
  0
VERTEX
  5
CC
  8
0
 10
70.3
 20
64.5
 30
15.0
 70
    64
  0
VERTEX
  5
CD
  8
0
 10
67.3
 20
67.3
 30
15.0
 70
    64
  0
VERTEX
  5
CE
  8
0
 10
89.5
 20
58.0
 30
14.0
 70
    64
  0
VERTEX
  5
CF
  8
0
 10
85.4
 20
58.3
 30
14.0
 70
    64
  0
VERTEX
  5
D0
  8
0
 10
81.4
 20
59.1
 30
14.0
 70
    64
  0
VERTEX
  5
D1
  8
0
 10
77.4
 20
60.4
 30
14.0
 70
    64
  0
VERTEX
  5
D2
  8
0
 10
73.8
 20
62.2
 30
14.0
 70
    64
  0
VERTEX
  5
D3
  8
0
 10
70.3
 20
64.5
 30
14.0
 70
    64
  0
VERTEX
  5
D4
  8
0
 10
67.3
 20
67.3
 30
14.0
 70
    64
  0
VERTEX
  5
D5
  8
0
 10
89.5
 20
36.0
 30
14.0
 70
    64
  0
VERTEX
  5
D6
  8
0
 10
82.5
 20
36.5
 30
14.0
 70
    64
  0
VERTEX
  5
D7
  8
0
 10
75.7
 20
37.9
 30
14.0
 70
    64
  0
VERTEX
  5
D8
  8
0
 10
69.0
 20
40.1
 30
14.0
 70
    64
  0
VERTEX
  5
D9
  8
0
 10
62.8
 20
43.1
 30
14.0
 70
    64
  0
VERTEX
  5
DA
  8
0
 10
57.0
 20
47.1
 30
14.0
 70
    64
  0
VERTEX
  5
DB
  8
0
 10
51.7
 20
51.7
 30
14.0
 70
    64
  0
VERTEX
  5
DC
  8
0
 10
89.5
 20
36.0
 30
12.0
 70
    64
  0
VERTEX
  5
DD
  8
0
 10
82.5
 20
36.5
 30
12.0
 70
    64
  0
VERTEX
  5
DE
  8
0
 10
75.7
 20
37.9
 30
12.0
 70
    64
  0
VERTEX
  5
DF
  8
0
 10
69.0
 20
40.1
 30
12.0
 70
    64
  0
VERTEX
  5
E0
  8
0
 10
62.8
 20
43.1
 30
12.0
 70
    64
  0
VERTEX
  5
E1
  8
0
 10
57.0
 20
47.1
 30
12.0
 70
    64
  0
VERTEX
  5
E2
  8
0
 10
51.7
 20
51.7
 30
12.0
 70
    64
  0
VERTEX
  5
E3
  8
0
 10
89.5
 20
0.0
 30
12.0
 70
    64
  0
VERTEX
  5
E4
  8
0
 10
77.8
 20
0.8
 30
12.0
 70
    64
  0
VERTEX
  5
E5
  8
0
 10
66.4
 20
3.2
 30
12.0
 70
    64
  0
VERTEX
  5
E6
  8
0
 10
55.3
 20
6.9
 30
12.0
 70
    64
  0
VERTEX
  5
E7
  8
0
 10
44.9
 20
11.9
 30
12.0
 70
    64
  0
VERTEX
  5
E8
  8
0
 10
35.1
 20
18.6
 30
12.0
 70
    64
  0
VERTEX
  5
E9
  8
0
 10
26.2
 20
26.2
 30
12.0
 70
    64
  0
VERTEX
  5
EA
  8
0
 10
89.5
 20
0.0
 30
2.0
 70
    64
  0
VERTEX
  5
EB
  8
0
 10
77.8
 20
0.8
 30
2.0
 70
    64
  0
VERTEX
  5
EC
  8
0
 10
66.4
 20
3.2
 30
2.0
 70
    64
  0
VERTEX
  5
ED
  8
0
 10
55.3
 20
6.9
 30
2.0
 70
    64
  0
VERTEX
  5
EE
  8
0
 10
44.9
 20
11.9
 30
2.0
 70
    64
  0
VERTEX
  5
EF
  8
0
 10
35.1
 20
18.6
 30
2.0
 70
    64
  0
VERTEX
  5
F0
  8
0
 10
26.2
 20
26.2
 30
2.0
 70
    64
  0
VERTEX
  5
F1
  8
0
 10
89.5
 20
89.5
 30
2.0
 70
    64
  0
VERTEX
  5
F2
  8
0
 10
89.5
 20
89.5
 30
2.0
 70
    64
  0
VERTEX
  5
F3
  8
0
 10
89.5
 20
89.5
 30
2.0
 70
    64
  0
VERTEX
  5
F4
  8
0
 10
89.5
 20
89.5
 30
2.0
 70
    64
  0
VERTEX
  5
F5
  8
0
 10
89.5
 20
89.5
 30
2.0
 70
    64
  0
VERTEX
  5
F6
  8
0
 10
89.5
 20
89.5
 30
2.0
 70
    64
  0
VERTEX
  5
F7
  8
0
 10
89.5
 20
89.5
 30
2.0
 70
    64
  0
SEQEND
  5
F8
  8
0
  0
POLYLINE
  5
F9
  8
0
 66
     1
 10
0.0
 20
0.0
 30
0.0
 70
    16
 71
    12
 72
     7
  0
VERTEX
  5
FA
  8
0
 10
89.5
 20
89.5
 30
120.0
 70
    64
  0
VERTEX
  5
FB
  8
0
 10
89.5
 20
89.5
 30
120.0
 70
    64
  0
VERTEX
  5
FC
  8
0
 10
89.5
 20
89.5
 30
120.0
 70
    64
  0
VERTEX
  5
FD
  8
0
 10
89.5
 20
89.5
 30
120.0
 70
    64
  0
VERTEX
  5
FE
  8
0
 10
89.5
 20
89.5
 30
120.0
 70
    64
  0
VERTEX
  5
FF
  8
0
 10
89.5
 20
89.5
 30
120.0
 70
    64
  0
VERTEX
  5
100
  8
0
 10
89.5
 20
89.5
 30
120.0
 70
    64
  0
VERTEX
  5
101
  8
0
 10
89.5
 20
58.0
 30
120.0
 70
    64
  0
VERTEX
  5
102
  8
0
 10
93.6
 20
58.3
 30
120.0
 70
    64
  0
VERTEX
  5
103
  8
0
 10
97.6
 20
59.1
 30
120.0
 70
    64
  0
VERTEX
  5
104
  8
0
 10
101.6
 20
60.4
 30
120.0
 70
    64
  0
VERTEX
  5
105
  8
0
 10
105.2
 20
62.2
 30
120.0
 70
    64
  0
VERTEX
  5
106
  8
0
 10
108.7
 20
64.5
 30
120.0
 70
    64
  0
VERTEX
  5
107
  8
0
 10
111.7
 20
67.3
 30
120.0
 70
    64
  0
VERTEX
  5
108
  8
0
 10
89.5
 20
58.0
 30
117.0
 70
    64
  0
VERTEX
  5
109
  8
0
 10
93.6
 20
58.3
 30
117.0
 70
    64
  0
VERTEX
  5
10A
  8
0
 10
97.6
 20
59.1
 30
117.0
 70
    64
  0
VERTEX
  5
10B
  8
0
 10
101.6
 20
60.4
 30
117.0
 70
    64
  0
VERTEX
  5
10C
  8
0
 10
105.2
 20
62.2
 30
117.0
 70
    64
  0
VERTEX
  5
10D
  8
0
 10
108.7
 20
64.5
 30
117.0
 70
    64
  0
VERTEX
  5
10E
  8
0
 10
111.7
 20
67.3
 30
117.0
 70
    64
  0
VERTEX
  5
10F
  8
0
 10
89.5
 20
76.0
 30
115.0
 70
    64
  0
VERTEX
  5
110
  8
0
 10
91.3
 20
76.1
 30
115.0
 70
    64
  0
VERTEX
  5
111
  8
0
 10
93.0
 20
76.5
 30
115.0
 70
    64
  0
VERTEX
  5
112
  8
0
 10
94.7
 20
77.0
 30
115.0
 70
    64
  0
VERTEX
  5
113
  8
0
 10
96.2
 20
77.8
 30
115.0
 70
    64
  0
VERTEX
  5
114
  8
0
 10
97.7
 20
78.8
 30
115.0
 70
    64
  0
VERTEX
  5
115
  8
0
 10
99.0
 20
80.0
 30
115.0
 70
    64
  0
VERTEX
  5
116
  8
0
 10
89.5
 20
76.0
 30
15.0
 70
    64
  0
VERTEX
  5
117
  8
0
 10
91.3
 20
76.1
 30
15.0
 70
    64
  0
VERTEX
  5
118
  8
0
 10
93.0
 20
76.5
 30
15.0
 70
    64
  0
VERTEX
  5
119
  8
0
 10
94.7
 20
77.0
 30
15.0
 70
    64
  0
VERTEX
  5
11A
  8
0
 10
96.2
 20
77.8
 30
15.0
 70
    64
  0
VERTEX
  5
11B
  8
0
 10
97.7
 20
78.8
 30
15.0
 70
    64
  0
VERTEX
  5
11C
  8
0
 10
99.0
 20
80.0
 30
15.0
 70
    64
  0
VERTEX
  5
11D
  8
0
 10
89.5
 20
58.0
 30
15.0
 70
    64
  0
VERTEX
  5
11E
  8
0
 10
93.6
 20
58.3
 30
15.0
 70
    64
  0
VERTEX
  5
11F
  8
0
 10
97.6
 20
59.1
 30
15.0
 70
    64
  0
VERTEX
  5
120
  8
0
 10
101.6
 20
60.4
 30
15.0
 70
    64
  0
VERTEX
  5
121
  8
0
 10
105.2
 20
62.2
 30
15.0
 70
    64
  0
VERTEX
  5
122
  8
0
 10
108.7
 20
64.5
 30
15.0
 70
    64
  0
VERTEX
  5
123
  8
0
 10
111.7
 20
67.3
 30
15.0
 70
    64
  0
VERTEX
  5
124
  8
0
 10
89.5
 20
58.0
 30
14.0
 70
    64
  0
VERTEX
  5
125
  8
0
 10
93.6
 20
58.3
 30
14.0
 70
    64
  0
VERTEX
  5
126
  8
0
 10
97.6
 20
59.1
 30
14.0
 70
    64
  0
VERTEX
  5
127
  8
0
 10
101.6
 20
60.4
 30
14.0
 70
    64
  0
VERTEX
  5
128
  8
0
 10
105.2
 20
62.2
 30
14.0
 70
    64
  0
VERTEX
  5
129
  8
0
 10
108.7
 20
64.5
 30
14.0
 70
    64
  0
VERTEX
  5
12A
  8
0
 10
111.7
 20
67.3
 30
14.0
 70
    64
  0
VERTEX
  5
12B
  8
0
 10
89.5
 20
36.0
 30
14.0
 70
    64
  0
VERTEX
  5
12C
  8
0
 10
96.5
 20
36.5
 30
14.0
 70
    64
  0
VERTEX
  5
12D
  8
0
 10
103.3
 20
37.9
 30
14.0
 70
    64
  0
VERTEX
  5
12E
  8
0
 10
110.0
 20
40.1
 30
14.0
 70
    64
  0
VERTEX
  5
12F
  8
0
 10
116.2
 20
43.1
 30
14.0
 70
    64
  0
VERTEX
  5
130
  8
0
 10
122.0
 20
47.1
 30
14.0
 70
    64
  0
VERTEX
  5
131
  8
0
 10
127.3
 20
51.7
 30
14.0
 70
    64
  0
VERTEX
  5
132
  8
0
 10
89.5
 20
36.0
 30
12.0
 70
    64
  0
VERTEX
  5
133
  8
0
 10
96.5
 20
36.5
 30
12.0
 70
    64
  0
VERTEX
  5
134
  8
0
 10
103.3
 20
37.9
 30
12.0
 70
    64
  0
VERTEX
  5
135
  8
0
 10
110.0
 20
40.1
 30
12.0
 70
    64
  0
VERTEX
  5
136
  8
0
 10
116.2
 20
43.1
 30
12.0
 70
    64
  0
VERTEX
  5
137
  8
0
 10
122.0
 20
47.1
 30
12.0
 70
    64
  0
VERTEX
  5
138
  8
0
 10
127.3
 20
51.7
 30
12.0
 70
    64
  0
VERTEX
  5
139
  8
0
 10
89.5
 20
0.0
 30
12.0
 70
    64
  0
VERTEX
  5
13A
  8
0
 10
101.2
 20
0.8
 30
12.0
 70
    64
  0
VERTEX
  5
13B
  8
0
 10
112.6
 20
3.2
 30
12.0
 70
    64
  0
VERTEX
  5
13C
  8
0
 10
123.7
 20
6.9
 30
12.0
 70
    64
  0
VERTEX
  5
13D
  8
0
 10
134.1
 20
11.9
 30
12.0
 70
    64
  0
VERTEX
  5
13E
  8
0
 10
143.9
 20
18.6
 30
12.0
 70
    64
  0
VERTEX
  5
13F
  8
0
 10
152.8
 20
26.2
 30
12.0
 70
    64
  0
VERTEX
  5
140
  8
0
 10
89.5
 20
0.0
 30
2.0
 70
    64
  0
VERTEX
  5
141
  8
0
 10
101.2
 20
0.8
 30
2.0
 70
    64
  0
VERTEX
  5
142
  8
0
 10
112.6
 20
3.2
 30
2.0
 70
    64
  0
VERTEX
  5
143
  8
0
 10
123.7
 20
6.9
 30
2.0
 70
    64
  0
VERTEX
  5
144
  8
0
 10
134.1
 20
11.9
 30
2.0
 70
    64
  0
VERTEX
  5
145
  8
0
 10
143.9
 20
18.6
 30
2.0
 70
    64
  0
VERTEX
  5
146
  8
0
 10
152.8
 20
26.2
 30
2.0
 70
    64
  0
VERTEX
  5
147
  8
0
 10
89.5
 20
89.5
 30
2.0
 70
    64
  0
VERTEX
  5
148
  8
0
 10
89.5
 20
89.5
 30
2.0
 70
    64
  0
VERTEX
  5
149
  8
0
 10
89.5
 20
89.5
 30
2.0
 70
    64
  0
VERTEX
  5
14A
  8
0
 10
89.5
 20
89.5
 30
2.0
 70
    64
  0
VERTEX
  5
14B
  8
0
 10
89.5
 20
89.5
 30
2.0
 70
    64
  0
VERTEX
  5
14C
  8
0
 10
89.5
 20
89.5
 30
2.0
 70
    64
  0
VERTEX
  5
14D
  8
0
 10
89.5
 20
89.5
 30
2.0
 70
    64
  0
SEQEND
  5
14E
  8
0
  0
POLYLINE
  5
14F
  8
0
 66
     1
 10
0.0
 20
0.0
 30
0.0
 70
    16
 71
    12
 72
     7
  0
VERTEX
  5
150
  8
0
 10
89.5
 20
89.5
 30
120.0
 70
    64
  0
VERTEX
  5
151
  8
0
 10
89.5
 20
89.5
 30
120.0
 70
    64
  0
VERTEX
  5
152
  8
0
 10
89.5
 20
89.5
 30
120.0
 70
    64
  0
VERTEX
  5
153
  8
0
 10
89.5
 20
89.5
 30
120.0
 70
    64
  0
VERTEX
  5
154
  8
0
 10
89.5
 20
89.5
 30
120.0
 70
    64
  0
VERTEX
  5
155
  8
0
 10
89.5
 20
89.5
 30
120.0
 70
    64
  0
VERTEX
  5
156
  8
0
 10
89.5
 20
89.5
 30
120.0
 70
    64
  0
VERTEX
  5
157
  8
0
 10
121.0
 20
89.5
 30
120.0
 70
    64
  0
VERTEX
  5
158
  8
0
 10
120.7
 20
85.4
 30
120.0
 70
    64
  0
VERTEX
  5
159
  8
0
 10
119.9
 20
81.4
 30
120.0
 70
    64
  0
VERTEX
  5
15A
  8
0
 10
118.6
 20
77.4
 30
120.0
 70
    64
  0
VERTEX
  5
15B
  8
0
 10
116.8
 20
73.8
 30
120.0
 70
    64
  0
VERTEX
  5
15C
  8
0
 10
114.5
 20
70.3
 30
120.0
 70
    64
  0
VERTEX
  5
15D
  8
0
 10
111.7
 20
67.3
 30
120.0
 70
    64
  0
VERTEX
  5
15E
  8
0
 10
121.0
 20
89.5
 30
117.0
 70
    64
  0
VERTEX
  5
15F
  8
0
 10
120.7
 20
85.4
 30
117.0
 70
    64
  0
VERTEX
  5
160
  8
0
 10
119.9
 20
81.4
 30
117.0
 70
    64
  0
VERTEX
  5
161
  8
0
 10
118.6
 20
77.4
 30
117.0
 70
    64
  0
VERTEX
  5
162
  8
0
 10
116.8
 20
73.8
 30
117.0
 70
    64
  0
VERTEX
  5
163
  8
0
 10
114.5
 20
70.3
 30
117.0
 70
    64
  0
VERTEX
  5
164
  8
0
 10
111.7
 20
67.3
 30
117.0
 70
    64
  0
VERTEX
  5
165
  8
0
 10
103.0
 20
89.5
 30
115.0
 70
    64
  0
VERTEX
  5
166
  8
0
 10
102.9
 20
87.7
 30
115.0
 70
    64
  0
VERTEX
  5
167
  8
0
 10
102.5
 20
86.0
 30
115.0
 70
    64
  0
VERTEX
  5
168
  8
0
 10
102.0
 20
84.3
 30
115.0
 70
    64
  0
VERTEX
  5
169
  8
0
 10
101.2
 20
82.8
 30
115.0
 70
    64
  0
VERTEX
  5
16A
  8
0
 10
100.2
 20
81.3
 30
115.0
 70
    64
  0
VERTEX
  5
16B
  8
0
 10
99.0
 20
80.0
 30
115.0
 70
    64
  0
VERTEX
  5
16C
  8
0
 10
103.0
 20
89.5
 30
15.0
 70
    64
  0
VERTEX
  5
16D
  8
0
 10
102.9
 20
87.7
 30
15.0
 70
    64
  0
VERTEX
  5
16E
  8
0
 10
102.5
 20
86.0
 30
15.0
 70
    64
  0
VERTEX
  5
16F
  8
0
 10
102.0
 20
84.3
 30
15.0
 70
    64
  0
VERTEX
  5
170
  8
0
 10
101.2
 20
82.8
 30
15.0
 70
    64
  0
VERTEX
  5
171
  8
0
 10
100.2
 20
81.3
 30
15.0
 70
    64
  0
VERTEX
  5
172
  8
0
 10
99.0
 20
80.0
 30
15.0
 70
    64
  0
VERTEX
  5
173
  8
0
 10
121.0
 20
89.5
 30
15.0
 70
    64
  0
VERTEX
  5
174
  8
0
 10
120.7
 20
85.4
 30
15.0
 70
    64
  0
VERTEX
  5
175
  8
0
 10
119.9
 20
81.4
 30
15.0
 70
    64
  0
VERTEX
  5
176
  8
0
 10
118.6
 20
77.4
 30
15.0
 70
    64
  0
VERTEX
  5
177
  8
0
 10
116.8
 20
73.8
 30
15.0
 70
    64
  0
VERTEX
  5
178
  8
0
 10
114.5
 20
70.3
 30
15.0
 70
    64
  0
VERTEX
  5
179
  8
0
 10
111.7
 20
67.3
 30
15.0
 70
    64
  0
VERTEX
  5
17A
  8
0
 10
121.0
 20
89.5
 30
14.0
 70
    64
  0
VERTEX
  5
17B
  8
0
 10
120.7
 20
85.4
 30
14.0
 70
    64
  0
VERTEX
  5
17C
  8
0
 10
119.9
 20
81.4
 30
14.0
 70
    64
  0
VERTEX
  5
17D
  8
0
 10
118.6
 20
77.4
 30
14.0
 70
    64
  0
VERTEX
  5
17E
  8
0
 10
116.8
 20
73.8
 30
14.0
 70
    64
  0
VERTEX
  5
17F
  8
0
 10
114.5
 20
70.3
 30
14.0
 70
    64
  0
VERTEX
  5
180
  8
0
 10
111.7
 20
67.3
 30
14.0
 70
    64
  0
VERTEX
  5
181
  8
0
 10
143.0
 20
89.5
 30
14.0
 70
    64
  0
VERTEX
  5
182
  8
0
 10
142.5
 20
82.5
 30
14.0
 70
    64
  0
VERTEX
  5
183
  8
0
 10
141.1
 20
75.7
 30
14.0
 70
    64
  0
VERTEX
  5
184
  8
0
 10
138.9
 20
69.0
 30
14.0
 70
    64
  0
VERTEX
  5
185
  8
0
 10
135.9
 20
62.8
 30
14.0
 70
    64
  0
VERTEX
  5
186
  8
0
 10
131.9
 20
57.0
 30
14.0
 70
    64
  0
VERTEX
  5
187
  8
0
 10
127.3
 20
51.7
 30
14.0
 70
    64
  0
VERTEX
  5
188
  8
0
 10
143.0
 20
89.5
 30
12.0
 70
    64
  0
VERTEX
  5
189
  8
0
 10
142.5
 20
82.5
 30
12.0
 70
    64
  0
VERTEX
  5
18A
  8
0
 10
141.1
 20
75.7
 30
12.0
 70
    64
  0
VERTEX
  5
18B
  8
0
 10
138.9
 20
69.0
 30
12.0
 70
    64
  0
VERTEX
  5
18C
  8
0
 10
135.9
 20
62.8
 30
12.0
 70
    64
  0
VERTEX
  5
18D
  8
0
 10
131.9
 20
57.0
 30
12.0
 70
    64
  0
VERTEX
  5
18E
  8
0
 10
127.3
 20
51.7
 30
12.0
 70
    64
  0
VERTEX
  5
18F
  8
0
 10
179.0
 20
89.5
 30
12.0
 70
    64
  0
VERTEX
  5
190
  8
0
 10
178.2
 20
77.8
 30
12.0
 70
    64
  0
VERTEX
  5
191
  8
0
 10
175.8
 20
66.4
 30
12.0
 70
    64
  0
VERTEX
  5
192
  8
0
 10
172.1
 20
55.3
 30
12.0
 70
    64
  0
VERTEX
  5
193
  8
0
 10
167.1
 20
44.9
 30
12.0
 70
    64
  0
VERTEX
  5
194
  8
0
 10
160.4
 20
35.1
 30
12.0
 70
    64
  0
VERTEX
  5
195
  8
0
 10
152.8
 20
26.2
 30
12.0
 70
    64
  0
VERTEX
  5
196
  8
0
 10
179.0
 20
89.5
 30
2.0
 70
    64
  0
VERTEX
  5
197
  8
0
 10
178.2
 20
77.8
 30
2.0
 70
    64
  0
VERTEX
  5
198
  8
0
 10
175.8
 20
66.4
 30
2.0
 70
    64
  0
VERTEX
  5
199
  8
0
 10
172.1
 20
55.3
 30
2.0
 70
    64
  0
VERTEX
  5
19A
  8
0
 10
167.1
 20
44.9
 30
2.0
 70
    64
  0
VERTEX
  5
19B
  8
0
 10
160.4
 20
35.1
 30
2.0
 70
    64
  0
VERTEX
  5
19C
  8
0
 10
152.8
 20
26.2
 30
2.0
 70
    64
  0
VERTEX
  5
19D
  8
0
 10
89.5
 20
89.5
 30
2.0
 70
    64
  0
VERTEX
  5
19E
  8
0
 10
89.5
 20
89.5
 30
2.0
 70
    64
  0
VERTEX
  5
19F
  8
0
 10
89.5
 20
89.5
 30
2.0
 70
    64
  0
VERTEX
  5
1A0
  8
0
 10
89.5
 20
89.5
 30
2.0
 70
    64
  0
VERTEX
  5
1A1
  8
0
 10
89.5
 20
89.5
 30
2.0
 70
    64
  0
VERTEX
  5
1A2
  8
0
 10
89.5
 20
89.5
 30
2.0
 70
    64
  0
VERTEX
  5
1A3
  8
0
 10
89.5
 20
89.5
 30
2.0
 70
    64
  0
SEQEND
  5
1A4
  8
0
  0
POLYLINE
  5
1A5
  8
0
 66
     1
 10
0.0
 20
0.0
 30
0.0
 70
    16
 71
    12
 72
     7
  0
VERTEX
  5
1A6
  8
0
 10
89.5
 20
89.5
 30
120.0
 70
    64
  0
VERTEX
  5
1A7
  8
0
 10
89.5
 20
89.5
 30
120.0
 70
    64
  0
VERTEX
  5
1A8
  8
0
 10
89.5
 20
89.5
 30
120.0
 70
    64
  0
VERTEX
  5
1A9
  8
0
 10
89.5
 20
89.5
 30
120.0
 70
    64
  0
VERTEX
  5
1AA
  8
0
 10
89.5
 20
89.5
 30
120.0
 70
    64
  0
VERTEX
  5
1AB
  8
0
 10
89.5
 20
89.5
 30
120.0
 70
    64
  0
VERTEX
  5
1AC
  8
0
 10
89.5
 20
89.5
 30
120.0
 70
    64
  0
VERTEX
  5
1AD
  8
0
 10
89.5
 20
121.0
 30
120.0
 70
    64
  0
VERTEX
  5
1AE
  8
0
 10
85.4
 20
120.7
 30
120.0
 70
    64
  0
VERTEX
  5
1AF
  8
0
 10
81.4
 20
119.9
 30
120.0
 70
    64
  0
VERTEX
  5
1B0
  8
0
 10
77.4
 20
118.6
 30
120.0
 70
    64
  0
VERTEX
  5
1B1
  8
0
 10
73.8
 20
116.8
 30
120.0
 70
    64
  0
VERTEX
  5
1B2
  8
0
 10
70.3
 20
114.5
 30
120.0
 70
    64
  0
VERTEX
  5
1B3
  8
0
 10
67.3
 20
111.7
 30
120.0
 70
    64
  0
VERTEX
  5
1B4
  8
0
 10
89.5
 20
121.0
 30
117.0
 70
    64
  0
VERTEX
  5
1B5
  8
0
 10
85.4
 20
120.7
 30
117.0
 70
    64
  0
VERTEX
  5
1B6
  8
0
 10
81.4
 20
119.9
 30
117.0
 70
    64
  0
VERTEX
  5
1B7
  8
0
 10
77.4
 20
118.6
 30
117.0
 70
    64
  0
VERTEX
  5
1B8
  8
0
 10
73.8
 20
116.8
 30
117.0
 70
    64
  0
VERTEX
  5
1B9
  8
0
 10
70.3
 20
114.5
 30
117.0
 70
    64
  0
VERTEX
  5
1BA
  8
0
 10
67.3
 20
111.7
 30
117.0
 70
    64
  0
VERTEX
  5
1BB
  8
0
 10
89.5
 20
103.0
 30
115.0
 70
    64
  0
VERTEX
  5
1BC
  8
0
 10
87.7
 20
102.9
 30
115.0
 70
    64
  0
VERTEX
  5
1BD
  8
0
 10
86.0
 20
102.5
 30
115.0
 70
    64
  0
VERTEX
  5
1BE
  8
0
 10
84.3
 20
102.0
 30
115.0
 70
    64
  0
VERTEX
  5
1BF
  8
0
 10
82.8
 20
101.2
 30
115.0
 70
    64
  0
VERTEX
  5
1C0
  8
0
 10
81.3
 20
100.2
 30
115.0
 70
    64
  0
VERTEX
  5
1C1
  8
0
 10
80.0
 20
99.0
 30
115.0
 70
    64
  0
VERTEX
  5
1C2
  8
0
 10
89.5
 20
103.0
 30
15.0
 70
    64
  0
VERTEX
  5
1C3
  8
0
 10
87.7
 20
102.9
 30
15.0
 70
    64
  0
VERTEX
  5
1C4
  8
0
 10
86.0
 20
102.5
 30
15.0
 70
    64
  0
VERTEX
  5
1C5
  8
0
 10
84.3
 20
102.0
 30
15.0
 70
    64
  0
VERTEX
  5
1C6
  8
0
 10
82.8
 20
101.2
 30
15.0
 70
    64
  0
VERTEX
  5
1C7
  8
0
 10
81.3
 20
100.2
 30
15.0
 70
    64
  0
VERTEX
  5
1C8
  8
0
 10
80.0
 20
99.0
 30
15.0
 70
    64
  0
VERTEX
  5
1C9
  8
0
 10
89.5
 20
121.0
 30
15.0
 70
    64
  0
VERTEX
  5
1CA
  8
0
 10
85.4
 20
120.7
 30
15.0
 70
    64
  0
VERTEX
  5
1CB
  8
0
 10
81.4
 20
119.9
 30
15.0
 70
    64
  0
VERTEX
  5
1CC
  8
0
 10
77.4
 20
118.6
 30
15.0
 70
    64
  0
VERTEX
  5
1CD
  8
0
 10
73.8
 20
116.8
 30
15.0
 70
    64
  0
VERTEX
  5
1CE
  8
0
 10
70.3
 20
114.5
 30
15.0
 70
    64
  0
VERTEX
  5
1CF
  8
0
 10
67.3
 20
111.7
 30
15.0
 70
    64
  0
VERTEX
  5
1D0
  8
0
 10
89.5
 20
121.0
 30
14.0
 70
    64
  0
VERTEX
  5
1D1
  8
0
 10
85.4
 20
120.7
 30
14.0
 70
    64
  0
VERTEX
  5
1D2
  8
0
 10
81.4
 20
119.9
 30
14.0
 70
    64
  0
VERTEX
  5
1D3
  8
0
 10
77.4
 20
118.6
 30
14.0
 70
    64
  0
VERTEX
  5
1D4
  8
0
 10
73.8
 20
116.8
 30
14.0
 70
    64
  0
VERTEX
  5
1D5
  8
0
 10
70.3
 20
114.5
 30
14.0
 70
    64
  0
VERTEX
  5
1D6
  8
0
 10
67.3
 20
111.7
 30
14.0
 70
    64
  0
VERTEX
  5
1D7
  8
0
 10
89.5
 20
143.0
 30
14.0
 70
    64
  0
VERTEX
  5
1D8
  8
0
 10
82.5
 20
142.5
 30
14.0
 70
    64
  0
VERTEX
  5
1D9
  8
0
 10
75.7
 20
141.1
 30
14.0
 70
    64
  0
VERTEX
  5
1DA
  8
0
 10
69.0
 20
138.9
 30
14.0
 70
    64
  0
VERTEX
  5
1DB
  8
0
 10
62.8
 20
135.9
 30
14.0
 70
    64
  0
VERTEX
  5
1DC
  8
0
 10
57.0
 20
131.9
 30
14.0
 70
    64
  0
VERTEX
  5
1DD
  8
0
 10
51.7
 20
127.3
 30
14.0
 70
    64
  0
VERTEX
  5
1DE
  8
0
 10
89.5
 20
143.0
 30
12.0
 70
    64
  0
VERTEX
  5
1DF
  8
0
 10
82.5
 20
142.5
 30
12.0
 70
    64
  0
VERTEX
  5
1E0
  8
0
 10
75.7
 20
141.1
 30
12.0
 70
    64
  0
VERTEX
  5
1E1
  8
0
 10
69.0
 20
138.9
 30
12.0
 70
    64
  0
VERTEX
  5
1E2
  8
0
 10
62.8
 20
135.9
 30
12.0
 70
    64
  0
VERTEX
  5
1E3
  8
0
 10
57.0
 20
131.9
 30
12.0
 70
    64
  0
VERTEX
  5
1E4
  8
0
 10
51.7
 20
127.3
 30
12.0
 70
    64
  0
VERTEX
  5
1E5
  8
0
 10
89.5
 20
179.0
 30
12.0
 70
    64
  0
VERTEX
  5
1E6
  8
0
 10
77.8
 20
178.2
 30
12.0
 70
    64
  0
VERTEX
  5
1E7
  8
0
 10
66.4
 20
175.8
 30
12.0
 70
    64
  0
VERTEX
  5
1E8
  8
0
 10
55.3
 20
172.1
 30
12.0
 70
    64
  0
VERTEX
  5
1E9
  8
0
 10
44.9
 20
167.1
 30
12.0
 70
    64
  0
VERTEX
  5
1EA
  8
0
 10
35.1
 20
160.4
 30
12.0
 70
    64
  0
VERTEX
  5
1EB
  8
0
 10
26.2
 20
152.8
 30
12.0
 70
    64
  0
VERTEX
  5
1EC
  8
0
 10
89.5
 20
179.0
 30
2.0
 70
    64
  0
VERTEX
  5
1ED
  8
0
 10
77.8
 20
178.2
 30
2.0
 70
    64
  0
VERTEX
  5
1EE
  8
0
 10
66.4
 20
175.8
 30
2.0
 70
    64
  0
VERTEX
  5
1EF
  8
0
 10
55.3
 20
172.1
 30
2.0
 70
    64
  0
VERTEX
  5
1F0
  8
0
 10
44.9
 20
167.1
 30
2.0
 70
    64
  0
VERTEX
  5
1F1
  8
0
 10
35.1
 20
160.4
 30
2.0
 70
    64
  0
VERTEX
  5
1F2
  8
0
 10
26.2
 20
152.8
 30
2.0
 70
    64
  0
VERTEX
  5
1F3
  8
0
 10
89.5
 20
89.5
 30
2.0
 70
    64
  0
VERTEX
  5
1F4
  8
0
 10
89.5
 20
89.5
 30
2.0
 70
    64
  0
VERTEX
  5
1F5
  8
0
 10
89.5
 20
89.5
 30
2.0
 70
    64
  0
VERTEX
  5
1F6
  8
0
 10
89.5
 20
89.5
 30
2.0
 70
    64
  0
VERTEX
  5
1F7
  8
0
 10
89.5
 20
89.5
 30
2.0
 70
    64
  0
VERTEX
  5
1F8
  8
0
 10
89.5
 20
89.5
 30
2.0
 70
    64
  0
VERTEX
  5
1F9
  8
0
 10
89.5
 20
89.5
 30
2.0
 70
    64
  0
SEQEND
  5
1FA
  8
0
  0
POLYLINE
  5
1FB
  8
0
 66
     1
 10
0.0
 20
0.0
 30
0.0
 70
    16
 71
    12
 72
     7
  0
VERTEX
  5
1FC
  8
0
 10
89.5
 20
89.5
 30
120.0
 70
    64
  0
VERTEX
  5
1FD
  8
0
 10
89.5
 20
89.5
 30
120.0
 70
    64
  0
VERTEX
  5
1FE
  8
0
 10
89.5
 20
89.5
 30
120.0
 70
    64
  0
VERTEX
  5
1FF
  8
0
 10
89.5
 20
89.5
 30
120.0
 70
    64
  0
VERTEX
  5
200
  8
0
 10
89.5
 20
89.5
 30
120.0
 70
    64
  0
VERTEX
  5
201
  8
0
 10
89.5
 20
89.5
 30
120.0
 70
    64
  0
VERTEX
  5
202
  8
0
 10
89.5
 20
89.5
 30
120.0
 70
    64
  0
VERTEX
  5
203
  8
0
 10
58.0
 20
89.5
 30
120.0
 70
    64
  0
VERTEX
  5
204
  8
0
 10
58.3
 20
93.6
 30
120.0
 70
    64
  0
VERTEX
  5
205
  8
0
 10
59.1
 20
97.6
 30
120.0
 70
    64
  0
VERTEX
  5
206
  8
0
 10
60.4
 20
101.6
 30
120.0
 70
    64
  0
VERTEX
  5
207
  8
0
 10
62.2
 20
105.2
 30
120.0
 70
    64
  0
VERTEX
  5
208
  8
0
 10
64.5
 20
108.7
 30
120.0
 70
    64
  0
VERTEX
  5
209
  8
0
 10
67.3
 20
111.7
 30
120.0
 70
    64
  0
VERTEX
  5
20A
  8
0
 10
58.0
 20
89.5
 30
117.0
 70
    64
  0
VERTEX
  5
20B
  8
0
 10
58.3
 20
93.6
 30
117.0
 70
    64
  0
VERTEX
  5
20C
  8
0
 10
59.1
 20
97.6
 30
117.0
 70
    64
  0
VERTEX
  5
20D
  8
0
 10
60.4
 20
101.6
 30
117.0
 70
    64
  0
VERTEX
  5
20E
  8
0
 10
62.2
 20
105.2
 30
117.0
 70
    64
  0
VERTEX
  5
20F
  8
0
 10
64.5
 20
108.7
 30
117.0
 70
    64
  0
VERTEX
  5
210
  8
0
 10
67.3
 20
111.7
 30
117.0
 70
    64
  0
VERTEX
  5
211
  8
0
 10
76.0
 20
89.5
 30
115.0
 70
    64
  0
VERTEX
  5
212
  8
0
 10
76.1
 20
91.3
 30
115.0
 70
    64
  0
VERTEX
  5
213
  8
0
 10
76.5
 20
93.0
 30
115.0
 70
    64
  0
VERTEX
  5
214
  8
0
 10
77.0
 20
94.7
 30
115.0
 70
    64
  0
VERTEX
  5
215
  8
0
 10
77.8
 20
96.2
 30
115.0
 70
    64
  0
VERTEX
  5
216
  8
0
 10
78.8
 20
97.7
 30
115.0
 70
    64
  0
VERTEX
  5
217
  8
0
 10
80.0
 20
99.0
 30
115.0
 70
    64
  0
VERTEX
  5
218
  8
0
 10
76.0
 20
89.5
 30
15.0
 70
    64
  0
VERTEX
  5
219
  8
0
 10
76.1
 20
91.3
 30
15.0
 70
    64
  0
VERTEX
  5
21A
  8
0
 10
76.5
 20
93.0
 30
15.0
 70
    64
  0
VERTEX
  5
21B
  8
0
 10
77.0
 20
94.7
 30
15.0
 70
    64
  0
VERTEX
  5
21C
  8
0
 10
77.8
 20
96.2
 30
15.0
 70
    64
  0
VERTEX
  5
21D
  8
0
 10
78.8
 20
97.7
 30
15.0
 70
    64
  0
VERTEX
  5
21E
  8
0
 10
80.0
 20
99.0
 30
15.0
 70
    64
  0
VERTEX
  5
21F
  8
0
 10
58.0
 20
89.5
 30
15.0
 70
    64
  0
VERTEX
  5
220
  8
0
 10
58.3
 20
93.6
 30
15.0
 70
    64
  0
VERTEX
  5
221
  8
0
 10
59.1
 20
97.6
 30
15.0
 70
    64
  0
VERTEX
  5
222
  8
0
 10
60.4
 20
101.6
 30
15.0
 70
    64
  0
VERTEX
  5
223
  8
0
 10
62.2
 20
105.2
 30
15.0
 70
    64
  0
VERTEX
  5
224
  8
0
 10
64.5
 20
108.7
 30
15.0
 70
    64
  0
VERTEX
  5
225
  8
0
 10
67.3
 20
111.7
 30
15.0
 70
    64
  0
VERTEX
  5
226
  8
0
 10
58.0
 20
89.5
 30
14.0
 70
    64
  0
VERTEX
  5
227
  8
0
 10
58.3
 20
93.6
 30
14.0
 70
    64
  0
VERTEX
  5
228
  8
0
 10
59.1
 20
97.6
 30
14.0
 70
    64
  0
VERTEX
  5
229
  8
0
 10
60.4
 20
101.6
 30
14.0
 70
    64
  0
VERTEX
  5
22A
  8
0
 10
62.2
 20
105.2
 30
14.0
 70
    64
  0
VERTEX
  5
22B
  8
0
 10
64.5
 20
108.7
 30
14.0
 70
    64
  0
VERTEX
  5
22C
  8
0
 10
67.3
 20
111.7
 30
14.0
 70
    64
  0
VERTEX
  5
22D
  8
0
 10
36.0
 20
89.5
 30
14.0
 70
    64
  0
VERTEX
  5
22E
  8
0
 10
36.5
 20
96.5
 30
14.0
 70
    64
  0
VERTEX
  5
22F
  8
0
 10
37.9
 20
103.3
 30
14.0
 70
    64
  0
VERTEX
  5
230
  8
0
 10
40.1
 20
110.0
 30
14.0
 70
    64
  0
VERTEX
  5
231
  8
0
 10
43.1
 20
116.2
 30
14.0
 70
    64
  0
VERTEX
  5
232
  8
0
 10
47.1
 20
122.0
 30
14.0
 70
    64
  0
VERTEX
  5
233
  8
0
 10
51.7
 20
127.3
 30
14.0
 70
    64
  0
VERTEX
  5
234
  8
0
 10
36.0
 20
89.5
 30
12.0
 70
    64
  0
VERTEX
  5
235
  8
0
 10
36.5
 20
96.5
 30
12.0
 70
    64
  0
VERTEX
  5
236
  8
0
 10
37.9
 20
103.3
 30
12.0
 70
    64
  0
VERTEX
  5
237
  8
0
 10
40.1
 20
110.0
 30
12.0
 70
    64
  0
VERTEX
  5
238
  8
0
 10
43.1
 20
116.2
 30
12.0
 70
    64
  0
VERTEX
  5
239
  8
0
 10
47.1
 20
122.0
 30
12.0
 70
    64
  0
VERTEX
  5
23A
  8
0
 10
51.7
 20
127.3
 30
12.0
 70
    64
  0
VERTEX
  5
23B
  8
0
 10
0.0
 20
89.5
 30
12.0
 70
    64
  0
VERTEX
  5
23C
  8
0
 10
0.8
 20
101.2
 30
12.0
 70
    64
  0
VERTEX
  5
23D
  8
0
 10
3.2
 20
112.6
 30
12.0
 70
    64
  0
VERTEX
  5
23E
  8
0
 10
6.9
 20
123.7
 30
12.0
 70
    64
  0
VERTEX
  5
23F
  8
0
 10
11.9
 20
134.1
 30
12.0
 70
    64
  0
VERTEX
  5
240
  8
0
 10
18.6
 20
143.9
 30
12.0
 70
    64
  0
VERTEX
  5
241
  8
0
 10
26.2
 20
152.8
 30
12.0
 70
    64
  0
VERTEX
  5
242
  8
0
 10
0.0
 20
89.5
 30
2.0
 70
    64
  0
VERTEX
  5
243
  8
0
 10
0.8
 20
101.2
 30
2.0
 70
    64
  0
VERTEX
  5
244
  8
0
 10
3.2
 20
112.6
 30
2.0
 70
    64
  0
VERTEX
  5
245
  8
0
 10
6.9
 20
123.7
 30
2.0
 70
    64
  0
VERTEX
  5
246
  8
0
 10
11.9
 20
134.1
 30
2.0
 70
    64
  0
VERTEX
  5
247
  8
0
 10
18.6
 20
143.9
 30
2.0
 70
    64
  0
VERTEX
  5
248
  8
0
 10
26.2
 20
152.8
 30
2.0
 70
    64
  0
VERTEX
  5
249
  8
0
 10
89.5
 20
89.5
 30
2.0
 70
    64
  0
VERTEX
  5
24A
  8
0
 10
89.5
 20
89.5
 30
2.0
 70
    64
  0
VERTEX
  5
24B
  8
0
 10
89.5
 20
89.5
 30
2.0
 70
    64
  0
VERTEX
  5
24C
  8
0
 10
89.5
 20
89.5
 30
2.0
 70
    64
  0
VERTEX
  5
24D
  8
0
 10
89.5
 20
89.5
 30
2.0
 70
    64
  0
VERTEX
  5
24E
  8
0
 10
89.5
 20
89.5
 30
2.0
 70
    64
  0
VERTEX
  5
24F
  8
0
 10
89.5
 20
89.5
 30
2.0
 70
    64
  0
SEQEND
  5
250
  8
0
  0
POLYLINE
  5
251
  8
0
 66
     1
 10
0.0
 20
0.0
 30
0.0
 70
    16
 71
    12
 72
     7
  0
VERTEX
  5
252
  8
0
 10
89.5
 20
89.5
 30
120.0
 70
    64
  0
VERTEX
  5
253
  8
0
 10
89.5
 20
89.5
 30
120.0
 70
    64
  0
VERTEX
  5
254
  8
0
 10
89.5
 20
89.5
 30
120.0
 70
    64
  0
VERTEX
  5
255
  8
0
 10
89.5
 20
89.5
 30
120.0
 70
    64
  0
VERTEX
  5
256
  8
0
 10
89.5
 20
89.5
 30
120.0
 70
    64
  0
VERTEX
  5
257
  8
0
 10
89.5
 20
89.5
 30
120.0
 70
    64
  0
VERTEX
  5
258
  8
0
 10
89.5
 20
89.5
 30
120.0
 70
    64
  0
VERTEX
  5
259
  8
0
 10
121.0
 20
89.5
 30
120.0
 70
    64
  0
VERTEX
  5
25A
  8
0
 10
120.7
 20
93.6
 30
120.0
 70
    64
  0
VERTEX
  5
25B
  8
0
 10
119.9
 20
97.6
 30
120.0
 70
    64
  0
VERTEX
  5
25C
  8
0
 10
118.6
 20
101.6
 30
120.0
 70
    64
  0
VERTEX
  5
25D
  8
0
 10
116.8
 20
105.2
 30
120.0
 70
    64
  0
VERTEX
  5
25E
  8
0
 10
114.5
 20
108.7
 30
120.0
 70
    64
  0
VERTEX
  5
25F
  8
0
 10
111.7
 20
111.7
 30
120.0
 70
    64
  0
VERTEX
  5
260
  8
0
 10
121.0
 20
89.5
 30
117.0
 70
    64
  0
VERTEX
  5
261
  8
0
 10
120.7
 20
93.6
 30
117.0
 70
    64
  0
VERTEX
  5
262
  8
0
 10
119.9
 20
97.6
 30
117.0
 70
    64
  0
VERTEX
  5
263
  8
0
 10
118.6
 20
101.6
 30
117.0
 70
    64
  0
VERTEX
  5
264
  8
0
 10
116.8
 20
105.2
 30
117.0
 70
    64
  0
VERTEX
  5
265
  8
0
 10
114.5
 20
108.7
 30
117.0
 70
    64
  0
VERTEX
  5
266
  8
0
 10
111.7
 20
111.7
 30
117.0
 70
    64
  0
VERTEX
  5
267
  8
0
 10
103.0
 20
89.5
 30
115.0
 70
    64
  0
VERTEX
  5
268
  8
0
 10
102.9
 20
91.3
 30
115.0
 70
    64
  0
VERTEX
  5
269
  8
0
 10
102.5
 20
93.0
 30
115.0
 70
    64
  0
VERTEX
  5
26A
  8
0
 10
102.0
 20
94.7
 30
115.0
 70
    64
  0
VERTEX
  5
26B
  8
0
 10
101.2
 20
96.2
 30
115.0
 70
    64
  0
VERTEX
  5
26C
  8
0
 10
100.2
 20
97.7
 30
115.0
 70
    64
  0
VERTEX
  5
26D
  8
0
 10
99.0
 20
99.0
 30
115.0
 70
    64
  0
VERTEX
  5
26E
  8
0
 10
103.0
 20
89.5
 30
15.0
 70
    64
  0
VERTEX
  5
26F
  8
0
 10
102.9
 20
91.3
 30
15.0
 70
    64
  0
VERTEX
  5
270
  8
0
 10
102.5
 20
93.0
 30
15.0
 70
    64
  0
VERTEX
  5
271
  8
0
 10
102.0
 20
94.7
 30
15.0
 70
    64
  0
VERTEX
  5
272
  8
0
 10
101.2
 20
96.2
 30
15.0
 70
    64
  0
VERTEX
  5
273
  8
0
 10
100.2
 20
97.7
 30
15.0
 70
    64
  0
VERTEX
  5
274
  8
0
 10
99.0
 20
99.0
 30
15.0
 70
    64
  0
VERTEX
  5
275
  8
0
 10
121.0
 20
89.5
 30
15.0
 70
    64
  0
VERTEX
  5
276
  8
0
 10
120.7
 20
93.6
 30
15.0
 70
    64
  0
VERTEX
  5
277
  8
0
 10
119.9
 20
97.6
 30
15.0
 70
    64
  0
VERTEX
  5
278
  8
0
 10
118.6
 20
101.6
 30
15.0
 70
    64
  0
VERTEX
  5
279
  8
0
 10
116.8
 20
105.2
 30
15.0
 70
    64
  0
VERTEX
  5
27A
  8
0
 10
114.5
 20
108.7
 30
15.0
 70
    64
  0
VERTEX
  5
27B
  8
0
 10
111.7
 20
111.7
 30
15.0
 70
    64
  0
VERTEX
  5
27C
  8
0
 10
121.0
 20
89.5
 30
14.0
 70
    64
  0
VERTEX
  5
27D
  8
0
 10
120.7
 20
93.6
 30
14.0
 70
    64
  0
VERTEX
  5
27E
  8
0
 10
119.9
 20
97.6
 30
14.0
 70
    64
  0
VERTEX
  5
27F
  8
0
 10
118.6
 20
101.6
 30
14.0
 70
    64
  0
VERTEX
  5
280
  8
0
 10
116.8
 20
105.2
 30
14.0
 70
    64
  0
VERTEX
  5
281
  8
0
 10
114.5
 20
108.7
 30
14.0
 70
    64
  0
VERTEX
  5
282
  8
0
 10
111.7
 20
111.7
 30
14.0
 70
    64
  0
VERTEX
  5
283
  8
0
 10
143.0
 20
89.5
 30
14.0
 70
    64
  0
VERTEX
  5
284
  8
0
 10
142.5
 20
96.5
 30
14.0
 70
    64
  0
VERTEX
  5
285
  8
0
 10
141.1
 20
103.3
 30
14.0
 70
    64
  0
VERTEX
  5
286
  8
0
 10
138.9
 20
110.0
 30
14.0
 70
    64
  0
VERTEX
  5
287
  8
0
 10
135.9
 20
116.2
 30
14.0
 70
    64
  0
VERTEX
  5
288
  8
0
 10
131.9
 20
122.0
 30
14.0
 70
    64
  0
VERTEX
  5
289
  8
0
 10
127.3
 20
127.3
 30
14.0
 70
    64
  0
VERTEX
  5
28A
  8
0
 10
143.0
 20
89.5
 30
12.0
 70
    64
  0
VERTEX
  5
28B
  8
0
 10
142.5
 20
96.5
 30
12.0
 70
    64
  0
VERTEX
  5
28C
  8
0
 10
141.1
 20
103.3
 30
12.0
 70
    64
  0
VERTEX
  5
28D
  8
0
 10
138.9
 20
110.0
 30
12.0
 70
    64
  0
VERTEX
  5
28E
  8
0
 10
135.9
 20
116.2
 30
12.0
 70
    64
  0
VERTEX
  5
28F
  8
0
 10
131.9
 20
122.0
 30
12.0
 70
    64
  0
VERTEX
  5
290
  8
0
 10
127.3
 20
127.3
 30
12.0
 70
    64
  0
VERTEX
  5
291
  8
0
 10
179.0
 20
89.5
 30
12.0
 70
    64
  0
VERTEX
  5
292
  8
0
 10
178.2
 20
101.2
 30
12.0
 70
    64
  0
VERTEX
  5
293
  8
0
 10
175.8
 20
112.6
 30
12.0
 70
    64
  0
VERTEX
  5
294
  8
0
 10
172.1
 20
123.7
 30
12.0
 70
    64
  0
VERTEX
  5
295
  8
0
 10
167.1
 20
134.1
 30
12.0
 70
    64
  0
VERTEX
  5
296
  8
0
 10
160.4
 20
143.9
 30
12.0
 70
    64
  0
VERTEX
  5
297
  8
0
 10
152.8
 20
152.8
 30
12.0
 70
    64
  0
VERTEX
  5
298
  8
0
 10
179.0
 20
89.5
 30
2.0
 70
    64
  0
VERTEX
  5
299
  8
0
 10
178.2
 20
101.2
 30
2.0
 70
    64
  0
VERTEX
  5
29A
  8
0
 10
175.8
 20
112.6
 30
2.0
 70
    64
  0
VERTEX
  5
29B
  8
0
 10
172.1
 20
123.7
 30
2.0
 70
    64
  0
VERTEX
  5
29C
  8
0
 10
167.1
 20
134.1
 30
2.0
 70
    64
  0
VERTEX
  5
29D
  8
0
 10
160.4
 20
143.9
 30
2.0
 70
    64
  0
VERTEX
  5
29E
  8
0
 10
152.8
 20
152.8
 30
2.0
 70
    64
  0
VERTEX
  5
29F
  8
0
 10
89.5
 20
89.5
 30
2.0
 70
    64
  0
VERTEX
  5
2A0
  8
0
 10
89.5
 20
89.5
 30
2.0
 70
    64
  0
VERTEX
  5
2A1
  8
0
 10
89.5
 20
89.5
 30
2.0
 70
    64
  0
VERTEX
  5
2A2
  8
0
 10
89.5
 20
89.5
 30
2.0
 70
    64
  0
VERTEX
  5
2A3
  8
0
 10
89.5
 20
89.5
 30
2.0
 70
    64
  0
VERTEX
  5
2A4
  8
0
 10
89.5
 20
89.5
 30
2.0
 70
    64
  0
VERTEX
  5
2A5
  8
0
 10
89.5
 20
89.5
 30
2.0
 70
    64
  0
SEQEND
  5
2A6
  8
0
  0
POLYLINE
  5
2A7
  8
0
 66
     1
 10
0.0
 20
0.0
 30
0.0
 70
    16
 71
    12
 72
     7
  0
VERTEX
  5
2A8
  8
0
 10
89.5
 20
89.5
 30
120.0
 70
    64
  0
VERTEX
  5
2A9
  8
0
 10
89.5
 20
89.5
 30
120.0
 70
    64
  0
VERTEX
  5
2AA
  8
0
 10
89.5
 20
89.5
 30
120.0
 70
    64
  0
VERTEX
  5
2AB
  8
0
 10
89.5
 20
89.5
 30
120.0
 70
    64
  0
VERTEX
  5
2AC
  8
0
 10
89.5
 20
89.5
 30
120.0
 70
    64
  0
VERTEX
  5
2AD
  8
0
 10
89.5
 20
89.5
 30
120.0
 70
    64
  0
VERTEX
  5
2AE
  8
0
 10
89.5
 20
89.5
 30
120.0
 70
    64
  0
VERTEX
  5
2AF
  8
0
 10
89.5
 20
121.0
 30
120.0
 70
    64
  0
VERTEX
  5
2B0
  8
0
 10
93.6
 20
120.7
 30
120.0
 70
    64
  0
VERTEX
  5
2B1
  8
0
 10
97.6
 20
119.9
 30
120.0
 70
    64
  0
VERTEX
  5
2B2
  8
0
 10
101.6
 20
118.6
 30
120.0
 70
    64
  0
VERTEX
  5
2B3
  8
0
 10
105.2
 20
116.8
 30
120.0
 70
    64
  0
VERTEX
  5
2B4
  8
0
 10
108.7
 20
114.5
 30
120.0
 70
    64
  0
VERTEX
  5
2B5
  8
0
 10
111.7
 20
111.7
 30
120.0
 70
    64
  0
VERTEX
  5
2B6
  8
0
 10
89.5
 20
121.0
 30
117.0
 70
    64
  0
VERTEX
  5
2B7
  8
0
 10
93.6
 20
120.7
 30
117.0
 70
    64
  0
VERTEX
  5
2B8
  8
0
 10
97.6
 20
119.9
 30
117.0
 70
    64
  0
VERTEX
  5
2B9
  8
0
 10
101.6
 20
118.6
 30
117.0
 70
    64
  0
VERTEX
  5
2BA
  8
0
 10
105.2
 20
116.8
 30
117.0
 70
    64
  0
VERTEX
  5
2BB
  8
0
 10
108.7
 20
114.5
 30
117.0
 70
    64
  0
VERTEX
  5
2BC
  8
0
 10
111.7
 20
111.7
 30
117.0
 70
    64
  0
VERTEX
  5
2BD
  8
0
 10
89.5
 20
103.0
 30
115.0
 70
    64
  0
VERTEX
  5
2BE
  8
0
 10
91.3
 20
102.9
 30
115.0
 70
    64
  0
VERTEX
  5
2BF
  8
0
 10
93.0
 20
102.5
 30
115.0
 70
    64
  0
VERTEX
  5
2C0
  8
0
 10
94.7
 20
102.0
 30
115.0
 70
    64
  0
VERTEX
  5
2C1
  8
0
 10
96.2
 20
101.2
 30
115.0
 70
    64
  0
VERTEX
  5
2C2
  8
0
 10
97.7
 20
100.2
 30
115.0
 70
    64
  0
VERTEX
  5
2C3
  8
0
 10
99.0
 20
99.0
 30
115.0
 70
    64
  0
VERTEX
  5
2C4
  8
0
 10
89.5
 20
103.0
 30
15.0
 70
    64
  0
VERTEX
  5
2C5
  8
0
 10
91.3
 20
102.9
 30
15.0
 70
    64
  0
VERTEX
  5
2C6
  8
0
 10
93.0
 20
102.5
 30
15.0
 70
    64
  0
VERTEX
  5
2C7
  8
0
 10
94.7
 20
102.0
 30
15.0
 70
    64
  0
VERTEX
  5
2C8
  8
0
 10
96.2
 20
101.2
 30
15.0
 70
    64
  0
VERTEX
  5
2C9
  8
0
 10
97.7
 20
100.2
 30
15.0
 70
    64
  0
VERTEX
  5
2CA
  8
0
 10
99.0
 20
99.0
 30
15.0
 70
    64
  0
VERTEX
  5
2CB
  8
0
 10
89.5
 20
121.0
 30
15.0
 70
    64
  0
VERTEX
  5
2CC
  8
0
 10
93.6
 20
120.7
 30
15.0
 70
    64
  0
VERTEX
  5
2CD
  8
0
 10
97.6
 20
119.9
 30
15.0
 70
    64
  0
VERTEX
  5
2CE
  8
0
 10
101.6
 20
118.6
 30
15.0
 70
    64
  0
VERTEX
  5
2CF
  8
0
 10
105.2
 20
116.8
 30
15.0
 70
    64
  0
VERTEX
  5
2D0
  8
0
 10
108.7
 20
114.5
 30
15.0
 70
    64
  0
VERTEX
  5
2D1
  8
0
 10
111.7
 20
111.7
 30
15.0
 70
    64
  0
VERTEX
  5
2D2
  8
0
 10
89.5
 20
121.0
 30
14.0
 70
    64
  0
VERTEX
  5
2D3
  8
0
 10
93.6
 20
120.7
 30
14.0
 70
    64
  0
VERTEX
  5
2D4
  8
0
 10
97.6
 20
119.9
 30
14.0
 70
    64
  0
VERTEX
  5
2D5
  8
0
 10
101.6
 20
118.6
 30
14.0
 70
    64
  0
VERTEX
  5
2D6
  8
0
 10
105.2
 20
116.8
 30
14.0
 70
    64
  0
VERTEX
  5
2D7
  8
0
 10
108.7
 20
114.5
 30
14.0
 70
    64
  0
VERTEX
  5
2D8
  8
0
 10
111.7
 20
111.7
 30
14.0
 70
    64
  0
VERTEX
  5
2D9
  8
0
 10
89.5
 20
143.0
 30
14.0
 70
    64
  0
VERTEX
  5
2DA
  8
0
 10
96.5
 20
142.5
 30
14.0
 70
    64
  0
VERTEX
  5
2DB
  8
0
 10
103.3
 20
141.1
 30
14.0
 70
    64
  0
VERTEX
  5
2DC
  8
0
 10
110.0
 20
138.9
 30
14.0
 70
    64
  0
VERTEX
  5
2DD
  8
0
 10
116.2
 20
135.9
 30
14.0
 70
    64
  0
VERTEX
  5
2DE
  8
0
 10
122.0
 20
131.9
 30
14.0
 70
    64
  0
VERTEX
  5
2DF
  8
0
 10
127.3
 20
127.3
 30
14.0
 70
    64
  0
VERTEX
  5
2E0
  8
0
 10
89.5
 20
143.0
 30
12.0
 70
    64
  0
VERTEX
  5
2E1
  8
0
 10
96.5
 20
142.5
 30
12.0
 70
    64
  0
VERTEX
  5
2E2
  8
0
 10
103.3
 20
141.1
 30
12.0
 70
    64
  0
VERTEX
  5
2E3
  8
0
 10
110.0
 20
138.9
 30
12.0
 70
    64
  0
VERTEX
  5
2E4
  8
0
 10
116.2
 20
135.9
 30
12.0
 70
    64
  0
VERTEX
  5
2E5
  8
0
 10
122.0
 20
131.9
 30
12.0
 70
    64
  0
VERTEX
  5
2E6
  8
0
 10
127.3
 20
127.3
 30
12.0
 70
    64
  0
VERTEX
  5
2E7
  8
0
 10
89.5
 20
179.0
 30
12.0
 70
    64
  0
VERTEX
  5
2E8
  8
0
 10
101.2
 20
178.2
 30
12.0
 70
    64
  0
VERTEX
  5
2E9
  8
0
 10
112.6
 20
175.8
 30
12.0
 70
    64
  0
VERTEX
  5
2EA
  8
0
 10
123.7
 20
172.1
 30
12.0
 70
    64
  0
VERTEX
  5
2EB
  8
0
 10
134.1
 20
167.1
 30
12.0
 70
    64
  0
VERTEX
  5
2EC
  8
0
 10
143.9
 20
160.4
 30
12.0
 70
    64
  0
VERTEX
  5
2ED
  8
0
 10
152.8
 20
152.8
 30
12.0
 70
    64
  0
VERTEX
  5
2EE
  8
0
 10
89.5
 20
179.0
 30
2.0
 70
    64
  0
VERTEX
  5
2EF
  8
0
 10
101.2
 20
178.2
 30
2.0
 70
    64
  0
VERTEX
  5
2F0
  8
0
 10
112.6
 20
175.8
 30
2.0
 70
    64
  0
VERTEX
  5
2F1
  8
0
 10
123.7
 20
172.1
 30
2.0
 70
    64
  0
VERTEX
  5
2F2
  8
0
 10
134.1
 20
167.1
 30
2.0
 70
    64
  0
VERTEX
  5
2F3
  8
0
 10
143.9
 20
160.4
 30
2.0
 70
    64
  0
VERTEX
  5
2F4
  8
0
 10
152.8
 20
152.8
 30
2.0
 70
    64
  0
VERTEX
  5
2F5
  8
0
 10
89.5
 20
89.5
 30
2.0
 70
    64
  0
VERTEX
  5
2F6
  8
0
 10
89.5
 20
89.5
 30
2.0
 70
    64
  0
VERTEX
  5
2F7
  8
0
 10
89.5
 20
89.5
 30
2.0
 70
    64
  0
VERTEX
  5
2F8
  8
0
 10
89.5
 20
89.5
 30
2.0
 70
    64
  0
VERTEX
  5
2F9
  8
0
 10
89.5
 20
89.5
 30
2.0
 70
    64
  0
VERTEX
  5
2FA
  8
0
 10
89.5
 20
89.5
 30
2.0
 70
    64
  0
VERTEX
  5
2FB
  8
0
 10
89.5
 20
89.5
 30
2.0
 70
    64
  0
SEQEND
  5
2FC
  8
0
  0
POLYLINE
  5
2FD
  8
0
 66
     1
 10
0.0
 20
0.0
 30
0.0
 70
    16
 71
     6
 72
     3
  0
VERTEX
  5
2FE
  8
0
 10
51.668427
 20
19.731153
 30
2.0
 70
    64
  0
VERTEX
  5
2FF
  8
0
 10
51.668427
 20
19.731153
 30
0.0
 70
    64
  0
VERTEX
  5
300
  8
0
 10
51.668427
 20
19.731153
 30
0.0
 70
    64
  0
VERTEX
  5
301
  8
0
 10
48.770649
 20
18.954695
 30
2.0
 70
    64
  0
VERTEX
  5
302
  8
0
 10
48.770649
 20
18.954695
 30
0.0
 70
    64
  0
VERTEX
  5
303
  8
0
 10
48.770649
 20
18.954695
 30
0.0
 70
    64
  0
VERTEX
  5
304
  8
0
 10
47.994192
 20
21.852473
 30
2.0
 70
    64
  0
VERTEX
  5
305
  8
0
 10
47.994192
 20
21.852473
 30
0.0
 70
    64
  0
VERTEX
  5
306
  8
0
 10
48.770649
 20
18.954695
 30
0.0
 70
    64
  0
VERTEX
  5
307
  8
0
 10
50.89197
 20
22.62893
 30
2.0
 70
    64
  0
VERTEX
  5
308
  8
0
 10
50.89197
 20
22.62893
 30
0.0
 70
    64
  0
VERTEX
  5
309
  8
0
 10
51.668427
 20
19.731153
 30
0.0
 70
    64
  0
VERTEX
  5
30A
  8
0
 10
50.89197
 20
22.62893
 30
2.0
 70
    64
  0
VERTEX
  5
30B
  8
0
 10
50.89197
 20
22.62893
 30
2.0
 70
    64
  0
VERTEX
  5
30C
  8
0
 10
51.668427
 20
19.731153
 30
2.0
 70
    64
  0
VERTEX
  5
30D
  8
0
 10
47.994192
 20
21.852473
 30
2.0
 70
    64
  0
VERTEX
  5
30E
  8
0
 10
47.994192
 20
21.852473
 30
2.0
 70
    64
  0
VERTEX
  5
30F
  8
0
 10
48.770649
 20
18.954695
 30
2.0
 70
    64
  0
SEQEND
  5
310
  8
0
  0
POLYLINE
  5
311
  8
0
 66
     1
 10
0.0
 20
0.0
 30
0.0
 70
    16
 71
     6
 72
     3
  0
VERTEX
  5
312
  8
0
 10
56.618174
 20
28.304367
 30
2.0
 70
    64
  0
VERTEX
  5
313
  8
0
 10
56.618174
 20
28.304367
 30
0.0
 70
    64
  0
VERTEX
  5
314
  8
0
 10
56.618174
 20
28.304367
 30
0.0
 70
    64
  0
VERTEX
  5
315
  8
0
 10
53.720397
 20
27.52791
 30
2.0
 70
    64
  0
VERTEX
  5
316
  8
0
 10
53.720397
 20
27.52791
 30
0.0
 70
    64
  0
VERTEX
  5
317
  8
0
 10
53.720397
 20
27.52791
 30
0.0
 70
    64
  0
VERTEX
  5
318
  8
0
 10
52.94394
 20
30.425687
 30
2.0
 70
    64
  0
VERTEX
  5
319
  8
0
 10
52.94394
 20
30.425687
 30
0.0
 70
    64
  0
VERTEX
  5
31A
  8
0
 10
53.720397
 20
27.52791
 30
0.0
 70
    64
  0
VERTEX
  5
31B
  8
0
 10
55.841717
 20
31.202144
 30
2.0
 70
    64
  0
VERTEX
  5
31C
  8
0
 10
55.841717
 20
31.202144
 30
0.0
 70
    64
  0
VERTEX
  5
31D
  8
0
 10
56.618174
 20
28.304367
 30
0.0
 70
    64
  0
VERTEX
  5
31E
  8
0
 10
55.841717
 20
31.202144
 30
2.0
 70
    64
  0
VERTEX
  5
31F
  8
0
 10
55.841717
 20
31.202144
 30
2.0
 70
    64
  0
VERTEX
  5
320
  8
0
 10
56.618174
 20
28.304367
 30
2.0
 70
    64
  0
VERTEX
  5
321
  8
0
 10
52.94394
 20
30.425687
 30
2.0
 70
    64
  0
VERTEX
  5
322
  8
0
 10
52.94394
 20
30.425687
 30
2.0
 70
    64
  0
VERTEX
  5
323
  8
0
 10
53.720397
 20
27.52791
 30
2.0
 70
    64
  0
SEQEND
  5
324
  8
0
  0
POLYLINE
  5
325
  8
0
 66
     1
 10
0.0
 20
0.0
 30
0.0
 70
    16
 71
     6
 72
     3
  0
VERTEX
  5
326
  8
0
 10
66.517669
 20
45.450795
 30
2.0
 70
    64
  0
VERTEX
  5
327
  8
0
 10
66.517669
 20
45.450795
 30
0.0
 70
    64
  0
VERTEX
  5
328
  8
0
 10
66.517669
 20
45.450795
 30
0.0
 70
    64
  0
VERTEX
  5
329
  8
0
 10
63.619892
 20
44.674338
 30
2.0
 70
    64
  0
VERTEX
  5
32A
  8
0
 10
63.619892
 20
44.674338
 30
0.0
 70
    64
  0
VERTEX
  5
32B
  8
0
 10
63.619892
 20
44.674338
 30
0.0
 70
    64
  0
VERTEX
  5
32C
  8
0
 10
62.843435
 20
47.572115
 30
2.0
 70
    64
  0
VERTEX
  5
32D
  8
0
 10
62.843435
 20
47.572115
 30
0.0
 70
    64
  0
VERTEX
  5
32E
  8
0
 10
63.619892
 20
44.674338
 30
0.0
 70
    64
  0
VERTEX
  5
32F
  8
0
 10
65.741212
 20
48.348572
 30
2.0
 70
    64
  0
VERTEX
  5
330
  8
0
 10
65.741212
 20
48.348572
 30
0.0
 70
    64
  0
VERTEX
  5
331
  8
0
 10
66.517669
 20
45.450795
 30
0.0
 70
    64
  0
VERTEX
  5
332
  8
0
 10
65.741212
 20
48.348572
 30
2.0
 70
    64
  0
VERTEX
  5
333
  8
0
 10
65.741212
 20
48.348572
 30
2.0
 70
    64
  0
VERTEX
  5
334
  8
0
 10
66.517669
 20
45.450795
 30
2.0
 70
    64
  0
VERTEX
  5
335
  8
0
 10
62.843435
 20
47.572115
 30
2.0
 70
    64
  0
VERTEX
  5
336
  8
0
 10
62.843435
 20
47.572115
 30
2.0
 70
    64
  0
VERTEX
  5
337
  8
0
 10
63.619892
 20
44.674338
 30
2.0
 70
    64
  0
SEQEND
  5
338
  8
0
  0
POLYLINE
  5
339
  8
0
 66
     1
 10
0.0
 20
0.0
 30
0.0
 70
    16
 71
     6
 72
     3
  0
VERTEX
  5
33A
  8
0
 10
61.567922
 20
36.877581
 30
2.0
 70
    64
  0
VERTEX
  5
33B
  8
0
 10
61.567922
 20
36.877581
 30
0.0
 70
    64
  0
VERTEX
  5
33C
  8
0
 10
61.567922
 20
36.877581
 30
0.0
 70
    64
  0
VERTEX
  5
33D
  8
0
 10
58.670144
 20
36.101124
 30
2.0
 70
    64
  0
VERTEX
  5
33E
  8
0
 10
58.670144
 20
36.101124
 30
0.0
 70
    64
  0
VERTEX
  5
33F
  8
0
 10
58.670144
 20
36.101124
 30
0.0
 70
    64
  0
VERTEX
  5
340
  8
0
 10
57.893687
 20
38.998901
 30
2.0
 70
    64
  0
VERTEX
  5
341
  8
0
 10
57.893687
 20
38.998901
 30
0.0
 70
    64
  0
VERTEX
  5
342
  8
0
 10
58.670144
 20
36.101124
 30
0.0
 70
    64
  0
VERTEX
  5
343
  8
0
 10
60.791465
 20
39.775358
 30
2.0
 70
    64
  0
VERTEX
  5
344
  8
0
 10
60.791465
 20
39.775358
 30
0.0
 70
    64
  0
VERTEX
  5
345
  8
0
 10
61.567922
 20
36.877581
 30
0.0
 70
    64
  0
VERTEX
  5
346
  8
0
 10
60.791465
 20
39.775358
 30
2.0
 70
    64
  0
VERTEX
  5
347
  8
0
 10
60.791465
 20
39.775358
 30
2.0
 70
    64
  0
VERTEX
  5
348
  8
0
 10
61.567922
 20
36.877581
 30
2.0
 70
    64
  0
VERTEX
  5
349
  8
0
 10
57.893687
 20
38.998901
 30
2.0
 70
    64
  0
VERTEX
  5
34A
  8
0
 10
57.893687
 20
38.998901
 30
2.0
 70
    64
  0
VERTEX
  5
34B
  8
0
 10
58.670144
 20
36.101124
 30
2.0
 70
    64
  0
SEQEND
  5
34C
  8
0
  0
POLYLINE
  5
34D
  8
0
 66
     1
 10
0.0
 20
0.0
 30
0.0
 70
    16
 71
     6
 72
     3
  0
VERTEX
  5
34E
  8
0
 10
71.467417
 20
54.024009
 30
2.0
 70
    64
  0
VERTEX
  5
34F
  8
0
 10
71.467417
 20
54.024009
 30
0.0
 70
    64
  0
VERTEX
  5
350
  8
0
 10
71.467417
 20
54.024009
 30
0.0
 70
    64
  0
VERTEX
  5
351
  8
0
 10
68.569639
 20
53.247552
 30
2.0
 70
    64
  0
VERTEX
  5
352
  8
0
 10
68.569639
 20
53.247552
 30
0.0
 70
    64
  0
VERTEX
  5
353
  8
0
 10
68.569639
 20
53.247552
 30
0.0
 70
    64
  0
VERTEX
  5
354
  8
0
 10
67.793182
 20
56.145329
 30
2.0
 70
    64
  0
VERTEX
  5
355
  8
0
 10
67.793182
 20
56.145329
 30
0.0
 70
    64
  0
VERTEX
  5
356
  8
0
 10
68.569639
 20
53.247552
 30
0.0
 70
    64
  0
VERTEX
  5
357
  8
0
 10
70.69096
 20
56.921786
 30
2.0
 70
    64
  0
VERTEX
  5
358
  8
0
 10
70.69096
 20
56.921786
 30
0.0
 70
    64
  0
VERTEX
  5
359
  8
0
 10
71.467417
 20
54.024009
 30
0.0
 70
    64
  0
VERTEX
  5
35A
  8
0
 10
70.69096
 20
56.921786
 30
2.0
 70
    64
  0
VERTEX
  5
35B
  8
0
 10
70.69096
 20
56.921786
 30
2.0
 70
    64
  0
VERTEX
  5
35C
  8
0
 10
71.467417
 20
54.024009
 30
2.0
 70
    64
  0
VERTEX
  5
35D
  8
0
 10
67.793182
 20
56.145329
 30
2.0
 70
    64
  0
VERTEX
  5
35E
  8
0
 10
67.793182
 20
56.145329
 30
2.0
 70
    64
  0
VERTEX
  5
35F
  8
0
 10
68.569639
 20
53.247552
 30
2.0
 70
    64
  0
SEQEND
  5
360
  8
0
  0
POLYLINE
  5
361
  8
0
 66
     1
 10
0.0
 20
0.0
 30
0.0
 70
    16
 71
     6
 72
     3
  0
VERTEX
  5
362
  8
0
 10
76.417164
 20
62.597223
 30
2.0
 70
    64
  0
VERTEX
  5
363
  8
0
 10
76.417164
 20
62.597223
 30
0.0
 70
    64
  0
VERTEX
  5
364
  8
0
 10
76.417164
 20
62.597223
 30
0.0
 70
    64
  0
VERTEX
  5
365
  8
0
 10
73.519387
 20
61.820766
 30
2.0
 70
    64
  0
VERTEX
  5
366
  8
0
 10
73.519387
 20
61.820766
 30
0.0
 70
    64
  0
VERTEX
  5
367
  8
0
 10
73.519387
 20
61.820766
 30
0.0
 70
    64
  0
VERTEX
  5
368
  8
0
 10
72.74293
 20
64.718543
 30
2.0
 70
    64
  0
VERTEX
  5
369
  8
0
 10
72.74293
 20
64.718543
 30
0.0
 70
    64
  0
VERTEX
  5
36A
  8
0
 10
73.519387
 20
61.820766
 30
0.0
 70
    64
  0
VERTEX
  5
36B
  8
0
 10
75.640707
 20
65.495001
 30
2.0
 70
    64
  0
VERTEX
  5
36C
  8
0
 10
75.640707
 20
65.495001
 30
0.0
 70
    64
  0
VERTEX
  5
36D
  8
0
 10
76.417164
 20
62.597223
 30
0.0
 70
    64
  0
VERTEX
  5
36E
  8
0
 10
75.640707
 20
65.495001
 30
2.0
 70
    64
  0
VERTEX
  5
36F
  8
0
 10
75.640707
 20
65.495001
 30
2.0
 70
    64
  0
VERTEX
  5
370
  8
0
 10
76.417164
 20
62.597223
 30
2.0
 70
    64
  0
VERTEX
  5
371
  8
0
 10
72.74293
 20
64.718543
 30
2.0
 70
    64
  0
VERTEX
  5
372
  8
0
 10
72.74293
 20
64.718543
 30
2.0
 70
    64
  0
VERTEX
  5
373
  8
0
 10
73.519387
 20
61.820766
 30
2.0
 70
    64
  0
SEQEND
  5
374
  8
0
  0
POLYLINE
  5
375
  8
0
 66
     1
 10
0.0
 20
0.0
 30
0.0
 70
    16
 71
     6
 72
     3
  0
VERTEX
  5
376
  8
0
 10
81.366912
 20
71.170437
 30
2.0
 70
    64
  0
VERTEX
  5
377
  8
0
 10
81.366912
 20
71.170437
 30
0.0
 70
    64
  0
VERTEX
  5
378
  8
0
 10
81.366912
 20
71.170437
 30
0.0
 70
    64
  0
VERTEX
  5
379
  8
0
 10
78.469134
 20
70.39398
 30
2.0
 70
    64
  0
VERTEX
  5
37A
  8
0
 10
78.469134
 20
70.39398
 30
0.0
 70
    64
  0
VERTEX
  5
37B
  8
0
 10
78.469134
 20
70.39398
 30
0.0
 70
    64
  0
VERTEX
  5
37C
  8
0
 10
77.692677
 20
73.291757
 30
2.0
 70
    64
  0
VERTEX
  5
37D
  8
0
 10
77.692677
 20
73.291757
 30
0.0
 70
    64
  0
VERTEX
  5
37E
  8
0
 10
78.469134
 20
70.39398
 30
0.0
 70
    64
  0
VERTEX
  5
37F
  8
0
 10
80.590455
 20
74.068215
 30
2.0
 70
    64
  0
VERTEX
  5
380
  8
0
 10
80.590455
 20
74.068215
 30
0.0
 70
    64
  0
VERTEX
  5
381
  8
0
 10
81.366912
 20
71.170437
 30
0.0
 70
    64
  0
VERTEX
  5
382
  8
0
 10
80.590455
 20
74.068215
 30
2.0
 70
    64
  0
VERTEX
  5
383
  8
0
 10
80.590455
 20
74.068215
 30
2.0
 70
    64
  0
VERTEX
  5
384
  8
0
 10
81.366912
 20
71.170437
 30
2.0
 70
    64
  0
VERTEX
  5
385
  8
0
 10
77.692677
 20
73.291757
 30
2.0
 70
    64
  0
VERTEX
  5
386
  8
0
 10
77.692677
 20
73.291757
 30
2.0
 70
    64
  0
VERTEX
  5
387
  8
0
 10
78.469134
 20
70.39398
 30
2.0
 70
    64
  0
SEQEND
  5
388
  8
0
  0
POLYLINE
  5
43D
  8
0
 66
     1
 10
0.0
 20
0.0
 30
0.0
 70
    16
 71
     6
 72
     3
  0
VERTEX
  5
43E
  8
0
 10
131.427885
 20
62.843435
 30
2.0
 70
    64
  0
VERTEX
  5
43F
  8
0
 10
131.427885
 20
62.843435
 30
0.0
 70
    64
  0
VERTEX
  5
440
  8
0
 10
131.427885
 20
62.843435
 30
0.0
 70
    64
  0
VERTEX
  5
441
  8
0
 10
134.325662
 20
63.619892
 30
2.0
 70
    64
  0
VERTEX
  5
442
  8
0
 10
134.325662
 20
63.619892
 30
0.0
 70
    64
  0
VERTEX
  5
443
  8
0
 10
134.325662
 20
63.619892
 30
0.0
 70
    64
  0
VERTEX
  5
444
  8
0
 10
133.549205
 20
66.517669
 30
2.0
 70
    64
  0
VERTEX
  5
445
  8
0
 10
133.549205
 20
66.517669
 30
0.0
 70
    64
  0
VERTEX
  5
446
  8
0
 10
134.325662
 20
63.619892
 30
0.0
 70
    64
  0
VERTEX
  5
447
  8
0
 10
130.651428
 20
65.741212
 30
2.0
 70
    64
  0
VERTEX
  5
448
  8
0
 10
130.651428
 20
65.741212
 30
0.0
 70
    64
  0
VERTEX
  5
449
  8
0
 10
131.427885
 20
62.843435
 30
0.0
 70
    64
  0
VERTEX
  5
44A
  8
0
 10
130.651428
 20
65.741212
 30
2.0
 70
    64
  0
VERTEX
  5
44B
  8
0
 10
130.651428
 20
65.741212
 30
2.0
 70
    64
  0
VERTEX
  5
44C
  8
0
 10
131.427885
 20
62.843435
 30
2.0
 70
    64
  0
VERTEX
  5
44D
  8
0
 10
133.549205
 20
66.517669
 30
2.0
 70
    64
  0
VERTEX
  5
44E
  8
0
 10
133.549205
 20
66.517669
 30
2.0
 70
    64
  0
VERTEX
  5
44F
  8
0
 10
134.325662
 20
63.619892
 30
2.0
 70
    64
  0
SEQEND
  5
450
  8
0
  0
POLYLINE
  5
451
  8
0
 66
     1
 10
0.0
 20
0.0
 30
0.0
 70
    16
 71
     6
 72
     3
  0
VERTEX
  5
452
  8
0
 10
148.574313
 20
52.94394
 30
2.0
 70
    64
  0
VERTEX
  5
453
  8
0
 10
148.574313
 20
52.94394
 30
0.0
 70
    64
  0
VERTEX
  5
454
  8
0
 10
148.574313
 20
52.94394
 30
0.0
 70
    64
  0
VERTEX
  5
455
  8
0
 10
151.47209
 20
53.720397
 30
2.0
 70
    64
  0
VERTEX
  5
456
  8
0
 10
151.47209
 20
53.720397
 30
0.0
 70
    64
  0
VERTEX
  5
457
  8
0
 10
151.47209
 20
53.720397
 30
0.0
 70
    64
  0
VERTEX
  5
458
  8
0
 10
150.695633
 20
56.618174
 30
2.0
 70
    64
  0
VERTEX
  5
459
  8
0
 10
150.695633
 20
56.618174
 30
0.0
 70
    64
  0
VERTEX
  5
45A
  8
0
 10
151.47209
 20
53.720397
 30
0.0
 70
    64
  0
VERTEX
  5
45B
  8
0
 10
147.797856
 20
55.841717
 30
2.0
 70
    64
  0
VERTEX
  5
45C
  8
0
 10
147.797856
 20
55.841717
 30
0.0
 70
    64
  0
VERTEX
  5
45D
  8
0
 10
148.574313
 20
52.94394
 30
0.0
 70
    64
  0
VERTEX
  5
45E
  8
0
 10
147.797856
 20
55.841717
 30
2.0
 70
    64
  0
VERTEX
  5
45F
  8
0
 10
147.797856
 20
55.841717
 30
2.0
 70
    64
  0
VERTEX
  5
460
  8
0
 10
148.574313
 20
52.94394
 30
2.0
 70
    64
  0
VERTEX
  5
461
  8
0
 10
150.695633
 20
56.618174
 30
2.0
 70
    64
  0
VERTEX
  5
462
  8
0
 10
150.695633
 20
56.618174
 30
2.0
 70
    64
  0
VERTEX
  5
463
  8
0
 10
151.47209
 20
53.720397
 30
2.0
 70
    64
  0
SEQEND
  5
464
  8
0
  0
POLYLINE
  5
465
  8
0
 66
     1
 10
0.0
 20
0.0
 30
0.0
 70
    16
 71
     6
 72
     3
  0
VERTEX
  5
466
  8
0
 10
157.147527
 20
47.994192
 30
2.0
 70
    64
  0
VERTEX
  5
467
  8
0
 10
157.147527
 20
47.994192
 30
0.0
 70
    64
  0
VERTEX
  5
468
  8
0
 10
157.147527
 20
47.994192
 30
0.0
 70
    64
  0
VERTEX
  5
469
  8
0
 10
160.045305
 20
48.770649
 30
2.0
 70
    64
  0
VERTEX
  5
46A
  8
0
 10
160.045305
 20
48.770649
 30
0.0
 70
    64
  0
VERTEX
  5
46B
  8
0
 10
160.045305
 20
48.770649
 30
0.0
 70
    64
  0
VERTEX
  5
46C
  8
0
 10
159.268847
 20
51.668427
 30
2.0
 70
    64
  0
VERTEX
  5
46D
  8
0
 10
159.268847
 20
51.668427
 30
0.0
 70
    64
  0
VERTEX
  5
46E
  8
0
 10
160.045305
 20
48.770649
 30
0.0
 70
    64
  0
VERTEX
  5
46F
  8
0
 10
156.37107
 20
50.89197
 30
2.0
 70
    64
  0
VERTEX
  5
470
  8
0
 10
156.37107
 20
50.89197
 30
0.0
 70
    64
  0
VERTEX
  5
471
  8
0
 10
157.147527
 20
47.994192
 30
0.0
 70
    64
  0
VERTEX
  5
472
  8
0
 10
156.37107
 20
50.89197
 30
2.0
 70
    64
  0
VERTEX
  5
473
  8
0
 10
156.37107
 20
50.89197
 30
2.0
 70
    64
  0
VERTEX
  5
474
  8
0
 10
157.147527
 20
47.994192
 30
2.0
 70
    64
  0
VERTEX
  5
475
  8
0
 10
159.268847
 20
51.668427
 30
2.0
 70
    64
  0
VERTEX
  5
476
  8
0
 10
159.268847
 20
51.668427
 30
2.0
 70
    64
  0
VERTEX
  5
477
  8
0
 10
160.045305
 20
48.770649
 30
2.0
 70
    64
  0
SEQEND
  5
478
  8
0
  0
POLYLINE
  5
479
  8
0
 66
     1
 10
0.0
 20
0.0
 30
0.0
 70
    16
 71
     6
 72
     3
  0
VERTEX
  5
47A
  8
0
 10
140.001099
 20
57.893687
 30
2.0
 70
    64
  0
VERTEX
  5
47B
  8
0
 10
140.001099
 20
57.893687
 30
0.0
 70
    64
  0
VERTEX
  5
47C
  8
0
 10
140.001099
 20
57.893687
 30
0.0
 70
    64
  0
VERTEX
  5
47D
  8
0
 10
142.898876
 20
58.670144
 30
2.0
 70
    64
  0
VERTEX
  5
47E
  8
0
 10
142.898876
 20
58.670144
 30
0.0
 70
    64
  0
VERTEX
  5
47F
  8
0
 10
142.898876
 20
58.670144
 30
0.0
 70
    64
  0
VERTEX
  5
480
  8
0
 10
142.122419
 20
61.567922
 30
2.0
 70
    64
  0
VERTEX
  5
481
  8
0
 10
142.122419
 20
61.567922
 30
0.0
 70
    64
  0
VERTEX
  5
482
  8
0
 10
142.898876
 20
58.670144
 30
0.0
 70
    64
  0
VERTEX
  5
483
  8
0
 10
139.224642
 20
60.791465
 30
2.0
 70
    64
  0
VERTEX
  5
484
  8
0
 10
139.224642
 20
60.791465
 30
0.0
 70
    64
  0
VERTEX
  5
485
  8
0
 10
140.001099
 20
57.893687
 30
0.0
 70
    64
  0
VERTEX
  5
486
  8
0
 10
139.224642
 20
60.791465
 30
2.0
 70
    64
  0
VERTEX
  5
487
  8
0
 10
139.224642
 20
60.791465
 30
2.0
 70
    64
  0
VERTEX
  5
488
  8
0
 10
140.001099
 20
57.893687
 30
2.0
 70
    64
  0
VERTEX
  5
489
  8
0
 10
142.122419
 20
61.567922
 30
2.0
 70
    64
  0
VERTEX
  5
48A
  8
0
 10
142.122419
 20
61.567922
 30
2.0
 70
    64
  0
VERTEX
  5
48B
  8
0
 10
142.898876
 20
58.670144
 30
2.0
 70
    64
  0
SEQEND
  5
48C
  8
0
  0
POLYLINE
  5
48D
  8
0
 66
     1
 10
0.0
 20
0.0
 30
0.0
 70
    16
 71
     6
 72
     3
  0
VERTEX
  5
48E
  8
0
 10
122.854671
 20
67.793182
 30
2.0
 70
    64
  0
VERTEX
  5
48F
  8
0
 10
122.854671
 20
67.793182
 30
0.0
 70
    64
  0
VERTEX
  5
490
  8
0
 10
122.854671
 20
67.793182
 30
0.0
 70
    64
  0
VERTEX
  5
491
  8
0
 10
125.752448
 20
68.569639
 30
2.0
 70
    64
  0
VERTEX
  5
492
  8
0
 10
125.752448
 20
68.569639
 30
0.0
 70
    64
  0
VERTEX
  5
493
  8
0
 10
125.752448
 20
68.569639
 30
0.0
 70
    64
  0
VERTEX
  5
494
  8
0
 10
124.975991
 20
71.467417
 30
2.0
 70
    64
  0
VERTEX
  5
495
  8
0
 10
124.975991
 20
71.467417
 30
0.0
 70
    64
  0
VERTEX
  5
496
  8
0
 10
125.752448
 20
68.569639
 30
0.0
 70
    64
  0
VERTEX
  5
497
  8
0
 10
122.078214
 20
70.69096
 30
2.0
 70
    64
  0
VERTEX
  5
498
  8
0
 10
122.078214
 20
70.69096
 30
0.0
 70
    64
  0
VERTEX
  5
499
  8
0
 10
122.854671
 20
67.793182
 30
0.0
 70
    64
  0
VERTEX
  5
49A
  8
0
 10
122.078214
 20
70.69096
 30
2.0
 70
    64
  0
VERTEX
  5
49B
  8
0
 10
122.078214
 20
70.69096
 30
2.0
 70
    64
  0
VERTEX
  5
49C
  8
0
 10
122.854671
 20
67.793182
 30
2.0
 70
    64
  0
VERTEX
  5
49D
  8
0
 10
124.975991
 20
71.467417
 30
2.0
 70
    64
  0
VERTEX
  5
49E
  8
0
 10
124.975991
 20
71.467417
 30
2.0
 70
    64
  0
VERTEX
  5
49F
  8
0
 10
125.752448
 20
68.569639
 30
2.0
 70
    64
  0
SEQEND
  5
4A0
  8
0
  0
POLYLINE
  5
4A1
  8
0
 66
     1
 10
0.0
 20
0.0
 30
0.0
 70
    16
 71
     6
 72
     3
  0
VERTEX
  5
4A2
  8
0
 10
114.281457
 20
72.74293
 30
2.0
 70
    64
  0
VERTEX
  5
4A3
  8
0
 10
114.281457
 20
72.74293
 30
0.0
 70
    64
  0
VERTEX
  5
4A4
  8
0
 10
114.281457
 20
72.74293
 30
0.0
 70
    64
  0
VERTEX
  5
4A5
  8
0
 10
117.179234
 20
73.519387
 30
2.0
 70
    64
  0
VERTEX
  5
4A6
  8
0
 10
117.179234
 20
73.519387
 30
0.0
 70
    64
  0
VERTEX
  5
4A7
  8
0
 10
117.179234
 20
73.519387
 30
0.0
 70
    64
  0
VERTEX
  5
4A8
  8
0
 10
116.402777
 20
76.417164
 30
2.0
 70
    64
  0
VERTEX
  5
4A9
  8
0
 10
116.402777
 20
76.417164
 30
0.0
 70
    64
  0
VERTEX
  5
4AA
  8
0
 10
117.179234
 20
73.519387
 30
0.0
 70
    64
  0
VERTEX
  5
4AB
  8
0
 10
113.504999
 20
75.640707
 30
2.0
 70
    64
  0
VERTEX
  5
4AC
  8
0
 10
113.504999
 20
75.640707
 30
0.0
 70
    64
  0
VERTEX
  5
4AD
  8
0
 10
114.281457
 20
72.74293
 30
0.0
 70
    64
  0
VERTEX
  5
4AE
  8
0
 10
113.504999
 20
75.640707
 30
2.0
 70
    64
  0
VERTEX
  5
4AF
  8
0
 10
113.504999
 20
75.640707
 30
2.0
 70
    64
  0
VERTEX
  5
4B0
  8
0
 10
114.281457
 20
72.74293
 30
2.0
 70
    64
  0
VERTEX
  5
4B1
  8
0
 10
116.402777
 20
76.417164
 30
2.0
 70
    64
  0
VERTEX
  5
4B2
  8
0
 10
116.402777
 20
76.417164
 30
2.0
 70
    64
  0
VERTEX
  5
4B3
  8
0
 10
117.179234
 20
73.519387
 30
2.0
 70
    64
  0
SEQEND
  5
4B4
  8
0
  0
POLYLINE
  5
4B5
  8
0
 66
     1
 10
0.0
 20
0.0
 30
0.0
 70
    16
 71
     6
 72
     3
  0
VERTEX
  5
4B6
  8
0
 10
105.708243
 20
77.692677
 30
2.0
 70
    64
  0
VERTEX
  5
4B7
  8
0
 10
105.708243
 20
77.692677
 30
0.0
 70
    64
  0
VERTEX
  5
4B8
  8
0
 10
105.708243
 20
77.692677
 30
0.0
 70
    64
  0
VERTEX
  5
4B9
  8
0
 10
108.60602
 20
78.469134
 30
2.0
 70
    64
  0
VERTEX
  5
4BA
  8
0
 10
108.60602
 20
78.469134
 30
0.0
 70
    64
  0
VERTEX
  5
4BB
  8
0
 10
108.60602
 20
78.469134
 30
0.0
 70
    64
  0
VERTEX
  5
4BC
  8
0
 10
107.829563
 20
81.366912
 30
2.0
 70
    64
  0
VERTEX
  5
4BD
  8
0
 10
107.829563
 20
81.366912
 30
0.0
 70
    64
  0
VERTEX
  5
4BE
  8
0
 10
108.60602
 20
78.469134
 30
0.0
 70
    64
  0
VERTEX
  5
4BF
  8
0
 10
104.931785
 20
80.590455
 30
2.0
 70
    64
  0
VERTEX
  5
4C0
  8
0
 10
104.931785
 20
80.590455
 30
0.0
 70
    64
  0
VERTEX
  5
4C1
  8
0
 10
105.708243
 20
77.692677
 30
0.0
 70
    64
  0
VERTEX
  5
4C2
  8
0
 10
104.931785
 20
80.590455
 30
2.0
 70
    64
  0
VERTEX
  5
4C3
  8
0
 10
104.931785
 20
80.590455
 30
2.0
 70
    64
  0
VERTEX
  5
4C4
  8
0
 10
105.708243
 20
77.692677
 30
2.0
 70
    64
  0
VERTEX
  5
4C5
  8
0
 10
107.829563
 20
81.366912
 30
2.0
 70
    64
  0
VERTEX
  5
4C6
  8
0
 10
107.829563
 20
81.366912
 30
2.0
 70
    64
  0
VERTEX
  5
4C7
  8
0
 10
108.60602
 20
78.469134
 30
2.0
 70
    64
  0
SEQEND
  5
4C8
  8
0
  0
POLYLINE
  5
4DD
  8
0
 66
     1
 10
0.0
 20
0.0
 30
0.0
 70
    16
 71
     6
 72
     3
  0
VERTEX
  5
4DE
  8
0
 10
47.572115
 20
116.156565
 30
2.0
 70
    64
  0
VERTEX
  5
4DF
  8
0
 10
47.572115
 20
116.156565
 30
0.0
 70
    64
  0
VERTEX
  5
4E0
  8
0
 10
47.572115
 20
116.156565
 30
0.0
 70
    64
  0
VERTEX
  5
4E1
  8
0
 10
44.674338
 20
115.380108
 30
2.0
 70
    64
  0
VERTEX
  5
4E2
  8
0
 10
44.674338
 20
115.380108
 30
0.0
 70
    64
  0
VERTEX
  5
4E3
  8
0
 10
44.674338
 20
115.380108
 30
0.0
 70
    64
  0
VERTEX
  5
4E4
  8
0
 10
45.450795
 20
112.482331
 30
2.0
 70
    64
  0
VERTEX
  5
4E5
  8
0
 10
45.450795
 20
112.482331
 30
0.0
 70
    64
  0
VERTEX
  5
4E6
  8
0
 10
44.674338
 20
115.380108
 30
0.0
 70
    64
  0
VERTEX
  5
4E7
  8
0
 10
48.348572
 20
113.258788
 30
2.0
 70
    64
  0
VERTEX
  5
4E8
  8
0
 10
48.348572
 20
113.258788
 30
0.0
 70
    64
  0
VERTEX
  5
4E9
  8
0
 10
47.572115
 20
116.156565
 30
0.0
 70
    64
  0
VERTEX
  5
4EA
  8
0
 10
48.348572
 20
113.258788
 30
2.0
 70
    64
  0
VERTEX
  5
4EB
  8
0
 10
48.348572
 20
113.258788
 30
2.0
 70
    64
  0
VERTEX
  5
4EC
  8
0
 10
47.572115
 20
116.156565
 30
2.0
 70
    64
  0
VERTEX
  5
4ED
  8
0
 10
45.450795
 20
112.482331
 30
2.0
 70
    64
  0
VERTEX
  5
4EE
  8
0
 10
45.450795
 20
112.482331
 30
2.0
 70
    64
  0
VERTEX
  5
4EF
  8
0
 10
44.674338
 20
115.380108
 30
2.0
 70
    64
  0
SEQEND
  5
4F0
  8
0
  0
POLYLINE
  5
4F1
  8
0
 66
     1
 10
0.0
 20
0.0
 30
0.0
 70
    16
 71
     6
 72
     3
  0
VERTEX
  5
4F2
  8
0
 10
30.425687
 20
126.05606
 30
2.0
 70
    64
  0
VERTEX
  5
4F3
  8
0
 10
30.425687
 20
126.05606
 30
0.0
 70
    64
  0
VERTEX
  5
4F4
  8
0
 10
30.425687
 20
126.05606
 30
0.0
 70
    64
  0
VERTEX
  5
4F5
  8
0
 10
27.52791
 20
125.279603
 30
2.0
 70
    64
  0
VERTEX
  5
4F6
  8
0
 10
27.52791
 20
125.279603
 30
0.0
 70
    64
  0
VERTEX
  5
4F7
  8
0
 10
27.52791
 20
125.279603
 30
0.0
 70
    64
  0
VERTEX
  5
4F8
  8
0
 10
28.304367
 20
122.381826
 30
2.0
 70
    64
  0
VERTEX
  5
4F9
  8
0
 10
28.304367
 20
122.381826
 30
0.0
 70
    64
  0
VERTEX
  5
4FA
  8
0
 10
27.52791
 20
125.279603
 30
0.0
 70
    64
  0
VERTEX
  5
4FB
  8
0
 10
31.202144
 20
123.158283
 30
2.0
 70
    64
  0
VERTEX
  5
4FC
  8
0
 10
31.202144
 20
123.158283
 30
0.0
 70
    64
  0
VERTEX
  5
4FD
  8
0
 10
30.425687
 20
126.05606
 30
0.0
 70
    64
  0
VERTEX
  5
4FE
  8
0
 10
31.202144
 20
123.158283
 30
2.0
 70
    64
  0
VERTEX
  5
4FF
  8
0
 10
31.202144
 20
123.158283
 30
2.0
 70
    64
  0
VERTEX
  5
500
  8
0
 10
30.425687
 20
126.05606
 30
2.0
 70
    64
  0
VERTEX
  5
501
  8
0
 10
28.304367
 20
122.381826
 30
2.0
 70
    64
  0
VERTEX
  5
502
  8
0
 10
28.304367
 20
122.381826
 30
2.0
 70
    64
  0
VERTEX
  5
503
  8
0
 10
27.52791
 20
125.279603
 30
2.0
 70
    64
  0
SEQEND
  5
504
  8
0
  0
POLYLINE
  5
505
  8
0
 66
     1
 10
0.0
 20
0.0
 30
0.0
 70
    16
 71
     6
 72
     3
  0
VERTEX
  5
506
  8
0
 10
21.852473
 20
131.005808
 30
2.0
 70
    64
  0
VERTEX
  5
507
  8
0
 10
21.852473
 20
131.005808
 30
0.0
 70
    64
  0
VERTEX
  5
508
  8
0
 10
21.852473
 20
131.005808
 30
0.0
 70
    64
  0
VERTEX
  5
509
  8
0
 10
18.954695
 20
130.229351
 30
2.0
 70
    64
  0
VERTEX
  5
50A
  8
0
 10
18.954695
 20
130.229351
 30
0.0
 70
    64
  0
VERTEX
  5
50B
  8
0
 10
18.954695
 20
130.229351
 30
0.0
 70
    64
  0
VERTEX
  5
50C
  8
0
 10
19.731153
 20
127.331573
 30
2.0
 70
    64
  0
VERTEX
  5
50D
  8
0
 10
19.731153
 20
127.331573
 30
0.0
 70
    64
  0
VERTEX
  5
50E
  8
0
 10
18.954695
 20
130.229351
 30
0.0
 70
    64
  0
VERTEX
  5
50F
  8
0
 10
22.62893
 20
128.10803
 30
2.0
 70
    64
  0
VERTEX
  5
510
  8
0
 10
22.62893
 20
128.10803
 30
0.0
 70
    64
  0
VERTEX
  5
511
  8
0
 10
21.852473
 20
131.005808
 30
0.0
 70
    64
  0
VERTEX
  5
512
  8
0
 10
22.62893
 20
128.10803
 30
2.0
 70
    64
  0
VERTEX
  5
513
  8
0
 10
22.62893
 20
128.10803
 30
2.0
 70
    64
  0
VERTEX
  5
514
  8
0
 10
21.852473
 20
131.005808
 30
2.0
 70
    64
  0
VERTEX
  5
515
  8
0
 10
19.731153
 20
127.331573
 30
2.0
 70
    64
  0
VERTEX
  5
516
  8
0
 10
19.731153
 20
127.331573
 30
2.0
 70
    64
  0
VERTEX
  5
517
  8
0
 10
18.954695
 20
130.229351
 30
2.0
 70
    64
  0
SEQEND
  5
518
  8
0
  0
POLYLINE
  5
519
  8
0
 66
     1
 10
0.0
 20
0.0
 30
0.0
 70
    16
 71
     6
 72
     3
  0
VERTEX
  5
51A
  8
0
 10
38.998901
 20
121.106313
 30
2.0
 70
    64
  0
VERTEX
  5
51B
  8
0
 10
38.998901
 20
121.106313
 30
0.0
 70
    64
  0
VERTEX
  5
51C
  8
0
 10
38.998901
 20
121.106313
 30
0.0
 70
    64
  0
VERTEX
  5
51D
  8
0
 10
36.101124
 20
120.329856
 30
2.0
 70
    64
  0
VERTEX
  5
51E
  8
0
 10
36.101124
 20
120.329856
 30
0.0
 70
    64
  0
VERTEX
  5
51F
  8
0
 10
36.101124
 20
120.329856
 30
0.0
 70
    64
  0
VERTEX
  5
520
  8
0
 10
36.877581
 20
117.432078
 30
2.0
 70
    64
  0
VERTEX
  5
521
  8
0
 10
36.877581
 20
117.432078
 30
0.0
 70
    64
  0
VERTEX
  5
522
  8
0
 10
36.101124
 20
120.329856
 30
0.0
 70
    64
  0
VERTEX
  5
523
  8
0
 10
39.775358
 20
118.208535
 30
2.0
 70
    64
  0
VERTEX
  5
524
  8
0
 10
39.775358
 20
118.208535
 30
0.0
 70
    64
  0
VERTEX
  5
525
  8
0
 10
38.998901
 20
121.106313
 30
0.0
 70
    64
  0
VERTEX
  5
526
  8
0
 10
39.775358
 20
118.208535
 30
2.0
 70
    64
  0
VERTEX
  5
527
  8
0
 10
39.775358
 20
118.208535
 30
2.0
 70
    64
  0
VERTEX
  5
528
  8
0
 10
38.998901
 20
121.106313
 30
2.0
 70
    64
  0
VERTEX
  5
529
  8
0
 10
36.877581
 20
117.432078
 30
2.0
 70
    64
  0
VERTEX
  5
52A
  8
0
 10
36.877581
 20
117.432078
 30
2.0
 70
    64
  0
VERTEX
  5
52B
  8
0
 10
36.101124
 20
120.329856
 30
2.0
 70
    64
  0
SEQEND
  5
52C
  8
0
  0
POLYLINE
  5
52D
  8
0
 66
     1
 10
0.0
 20
0.0
 30
0.0
 70
    16
 71
     6
 72
     3
  0
VERTEX
  5
52E
  8
0
 10
56.145329
 20
111.206818
 30
2.0
 70
    64
  0
VERTEX
  5
52F
  8
0
 10
56.145329
 20
111.206818
 30
0.0
 70
    64
  0
VERTEX
  5
530
  8
0
 10
56.145329
 20
111.206818
 30
0.0
 70
    64
  0
VERTEX
  5
531
  8
0
 10
53.247552
 20
110.430361
 30
2.0
 70
    64
  0
VERTEX
  5
532
  8
0
 10
53.247552
 20
110.430361
 30
0.0
 70
    64
  0
VERTEX
  5
533
  8
0
 10
53.247552
 20
110.430361
 30
0.0
 70
    64
  0
VERTEX
  5
534
  8
0
 10
54.024009
 20
107.532583
 30
2.0
 70
    64
  0
VERTEX
  5
535
  8
0
 10
54.024009
 20
107.532583
 30
0.0
 70
    64
  0
VERTEX
  5
536
  8
0
 10
53.247552
 20
110.430361
 30
0.0
 70
    64
  0
VERTEX
  5
537
  8
0
 10
56.921786
 20
108.30904
 30
2.0
 70
    64
  0
VERTEX
  5
538
  8
0
 10
56.921786
 20
108.30904
 30
0.0
 70
    64
  0
VERTEX
  5
539
  8
0
 10
56.145329
 20
111.206818
 30
0.0
 70
    64
  0
VERTEX
  5
53A
  8
0
 10
56.921786
 20
108.30904
 30
2.0
 70
    64
  0
VERTEX
  5
53B
  8
0
 10
56.921786
 20
108.30904
 30
2.0
 70
    64
  0
VERTEX
  5
53C
  8
0
 10
56.145329
 20
111.206818
 30
2.0
 70
    64
  0
VERTEX
  5
53D
  8
0
 10
54.024009
 20
107.532583
 30
2.0
 70
    64
  0
VERTEX
  5
53E
  8
0
 10
54.024009
 20
107.532583
 30
2.0
 70
    64
  0
VERTEX
  5
53F
  8
0
 10
53.247552
 20
110.430361
 30
2.0
 70
    64
  0
SEQEND
  5
540
  8
0
  0
POLYLINE
  5
541
  8
0
 66
     1
 10
0.0
 20
0.0
 30
0.0
 70
    16
 71
     6
 72
     3
  0
VERTEX
  5
542
  8
0
 10
64.718543
 20
106.25707
 30
2.0
 70
    64
  0
VERTEX
  5
543
  8
0
 10
64.718543
 20
106.25707
 30
0.0
 70
    64
  0
VERTEX
  5
544
  8
0
 10
64.718543
 20
106.25707
 30
0.0
 70
    64
  0
VERTEX
  5
545
  8
0
 10
61.820766
 20
105.480613
 30
2.0
 70
    64
  0
VERTEX
  5
546
  8
0
 10
61.820766
 20
105.480613
 30
0.0
 70
    64
  0
VERTEX
  5
547
  8
0
 10
61.820766
 20
105.480613
 30
0.0
 70
    64
  0
VERTEX
  5
548
  8
0
 10
62.597223
 20
102.582836
 30
2.0
 70
    64
  0
VERTEX
  5
549
  8
0
 10
62.597223
 20
102.582836
 30
0.0
 70
    64
  0
VERTEX
  5
54A
  8
0
 10
61.820766
 20
105.480613
 30
0.0
 70
    64
  0
VERTEX
  5
54B
  8
0
 10
65.495001
 20
103.359293
 30
2.0
 70
    64
  0
VERTEX
  5
54C
  8
0
 10
65.495001
 20
103.359293
 30
0.0
 70
    64
  0
VERTEX
  5
54D
  8
0
 10
64.718543
 20
106.25707
 30
0.0
 70
    64
  0
VERTEX
  5
54E
  8
0
 10
65.495001
 20
103.359293
 30
2.0
 70
    64
  0
VERTEX
  5
54F
  8
0
 10
65.495001
 20
103.359293
 30
2.0
 70
    64
  0
VERTEX
  5
550
  8
0
 10
64.718543
 20
106.25707
 30
2.0
 70
    64
  0
VERTEX
  5
551
  8
0
 10
62.597223
 20
102.582836
 30
2.0
 70
    64
  0
VERTEX
  5
552
  8
0
 10
62.597223
 20
102.582836
 30
2.0
 70
    64
  0
VERTEX
  5
553
  8
0
 10
61.820766
 20
105.480613
 30
2.0
 70
    64
  0
SEQEND
  5
554
  8
0
  0
POLYLINE
  5
555
  8
0
 66
     1
 10
0.0
 20
0.0
 30
0.0
 70
    16
 71
     6
 72
     3
  0
VERTEX
  5
556
  8
0
 10
112.482331
 20
133.549205
 30
2.0
 70
    64
  0
VERTEX
  5
557
  8
0
 10
112.482331
 20
133.549205
 30
0.0
 70
    64
  0
VERTEX
  5
558
  8
0
 10
112.482331
 20
133.549205
 30
0.0
 70
    64
  0
VERTEX
  5
559
  8
0
 10
115.380108
 20
134.325662
 30
2.0
 70
    64
  0
VERTEX
  5
55A
  8
0
 10
115.380108
 20
134.325662
 30
0.0
 70
    64
  0
VERTEX
  5
55B
  8
0
 10
115.380108
 20
134.325662
 30
0.0
 70
    64
  0
VERTEX
  5
55C
  8
0
 10
116.156565
 20
131.427885
 30
2.0
 70
    64
  0
VERTEX
  5
55D
  8
0
 10
116.156565
 20
131.427885
 30
0.0
 70
    64
  0
VERTEX
  5
55E
  8
0
 10
115.380108
 20
134.325662
 30
0.0
 70
    64
  0
VERTEX
  5
55F
  8
0
 10
113.258788
 20
130.651428
 30
2.0
 70
    64
  0
VERTEX
  5
560
  8
0
 10
113.258788
 20
130.651428
 30
0.0
 70
    64
  0
VERTEX
  5
561
  8
0
 10
112.482331
 20
133.549205
 30
0.0
 70
    64
  0
VERTEX
  5
562
  8
0
 10
113.258788
 20
130.651428
 30
2.0
 70
    64
  0
VERTEX
  5
563
  8
0
 10
113.258788
 20
130.651428
 30
2.0
 70
    64
  0
VERTEX
  5
564
  8
0
 10
112.482331
 20
133.549205
 30
2.0
 70
    64
  0
VERTEX
  5
565
  8
0
 10
116.156565
 20
131.427885
 30
2.0
 70
    64
  0
VERTEX
  5
566
  8
0
 10
116.156565
 20
131.427885
 30
2.0
 70
    64
  0
VERTEX
  5
567
  8
0
 10
115.380108
 20
134.325662
 30
2.0
 70
    64
  0
SEQEND
  5
568
  8
0
  0
POLYLINE
  5
569
  8
0
 66
     1
 10
0.0
 20
0.0
 30
0.0
 70
    16
 71
     6
 72
     3
  0
VERTEX
  5
56A
  8
0
 10
117.432078
 20
142.122419
 30
2.0
 70
    64
  0
VERTEX
  5
56B
  8
0
 10
117.432078
 20
142.122419
 30
0.0
 70
    64
  0
VERTEX
  5
56C
  8
0
 10
117.432078
 20
142.122419
 30
0.0
 70
    64
  0
VERTEX
  5
56D
  8
0
 10
120.329856
 20
142.898876
 30
2.0
 70
    64
  0
VERTEX
  5
56E
  8
0
 10
120.329856
 20
142.898876
 30
0.0
 70
    64
  0
VERTEX
  5
56F
  8
0
 10
120.329856
 20
142.898876
 30
0.0
 70
    64
  0
VERTEX
  5
570
  8
0
 10
121.106313
 20
140.001099
 30
2.0
 70
    64
  0
VERTEX
  5
571
  8
0
 10
121.106313
 20
140.001099
 30
0.0
 70
    64
  0
VERTEX
  5
572
  8
0
 10
120.329856
 20
142.898876
 30
0.0
 70
    64
  0
VERTEX
  5
573
  8
0
 10
118.208535
 20
139.224642
 30
2.0
 70
    64
  0
VERTEX
  5
574
  8
0
 10
118.208535
 20
139.224642
 30
0.0
 70
    64
  0
VERTEX
  5
575
  8
0
 10
117.432078
 20
142.122419
 30
0.0
 70
    64
  0
VERTEX
  5
576
  8
0
 10
118.208535
 20
139.224642
 30
2.0
 70
    64
  0
VERTEX
  5
577
  8
0
 10
118.208535
 20
139.224642
 30
2.0
 70
    64
  0
VERTEX
  5
578
  8
0
 10
117.432078
 20
142.122419
 30
2.0
 70
    64
  0
VERTEX
  5
579
  8
0
 10
121.106313
 20
140.001099
 30
2.0
 70
    64
  0
VERTEX
  5
57A
  8
0
 10
121.106313
 20
140.001099
 30
2.0
 70
    64
  0
VERTEX
  5
57B
  8
0
 10
120.329856
 20
142.898876
 30
2.0
 70
    64
  0
SEQEND
  5
57C
  8
0
  0
POLYLINE
  5
57D
  8
0
 66
     1
 10
0.0
 20
0.0
 30
0.0
 70
    16
 71
     6
 72
     3
  0
VERTEX
  5
57E
  8
0
 10
127.331573
 20
159.268847
 30
2.0
 70
    64
  0
VERTEX
  5
57F
  8
0
 10
127.331573
 20
159.268847
 30
0.0
 70
    64
  0
VERTEX
  5
580
  8
0
 10
127.331573
 20
159.268847
 30
0.0
 70
    64
  0
VERTEX
  5
581
  8
0
 10
130.229351
 20
160.045305
 30
2.0
 70
    64
  0
VERTEX
  5
582
  8
0
 10
130.229351
 20
160.045305
 30
0.0
 70
    64
  0
VERTEX
  5
583
  8
0
 10
130.229351
 20
160.045305
 30
0.0
 70
    64
  0
VERTEX
  5
584
  8
0
 10
131.005808
 20
157.147527
 30
2.0
 70
    64
  0
VERTEX
  5
585
  8
0
 10
131.005808
 20
157.147527
 30
0.0
 70
    64
  0
VERTEX
  5
586
  8
0
 10
130.229351
 20
160.045305
 30
0.0
 70
    64
  0
VERTEX
  5
587
  8
0
 10
128.10803
 20
156.37107
 30
2.0
 70
    64
  0
VERTEX
  5
588
  8
0
 10
128.10803
 20
156.37107
 30
0.0
 70
    64
  0
VERTEX
  5
589
  8
0
 10
127.331573
 20
159.268847
 30
0.0
 70
    64
  0
VERTEX
  5
58A
  8
0
 10
128.10803
 20
156.37107
 30
2.0
 70
    64
  0
VERTEX
  5
58B
  8
0
 10
128.10803
 20
156.37107
 30
2.0
 70
    64
  0
VERTEX
  5
58C
  8
0
 10
127.331573
 20
159.268847
 30
2.0
 70
    64
  0
VERTEX
  5
58D
  8
0
 10
131.005808
 20
157.147527
 30
2.0
 70
    64
  0
VERTEX
  5
58E
  8
0
 10
131.005808
 20
157.147527
 30
2.0
 70
    64
  0
VERTEX
  5
58F
  8
0
 10
130.229351
 20
160.045305
 30
2.0
 70
    64
  0
SEQEND
  5
590
  8
0
  0
POLYLINE
  5
591
  8
0
 66
     1
 10
0.0
 20
0.0
 30
0.0
 70
    16
 71
     6
 72
     3
  0
VERTEX
  5
592
  8
0
 10
122.381826
 20
150.695633
 30
2.0
 70
    64
  0
VERTEX
  5
593
  8
0
 10
122.381826
 20
150.695633
 30
0.0
 70
    64
  0
VERTEX
  5
594
  8
0
 10
122.381826
 20
150.695633
 30
0.0
 70
    64
  0
VERTEX
  5
595
  8
0
 10
125.279603
 20
151.47209
 30
2.0
 70
    64
  0
VERTEX
  5
596
  8
0
 10
125.279603
 20
151.47209
 30
0.0
 70
    64
  0
VERTEX
  5
597
  8
0
 10
125.279603
 20
151.47209
 30
0.0
 70
    64
  0
VERTEX
  5
598
  8
0
 10
126.05606
 20
148.574313
 30
2.0
 70
    64
  0
VERTEX
  5
599
  8
0
 10
126.05606
 20
148.574313
 30
0.0
 70
    64
  0
VERTEX
  5
59A
  8
0
 10
125.279603
 20
151.47209
 30
0.0
 70
    64
  0
VERTEX
  5
59B
  8
0
 10
123.158283
 20
147.797856
 30
2.0
 70
    64
  0
VERTEX
  5
59C
  8
0
 10
123.158283
 20
147.797856
 30
0.0
 70
    64
  0
VERTEX
  5
59D
  8
0
 10
122.381826
 20
150.695633
 30
0.0
 70
    64
  0
VERTEX
  5
59E
  8
0
 10
123.158283
 20
147.797856
 30
2.0
 70
    64
  0
VERTEX
  5
59F
  8
0
 10
123.158283
 20
147.797856
 30
2.0
 70
    64
  0
VERTEX
  5
5A0
  8
0
 10
122.381826
 20
150.695633
 30
2.0
 70
    64
  0
VERTEX
  5
5A1
  8
0
 10
126.05606
 20
148.574313
 30
2.0
 70
    64
  0
VERTEX
  5
5A2
  8
0
 10
126.05606
 20
148.574313
 30
2.0
 70
    64
  0
VERTEX
  5
5A3
  8
0
 10
125.279603
 20
151.47209
 30
2.0
 70
    64
  0
SEQEND
  5
5A4
  8
0
  0
POLYLINE
  5
5A5
  8
0
 66
     1
 10
0.0
 20
0.0
 30
0.0
 70
    16
 71
     6
 72
     3
  0
VERTEX
  5
5A6
  8
0
 10
73.291757
 20
101.307323
 30
2.0
 70
    64
  0
VERTEX
  5
5A7
  8
0
 10
73.291757
 20
101.307323
 30
0.0
 70
    64
  0
VERTEX
  5
5A8
  8
0
 10
73.291757
 20
101.307323
 30
0.0
 70
    64
  0
VERTEX
  5
5A9
  8
0
 10
70.39398
 20
100.530866
 30
2.0
 70
    64
  0
VERTEX
  5
5AA
  8
0
 10
70.39398
 20
100.530866
 30
0.0
 70
    64
  0
VERTEX
  5
5AB
  8
0
 10
70.39398
 20
100.530866
 30
0.0
 70
    64
  0
VERTEX
  5
5AC
  8
0
 10
71.170437
 20
97.633088
 30
2.0
 70
    64
  0
VERTEX
  5
5AD
  8
0
 10
71.170437
 20
97.633088
 30
0.0
 70
    64
  0
VERTEX
  5
5AE
  8
0
 10
70.39398
 20
100.530866
 30
0.0
 70
    64
  0
VERTEX
  5
5AF
  8
0
 10
74.068215
 20
98.409545
 30
2.0
 70
    64
  0
VERTEX
  5
5B0
  8
0
 10
74.068215
 20
98.409545
 30
0.0
 70
    64
  0
VERTEX
  5
5B1
  8
0
 10
73.291757
 20
101.307323
 30
0.0
 70
    64
  0
VERTEX
  5
5B2
  8
0
 10
74.068215
 20
98.409545
 30
2.0
 70
    64
  0
VERTEX
  5
5B3
  8
0
 10
74.068215
 20
98.409545
 30
2.0
 70
    64
  0
VERTEX
  5
5B4
  8
0
 10
73.291757
 20
101.307323
 30
2.0
 70
    64
  0
VERTEX
  5
5B5
  8
0
 10
71.170437
 20
97.633088
 30
2.0
 70
    64
  0
VERTEX
  5
5B6
  8
0
 10
71.170437
 20
97.633088
 30
2.0
 70
    64
  0
VERTEX
  5
5B7
  8
0
 10
70.39398
 20
100.530866
 30
2.0
 70
    64
  0
SEQEND
  5
5B8
  8
0
  0
POLYLINE
  5
5E1
  8
0
 66
     1
 10
0.0
 20
0.0
 30
0.0
 70
    16
 71
     6
 72
     3
  0
VERTEX
  5
5E2
  8
0
 10
97.633088
 20
107.829563
 30
2.0
 70
    64
  0
VERTEX
  5
5E3
  8
0
 10
97.633088
 20
107.829563
 30
0.0
 70
    64
  0
VERTEX
  5
5E4
  8
0
 10
97.633088
 20
107.829563
 30
0.0
 70
    64
  0
VERTEX
  5
5E5
  8
0
 10
100.530866
 20
108.60602
 30
2.0
 70
    64
  0
VERTEX
  5
5E6
  8
0
 10
100.530866
 20
108.60602
 30
0.0
 70
    64
  0
VERTEX
  5
5E7
  8
0
 10
100.530866
 20
108.60602
 30
0.0
 70
    64
  0
VERTEX
  5
5E8
  8
0
 10
101.307323
 20
105.708243
 30
2.0
 70
    64
  0
VERTEX
  5
5E9
  8
0
 10
101.307323
 20
105.708243
 30
0.0
 70
    64
  0
VERTEX
  5
5EA
  8
0
 10
100.530866
 20
108.60602
 30
0.0
 70
    64
  0
VERTEX
  5
5EB
  8
0
 10
98.409545
 20
104.931785
 30
2.0
 70
    64
  0
VERTEX
  5
5EC
  8
0
 10
98.409545
 20
104.931785
 30
0.0
 70
    64
  0
VERTEX
  5
5ED
  8
0
 10
97.633088
 20
107.829563
 30
0.0
 70
    64
  0
VERTEX
  5
5EE
  8
0
 10
98.409545
 20
104.931785
 30
2.0
 70
    64
  0
VERTEX
  5
5EF
  8
0
 10
98.409545
 20
104.931785
 30
2.0
 70
    64
  0
VERTEX
  5
5F0
  8
0
 10
97.633088
 20
107.829563
 30
2.0
 70
    64
  0
VERTEX
  5
5F1
  8
0
 10
101.307323
 20
105.708243
 30
2.0
 70
    64
  0
VERTEX
  5
5F2
  8
0
 10
101.307323
 20
105.708243
 30
2.0
 70
    64
  0
VERTEX
  5
5F3
  8
0
 10
100.530866
 20
108.60602
 30
2.0
 70
    64
  0
SEQEND
  5
5F4
  8
0
  0
POLYLINE
  5
5F5
  8
0
 66
     1
 10
0.0
 20
0.0
 30
0.0
 70
    16
 71
     6
 72
     3
  0
VERTEX
  5
5F6
  8
0
 10
102.582836
 20
116.402777
 30
2.0
 70
    64
  0
VERTEX
  5
5F7
  8
0
 10
102.582836
 20
116.402777
 30
0.0
 70
    64
  0
VERTEX
  5
5F8
  8
0
 10
102.582836
 20
116.402777
 30
0.0
 70
    64
  0
VERTEX
  5
5F9
  8
0
 10
105.480613
 20
117.179234
 30
2.0
 70
    64
  0
VERTEX
  5
5FA
  8
0
 10
105.480613
 20
117.179234
 30
0.0
 70
    64
  0
VERTEX
  5
5FB
  8
0
 10
105.480613
 20
117.179234
 30
0.0
 70
    64
  0
VERTEX
  5
5FC
  8
0
 10
106.25707
 20
114.281457
 30
2.0
 70
    64
  0
VERTEX
  5
5FD
  8
0
 10
106.25707
 20
114.281457
 30
0.0
 70
    64
  0
VERTEX
  5
5FE
  8
0
 10
105.480613
 20
117.179234
 30
0.0
 70
    64
  0
VERTEX
  5
5FF
  8
0
 10
103.359293
 20
113.504999
 30
2.0
 70
    64
  0
VERTEX
  5
600
  8
0
 10
103.359293
 20
113.504999
 30
0.0
 70
    64
  0
VERTEX
  5
601
  8
0
 10
102.582836
 20
116.402777
 30
0.0
 70
    64
  0
VERTEX
  5
602
  8
0
 10
103.359293
 20
113.504999
 30
2.0
 70
    64
  0
VERTEX
  5
603
  8
0
 10
103.359293
 20
113.504999
 30
2.0
 70
    64
  0
VERTEX
  5
604
  8
0
 10
102.582836
 20
116.402777
 30
2.0
 70
    64
  0
VERTEX
  5
605
  8
0
 10
106.25707
 20
114.281457
 30
2.0
 70
    64
  0
VERTEX
  5
606
  8
0
 10
106.25707
 20
114.281457
 30
2.0
 70
    64
  0
VERTEX
  5
607
  8
0
 10
105.480613
 20
117.179234
 30
2.0
 70
    64
  0
SEQEND
  5
608
  8
0
  0
POLYLINE
  5
609
  8
0
 66
     1
 10
0.0
 20
0.0
 30
0.0
 70
    16
 71
     6
 72
     3
  0
VERTEX
  5
60A
  8
0
 10
107.532583
 20
124.975991
 30
2.0
 70
    64
  0
VERTEX
  5
60B
  8
0
 10
107.532583
 20
124.975991
 30
0.0
 70
    64
  0
VERTEX
  5
60C
  8
0
 10
107.532583
 20
124.975991
 30
0.0
 70
    64
  0
VERTEX
  5
60D
  8
0
 10
110.430361
 20
125.752448
 30
2.0
 70
    64
  0
VERTEX
  5
60E
  8
0
 10
110.430361
 20
125.752448
 30
0.0
 70
    64
  0
VERTEX
  5
60F
  8
0
 10
110.430361
 20
125.752448
 30
0.0
 70
    64
  0
VERTEX
  5
610
  8
0
 10
111.206818
 20
122.854671
 30
2.0
 70
    64
  0
VERTEX
  5
611
  8
0
 10
111.206818
 20
122.854671
 30
0.0
 70
    64
  0
VERTEX
  5
612
  8
0
 10
110.430361
 20
125.752448
 30
0.0
 70
    64
  0
VERTEX
  5
613
  8
0
 10
108.30904
 20
122.078214
 30
2.0
 70
    64
  0
VERTEX
  5
614
  8
0
 10
108.30904
 20
122.078214
 30
0.0
 70
    64
  0
VERTEX
  5
615
  8
0
 10
107.532583
 20
124.975991
 30
0.0
 70
    64
  0
VERTEX
  5
616
  8
0
 10
108.30904
 20
122.078214
 30
2.0
 70
    64
  0
VERTEX
  5
617
  8
0
 10
108.30904
 20
122.078214
 30
2.0
 70
    64
  0
VERTEX
  5
618
  8
0
 10
107.532583
 20
124.975991
 30
2.0
 70
    64
  0
VERTEX
  5
619
  8
0
 10
111.206818
 20
122.854671
 30
2.0
 70
    64
  0
VERTEX
  5
61A
  8
0
 10
111.206818
 20
122.854671
 30
2.0
 70
    64
  0
VERTEX
  5
61B
  8
0
 10
110.430361
 20
125.752448
 30
2.0
 70
    64
  0
SEQEND
  5
61C
  8
0
  0
POLYLINE
  5
61D
  8
0
 66
     1
 10
0.0
 20
0.0
 30
0.0
 70
    16
 71
     6
 72
     3
  0
VERTEX
  5
61E
  8
0
 10
116.156565
 20
47.572115
 30
2.0
 70
    64
  0
VERTEX
  5
61F
  8
0
 10
116.156565
 20
47.572115
 30
0.0
 70
    64
  0
VERTEX
  5
620
  8
0
 10
116.156565
 20
47.572115
 30
0.0
 70
    64
  0
VERTEX
  5
621
  8
0
 10
115.380108
 20
44.674338
 30
2.0
 70
    64
  0
VERTEX
  5
622
  8
0
 10
115.380108
 20
44.674338
 30
0.0
 70
    64
  0
VERTEX
  5
623
  8
0
 10
115.380108
 20
44.674338
 30
0.0
 70
    64
  0
VERTEX
  5
624
  8
0
 10
112.482331
 20
45.450795
 30
2.0
 70
    64
  0
VERTEX
  5
625
  8
0
 10
112.482331
 20
45.450795
 30
0.0
 70
    64
  0
VERTEX
  5
626
  8
0
 10
115.380108
 20
44.674338
 30
0.0
 70
    64
  0
VERTEX
  5
627
  8
0
 10
113.258788
 20
48.348572
 30
2.0
 70
    64
  0
VERTEX
  5
628
  8
0
 10
113.258788
 20
48.348572
 30
0.0
 70
    64
  0
VERTEX
  5
629
  8
0
 10
116.156565
 20
47.572115
 30
0.0
 70
    64
  0
VERTEX
  5
62A
  8
0
 10
113.258788
 20
48.348572
 30
2.0
 70
    64
  0
VERTEX
  5
62B
  8
0
 10
113.258788
 20
48.348572
 30
2.0
 70
    64
  0
VERTEX
  5
62C
  8
0
 10
116.156565
 20
47.572115
 30
2.0
 70
    64
  0
VERTEX
  5
62D
  8
0
 10
112.482331
 20
45.450795
 30
2.0
 70
    64
  0
VERTEX
  5
62E
  8
0
 10
112.482331
 20
45.450795
 30
2.0
 70
    64
  0
VERTEX
  5
62F
  8
0
 10
115.380108
 20
44.674338
 30
2.0
 70
    64
  0
SEQEND
  5
630
  8
0
  0
POLYLINE
  5
631
  8
0
 66
     1
 10
0.0
 20
0.0
 30
0.0
 70
    16
 71
     6
 72
     3
  0
VERTEX
  5
632
  8
0
 10
126.05606
 20
30.425687
 30
2.0
 70
    64
  0
VERTEX
  5
633
  8
0
 10
126.05606
 20
30.425687
 30
0.0
 70
    64
  0
VERTEX
  5
634
  8
0
 10
126.05606
 20
30.425687
 30
0.0
 70
    64
  0
VERTEX
  5
635
  8
0
 10
125.279603
 20
27.52791
 30
2.0
 70
    64
  0
VERTEX
  5
636
  8
0
 10
125.279603
 20
27.52791
 30
0.0
 70
    64
  0
VERTEX
  5
637
  8
0
 10
125.279603
 20
27.52791
 30
0.0
 70
    64
  0
VERTEX
  5
638
  8
0
 10
122.381826
 20
28.304367
 30
2.0
 70
    64
  0
VERTEX
  5
639
  8
0
 10
122.381826
 20
28.304367
 30
0.0
 70
    64
  0
VERTEX
  5
63A
  8
0
 10
125.279603
 20
27.52791
 30
0.0
 70
    64
  0
VERTEX
  5
63B
  8
0
 10
123.158283
 20
31.202144
 30
2.0
 70
    64
  0
VERTEX
  5
63C
  8
0
 10
123.158283
 20
31.202144
 30
0.0
 70
    64
  0
VERTEX
  5
63D
  8
0
 10
126.05606
 20
30.425687
 30
0.0
 70
    64
  0
VERTEX
  5
63E
  8
0
 10
123.158283
 20
31.202144
 30
2.0
 70
    64
  0
VERTEX
  5
63F
  8
0
 10
123.158283
 20
31.202144
 30
2.0
 70
    64
  0
VERTEX
  5
640
  8
0
 10
126.05606
 20
30.425687
 30
2.0
 70
    64
  0
VERTEX
  5
641
  8
0
 10
122.381826
 20
28.304367
 30
2.0
 70
    64
  0
VERTEX
  5
642
  8
0
 10
122.381826
 20
28.304367
 30
2.0
 70
    64
  0
VERTEX
  5
643
  8
0
 10
125.279603
 20
27.52791
 30
2.0
 70
    64
  0
SEQEND
  5
644
  8
0
  0
POLYLINE
  5
645
  8
0
 66
     1
 10
0.0
 20
0.0
 30
0.0
 70
    16
 71
     6
 72
     3
  0
VERTEX
  5
646
  8
0
 10
131.005808
 20
21.852473
 30
2.0
 70
    64
  0
VERTEX
  5
647
  8
0
 10
131.005808
 20
21.852473
 30
0.0
 70
    64
  0
VERTEX
  5
648
  8
0
 10
131.005808
 20
21.852473
 30
0.0
 70
    64
  0
VERTEX
  5
649
  8
0
 10
130.229351
 20
18.954695
 30
2.0
 70
    64
  0
VERTEX
  5
64A
  8
0
 10
130.229351
 20
18.954695
 30
0.0
 70
    64
  0
VERTEX
  5
64B
  8
0
 10
130.229351
 20
18.954695
 30
0.0
 70
    64
  0
VERTEX
  5
64C
  8
0
 10
127.331573
 20
19.731153
 30
2.0
 70
    64
  0
VERTEX
  5
64D
  8
0
 10
127.331573
 20
19.731153
 30
0.0
 70
    64
  0
VERTEX
  5
64E
  8
0
 10
130.229351
 20
18.954695
 30
0.0
 70
    64
  0
VERTEX
  5
64F
  8
0
 10
128.10803
 20
22.62893
 30
2.0
 70
    64
  0
VERTEX
  5
650
  8
0
 10
128.10803
 20
22.62893
 30
0.0
 70
    64
  0
VERTEX
  5
651
  8
0
 10
131.005808
 20
21.852473
 30
0.0
 70
    64
  0
VERTEX
  5
652
  8
0
 10
128.10803
 20
22.62893
 30
2.0
 70
    64
  0
VERTEX
  5
653
  8
0
 10
128.10803
 20
22.62893
 30
2.0
 70
    64
  0
VERTEX
  5
654
  8
0
 10
131.005808
 20
21.852473
 30
2.0
 70
    64
  0
VERTEX
  5
655
  8
0
 10
127.331573
 20
19.731153
 30
2.0
 70
    64
  0
VERTEX
  5
656
  8
0
 10
127.331573
 20
19.731153
 30
2.0
 70
    64
  0
VERTEX
  5
657
  8
0
 10
130.229351
 20
18.954695
 30
2.0
 70
    64
  0
SEQEND
  5
658
  8
0
  0
POLYLINE
  5
659
  8
0
 66
     1
 10
0.0
 20
0.0
 30
0.0
 70
    16
 71
     6
 72
     3
  0
VERTEX
  5
65A
  8
0
 10
121.106313
 20
38.998901
 30
2.0
 70
    64
  0
VERTEX
  5
65B
  8
0
 10
121.106313
 20
38.998901
 30
0.0
 70
    64
  0
VERTEX
  5
65C
  8
0
 10
121.106313
 20
38.998901
 30
0.0
 70
    64
  0
VERTEX
  5
65D
  8
0
 10
120.329856
 20
36.101124
 30
2.0
 70
    64
  0
VERTEX
  5
65E
  8
0
 10
120.329856
 20
36.101124
 30
0.0
 70
    64
  0
VERTEX
  5
65F
  8
0
 10
120.329856
 20
36.101124
 30
0.0
 70
    64
  0
VERTEX
  5
660
  8
0
 10
117.432078
 20
36.877581
 30
2.0
 70
    64
  0
VERTEX
  5
661
  8
0
 10
117.432078
 20
36.877581
 30
0.0
 70
    64
  0
VERTEX
  5
662
  8
0
 10
120.329856
 20
36.101124
 30
0.0
 70
    64
  0
VERTEX
  5
663
  8
0
 10
118.208535
 20
39.775358
 30
2.0
 70
    64
  0
VERTEX
  5
664
  8
0
 10
118.208535
 20
39.775358
 30
0.0
 70
    64
  0
VERTEX
  5
665
  8
0
 10
121.106313
 20
38.998901
 30
0.0
 70
    64
  0
VERTEX
  5
666
  8
0
 10
118.208535
 20
39.775358
 30
2.0
 70
    64
  0
VERTEX
  5
667
  8
0
 10
118.208535
 20
39.775358
 30
2.0
 70
    64
  0
VERTEX
  5
668
  8
0
 10
121.106313
 20
38.998901
 30
2.0
 70
    64
  0
VERTEX
  5
669
  8
0
 10
117.432078
 20
36.877581
 30
2.0
 70
    64
  0
VERTEX
  5
66A
  8
0
 10
117.432078
 20
36.877581
 30
2.0
 70
    64
  0
VERTEX
  5
66B
  8
0
 10
120.329856
 20
36.101124
 30
2.0
 70
    64
  0
SEQEND
  5
66C
  8
0
  0
POLYLINE
  5
66D
  8
0
 66
     1
 10
0.0
 20
0.0
 30
0.0
 70
    16
 71
     6
 72
     3
  0
VERTEX
  5
66E
  8
0
 10
111.206818
 20
56.145329
 30
2.0
 70
    64
  0
VERTEX
  5
66F
  8
0
 10
111.206818
 20
56.145329
 30
0.0
 70
    64
  0
VERTEX
  5
670
  8
0
 10
111.206818
 20
56.145329
 30
0.0
 70
    64
  0
VERTEX
  5
671
  8
0
 10
110.430361
 20
53.247552
 30
2.0
 70
    64
  0
VERTEX
  5
672
  8
0
 10
110.430361
 20
53.247552
 30
0.0
 70
    64
  0
VERTEX
  5
673
  8
0
 10
110.430361
 20
53.247552
 30
0.0
 70
    64
  0
VERTEX
  5
674
  8
0
 10
107.532583
 20
54.024009
 30
2.0
 70
    64
  0
VERTEX
  5
675
  8
0
 10
107.532583
 20
54.024009
 30
0.0
 70
    64
  0
VERTEX
  5
676
  8
0
 10
110.430361
 20
53.247552
 30
0.0
 70
    64
  0
VERTEX
  5
677
  8
0
 10
108.30904
 20
56.921786
 30
2.0
 70
    64
  0
VERTEX
  5
678
  8
0
 10
108.30904
 20
56.921786
 30
0.0
 70
    64
  0
VERTEX
  5
679
  8
0
 10
111.206818
 20
56.145329
 30
0.0
 70
    64
  0
VERTEX
  5
67A
  8
0
 10
108.30904
 20
56.921786
 30
2.0
 70
    64
  0
VERTEX
  5
67B
  8
0
 10
108.30904
 20
56.921786
 30
2.0
 70
    64
  0
VERTEX
  5
67C
  8
0
 10
111.206818
 20
56.145329
 30
2.0
 70
    64
  0
VERTEX
  5
67D
  8
0
 10
107.532583
 20
54.024009
 30
2.0
 70
    64
  0
VERTEX
  5
67E
  8
0
 10
107.532583
 20
54.024009
 30
2.0
 70
    64
  0
VERTEX
  5
67F
  8
0
 10
110.430361
 20
53.247552
 30
2.0
 70
    64
  0
SEQEND
  5
680
  8
0
  0
POLYLINE
  5
681
  8
0
 66
     1
 10
0.0
 20
0.0
 30
0.0
 70
    16
 71
     6
 72
     3
  0
VERTEX
  5
682
  8
0
 10
106.25707
 20
64.718543
 30
2.0
 70
    64
  0
VERTEX
  5
683
  8
0
 10
106.25707
 20
64.718543
 30
0.0
 70
    64
  0
VERTEX
  5
684
  8
0
 10
106.25707
 20
64.718543
 30
0.0
 70
    64
  0
VERTEX
  5
685
  8
0
 10
105.480613
 20
61.820766
 30
2.0
 70
    64
  0
VERTEX
  5
686
  8
0
 10
105.480613
 20
61.820766
 30
0.0
 70
    64
  0
VERTEX
  5
687
  8
0
 10
105.480613
 20
61.820766
 30
0.0
 70
    64
  0
VERTEX
  5
688
  8
0
 10
102.582836
 20
62.597223
 30
2.0
 70
    64
  0
VERTEX
  5
689
  8
0
 10
102.582836
 20
62.597223
 30
0.0
 70
    64
  0
VERTEX
  5
68A
  8
0
 10
105.480613
 20
61.820766
 30
0.0
 70
    64
  0
VERTEX
  5
68B
  8
0
 10
103.359293
 20
65.495001
 30
2.0
 70
    64
  0
VERTEX
  5
68C
  8
0
 10
103.359293
 20
65.495001
 30
0.0
 70
    64
  0
VERTEX
  5
68D
  8
0
 10
106.25707
 20
64.718543
 30
0.0
 70
    64
  0
VERTEX
  5
68E
  8
0
 10
103.359293
 20
65.495001
 30
2.0
 70
    64
  0
VERTEX
  5
68F
  8
0
 10
103.359293
 20
65.495001
 30
2.0
 70
    64
  0
VERTEX
  5
690
  8
0
 10
106.25707
 20
64.718543
 30
2.0
 70
    64
  0
VERTEX
  5
691
  8
0
 10
102.582836
 20
62.597223
 30
2.0
 70
    64
  0
VERTEX
  5
692
  8
0
 10
102.582836
 20
62.597223
 30
2.0
 70
    64
  0
VERTEX
  5
693
  8
0
 10
105.480613
 20
61.820766
 30
2.0
 70
    64
  0
SEQEND
  5
694
  8
0
  0
POLYLINE
  5
695
  8
0
 66
     1
 10
0.0
 20
0.0
 30
0.0
 70
    16
 71
     6
 72
     3
  0
VERTEX
  5
696
  8
0
 10
28.304367
 20
56.618174
 30
2.0
 70
    64
  0
VERTEX
  5
697
  8
0
 10
28.304367
 20
56.618174
 30
0.0
 70
    64
  0
VERTEX
  5
698
  8
0
 10
28.304367
 20
56.618174
 30
0.0
 70
    64
  0
VERTEX
  5
699
  8
0
 10
27.52791
 20
53.720397
 30
2.0
 70
    64
  0
VERTEX
  5
69A
  8
0
 10
27.52791
 20
53.720397
 30
0.0
 70
    64
  0
VERTEX
  5
69B
  8
0
 10
27.52791
 20
53.720397
 30
0.0
 70
    64
  0
VERTEX
  5
69C
  8
0
 10
30.425687
 20
52.94394
 30
2.0
 70
    64
  0
VERTEX
  5
69D
  8
0
 10
30.425687
 20
52.94394
 30
0.0
 70
    64
  0
VERTEX
  5
69E
  8
0
 10
27.52791
 20
53.720397
 30
0.0
 70
    64
  0
VERTEX
  5
69F
  8
0
 10
31.202144
 20
55.841717
 30
2.0
 70
    64
  0
VERTEX
  5
6A0
  8
0
 10
31.202144
 20
55.841717
 30
0.0
 70
    64
  0
VERTEX
  5
6A1
  8
0
 10
28.304367
 20
56.618174
 30
0.0
 70
    64
  0
VERTEX
  5
6A2
  8
0
 10
31.202144
 20
55.841717
 30
2.0
 70
    64
  0
VERTEX
  5
6A3
  8
0
 10
31.202144
 20
55.841717
 30
2.0
 70
    64
  0
VERTEX
  5
6A4
  8
0
 10
28.304367
 20
56.618174
 30
2.0
 70
    64
  0
VERTEX
  5
6A5
  8
0
 10
30.425687
 20
52.94394
 30
2.0
 70
    64
  0
VERTEX
  5
6A6
  8
0
 10
30.425687
 20
52.94394
 30
2.0
 70
    64
  0
VERTEX
  5
6A7
  8
0
 10
27.52791
 20
53.720397
 30
2.0
 70
    64
  0
SEQEND
  5
6A8
  8
0
  0
POLYLINE
  5
6A9
  8
0
 66
     1
 10
0.0
 20
0.0
 30
0.0
 70
    16
 71
     6
 72
     3
  0
VERTEX
  5
6AA
  8
0
 10
54.024009
 20
71.467417
 30
2.0
 70
    64
  0
VERTEX
  5
6AB
  8
0
 10
54.024009
 20
71.467417
 30
0.0
 70
    64
  0
VERTEX
  5
6AC
  8
0
 10
54.024009
 20
71.467417
 30
0.0
 70
    64
  0
VERTEX
  5
6AD
  8
0
 10
53.247552
 20
68.569639
 30
2.0
 70
    64
  0
VERTEX
  5
6AE
  8
0
 10
53.247552
 20
68.569639
 30
0.0
 70
    64
  0
VERTEX
  5
6AF
  8
0
 10
53.247552
 20
68.569639
 30
0.0
 70
    64
  0
VERTEX
  5
6B0
  8
0
 10
56.145329
 20
67.793182
 30
2.0
 70
    64
  0
VERTEX
  5
6B1
  8
0
 10
56.145329
 20
67.793182
 30
0.0
 70
    64
  0
VERTEX
  5
6B2
  8
0
 10
53.247552
 20
68.569639
 30
0.0
 70
    64
  0
VERTEX
  5
6B3
  8
0
 10
56.921786
 20
70.69096
 30
2.0
 70
    64
  0
VERTEX
  5
6B4
  8
0
 10
56.921786
 20
70.69096
 30
0.0
 70
    64
  0
VERTEX
  5
6B5
  8
0
 10
54.024009
 20
71.467417
 30
0.0
 70
    64
  0
VERTEX
  5
6B6
  8
0
 10
56.921786
 20
70.69096
 30
2.0
 70
    64
  0
VERTEX
  5
6B7
  8
0
 10
56.921786
 20
70.69096
 30
2.0
 70
    64
  0
VERTEX
  5
6B8
  8
0
 10
54.024009
 20
71.467417
 30
2.0
 70
    64
  0
VERTEX
  5
6B9
  8
0
 10
56.145329
 20
67.793182
 30
2.0
 70
    64
  0
VERTEX
  5
6BA
  8
0
 10
56.145329
 20
67.793182
 30
2.0
 70
    64
  0
VERTEX
  5
6BB
  8
0
 10
53.247552
 20
68.569639
 30
2.0
 70
    64
  0
SEQEND
  5
6BC
  8
0
  0
POLYLINE
  5
6BD
  8
0
 66
     1
 10
0.0
 20
0.0
 30
0.0
 70
    16
 71
     6
 72
     3
  0
VERTEX
  5
6BE
  8
0
 10
62.597223
 20
76.417164
 30
2.0
 70
    64
  0
VERTEX
  5
6BF
  8
0
 10
62.597223
 20
76.417164
 30
0.0
 70
    64
  0
VERTEX
  5
6C0
  8
0
 10
62.597223
 20
76.417164
 30
0.0
 70
    64
  0
VERTEX
  5
6C1
  8
0
 10
61.820766
 20
73.519387
 30
2.0
 70
    64
  0
VERTEX
  5
6C2
  8
0
 10
61.820766
 20
73.519387
 30
0.0
 70
    64
  0
VERTEX
  5
6C3
  8
0
 10
61.820766
 20
73.519387
 30
0.0
 70
    64
  0
VERTEX
  5
6C4
  8
0
 10
64.718543
 20
72.74293
 30
2.0
 70
    64
  0
VERTEX
  5
6C5
  8
0
 10
64.718543
 20
72.74293
 30
0.0
 70
    64
  0
VERTEX
  5
6C6
  8
0
 10
61.820766
 20
73.519387
 30
0.0
 70
    64
  0
VERTEX
  5
6C7
  8
0
 10
65.495001
 20
75.640707
 30
2.0
 70
    64
  0
VERTEX
  5
6C8
  8
0
 10
65.495001
 20
75.640707
 30
0.0
 70
    64
  0
VERTEX
  5
6C9
  8
0
 10
62.597223
 20
76.417164
 30
0.0
 70
    64
  0
VERTEX
  5
6CA
  8
0
 10
65.495001
 20
75.640707
 30
2.0
 70
    64
  0
VERTEX
  5
6CB
  8
0
 10
65.495001
 20
75.640707
 30
2.0
 70
    64
  0
VERTEX
  5
6CC
  8
0
 10
62.597223
 20
76.417164
 30
2.0
 70
    64
  0
VERTEX
  5
6CD
  8
0
 10
64.718543
 20
72.74293
 30
2.0
 70
    64
  0
VERTEX
  5
6CE
  8
0
 10
64.718543
 20
72.74293
 30
2.0
 70
    64
  0
VERTEX
  5
6CF
  8
0
 10
61.820766
 20
73.519387
 30
2.0
 70
    64
  0
SEQEND
  5
6D0
  8
0
  0
POLYLINE
  5
6D1
  8
0
 66
     1
 10
0.0
 20
0.0
 30
0.0
 70
    16
 71
     6
 72
     3
  0
VERTEX
  5
6D2
  8
0
 10
36.877581
 20
61.567922
 30
2.0
 70
    64
  0
VERTEX
  5
6D3
  8
0
 10
36.877581
 20
61.567922
 30
0.0
 70
    64
  0
VERTEX
  5
6D4
  8
0
 10
36.877581
 20
61.567922
 30
0.0
 70
    64
  0
VERTEX
  5
6D5
  8
0
 10
36.101124
 20
58.670144
 30
2.0
 70
    64
  0
VERTEX
  5
6D6
  8
0
 10
36.101124
 20
58.670144
 30
0.0
 70
    64
  0
VERTEX
  5
6D7
  8
0
 10
36.101124
 20
58.670144
 30
0.0
 70
    64
  0
VERTEX
  5
6D8
  8
0
 10
38.998901
 20
57.893687
 30
2.0
 70
    64
  0
VERTEX
  5
6D9
  8
0
 10
38.998901
 20
57.893687
 30
0.0
 70
    64
  0
VERTEX
  5
6DA
  8
0
 10
36.101124
 20
58.670144
 30
0.0
 70
    64
  0
VERTEX
  5
6DB
  8
0
 10
39.775358
 20
60.791465
 30
2.0
 70
    64
  0
VERTEX
  5
6DC
  8
0
 10
39.775358
 20
60.791465
 30
0.0
 70
    64
  0
VERTEX
  5
6DD
  8
0
 10
36.877581
 20
61.567922
 30
0.0
 70
    64
  0
VERTEX
  5
6DE
  8
0
 10
39.775358
 20
60.791465
 30
2.0
 70
    64
  0
VERTEX
  5
6DF
  8
0
 10
39.775358
 20
60.791465
 30
2.0
 70
    64
  0
VERTEX
  5
6E0
  8
0
 10
36.877581
 20
61.567922
 30
2.0
 70
    64
  0
VERTEX
  5
6E1
  8
0
 10
38.998901
 20
57.893687
 30
2.0
 70
    64
  0
VERTEX
  5
6E2
  8
0
 10
38.998901
 20
57.893687
 30
2.0
 70
    64
  0
VERTEX
  5
6E3
  8
0
 10
36.101124
 20
58.670144
 30
2.0
 70
    64
  0
SEQEND
  5
6E4
  8
0
  0
POLYLINE
  5
6E5
  8
0
 66
     1
 10
0.0
 20
0.0
 30
0.0
 70
    16
 71
     6
 72
     3
  0
VERTEX
  5
6E6
  8
0
 10
45.450795
 20
66.517669
 30
2.0
 70
    64
  0
VERTEX
  5
6E7
  8
0
 10
45.450795
 20
66.517669
 30
0.0
 70
    64
  0
VERTEX
  5
6E8
  8
0
 10
45.450795
 20
66.517669
 30
0.0
 70
    64
  0
VERTEX
  5
6E9
  8
0
 10
44.674338
 20
63.619892
 30
2.0
 70
    64
  0
VERTEX
  5
6EA
  8
0
 10
44.674338
 20
63.619892
 30
0.0
 70
    64
  0
VERTEX
  5
6EB
  8
0
 10
44.674338
 20
63.619892
 30
0.0
 70
    64
  0
VERTEX
  5
6EC
  8
0
 10
47.572115
 20
62.843435
 30
2.0
 70
    64
  0
VERTEX
  5
6ED
  8
0
 10
47.572115
 20
62.843435
 30
0.0
 70
    64
  0
VERTEX
  5
6EE
  8
0
 10
44.674338
 20
63.619892
 30
0.0
 70
    64
  0
VERTEX
  5
6EF
  8
0
 10
48.348572
 20
65.741212
 30
2.0
 70
    64
  0
VERTEX
  5
6F0
  8
0
 10
48.348572
 20
65.741212
 30
0.0
 70
    64
  0
VERTEX
  5
6F1
  8
0
 10
45.450795
 20
66.517669
 30
0.0
 70
    64
  0
VERTEX
  5
6F2
  8
0
 10
48.348572
 20
65.741212
 30
2.0
 70
    64
  0
VERTEX
  5
6F3
  8
0
 10
48.348572
 20
65.741212
 30
2.0
 70
    64
  0
VERTEX
  5
6F4
  8
0
 10
45.450795
 20
66.517669
 30
2.0
 70
    64
  0
VERTEX
  5
6F5
  8
0
 10
47.572115
 20
62.843435
 30
2.0
 70
    64
  0
VERTEX
  5
6F6
  8
0
 10
47.572115
 20
62.843435
 30
2.0
 70
    64
  0
VERTEX
  5
6F7
  8
0
 10
44.674338
 20
63.619892
 30
2.0
 70
    64
  0
SEQEND
  5
6F8
  8
0
  0
POLYLINE
  5
6F9
  8
0
 66
     1
 10
0.0
 20
0.0
 30
0.0
 70
    16
 71
     6
 72
     3
  0
VERTEX
  5
6FA
  8
0
 10
133.549205
 20
112.482331
 30
2.0
 70
    64
  0
VERTEX
  5
6FB
  8
0
 10
133.549205
 20
112.482331
 30
0.0
 70
    64
  0
VERTEX
  5
6FC
  8
0
 10
133.549205
 20
112.482331
 30
0.0
 70
    64
  0
VERTEX
  5
6FD
  8
0
 10
134.325662
 20
115.380108
 30
2.0
 70
    64
  0
VERTEX
  5
6FE
  8
0
 10
134.325662
 20
115.380108
 30
0.0
 70
    64
  0
VERTEX
  5
6FF
  8
0
 10
134.325662
 20
115.380108
 30
0.0
 70
    64
  0
VERTEX
  5
700
  8
0
 10
131.427885
 20
116.156565
 30
2.0
 70
    64
  0
VERTEX
  5
701
  8
0
 10
131.427885
 20
116.156565
 30
0.0
 70
    64
  0
VERTEX
  5
702
  8
0
 10
134.325662
 20
115.380108
 30
0.0
 70
    64
  0
VERTEX
  5
703
  8
0
 10
130.651428
 20
113.258788
 30
2.0
 70
    64
  0
VERTEX
  5
704
  8
0
 10
130.651428
 20
113.258788
 30
0.0
 70
    64
  0
VERTEX
  5
705
  8
0
 10
133.549205
 20
112.482331
 30
0.0
 70
    64
  0
VERTEX
  5
706
  8
0
 10
130.651428
 20
113.258788
 30
2.0
 70
    64
  0
VERTEX
  5
707
  8
0
 10
130.651428
 20
113.258788
 30
2.0
 70
    64
  0
VERTEX
  5
708
  8
0
 10
133.549205
 20
112.482331
 30
2.0
 70
    64
  0
VERTEX
  5
709
  8
0
 10
131.427885
 20
116.156565
 30
2.0
 70
    64
  0
VERTEX
  5
70A
  8
0
 10
131.427885
 20
116.156565
 30
2.0
 70
    64
  0
VERTEX
  5
70B
  8
0
 10
134.325662
 20
115.380108
 30
2.0
 70
    64
  0
SEQEND
  5
70C
  8
0
  0
POLYLINE
  5
70D
  8
0
 66
     1
 10
0.0
 20
0.0
 30
0.0
 70
    16
 71
     6
 72
     3
  0
VERTEX
  5
70E
  8
0
 10
142.122419
 20
117.432078
 30
2.0
 70
    64
  0
VERTEX
  5
70F
  8
0
 10
142.122419
 20
117.432078
 30
0.0
 70
    64
  0
VERTEX
  5
710
  8
0
 10
142.122419
 20
117.432078
 30
0.0
 70
    64
  0
VERTEX
  5
711
  8
0
 10
142.898876
 20
120.329856
 30
2.0
 70
    64
  0
VERTEX
  5
712
  8
0
 10
142.898876
 20
120.329856
 30
0.0
 70
    64
  0
VERTEX
  5
713
  8
0
 10
142.898876
 20
120.329856
 30
0.0
 70
    64
  0
VERTEX
  5
714
  8
0
 10
140.001099
 20
121.106313
 30
2.0
 70
    64
  0
VERTEX
  5
715
  8
0
 10
140.001099
 20
121.106313
 30
0.0
 70
    64
  0
VERTEX
  5
716
  8
0
 10
142.898876
 20
120.329856
 30
0.0
 70
    64
  0
VERTEX
  5
717
  8
0
 10
139.224642
 20
118.208535
 30
2.0
 70
    64
  0
VERTEX
  5
718
  8
0
 10
139.224642
 20
118.208535
 30
0.0
 70
    64
  0
VERTEX
  5
719
  8
0
 10
142.122419
 20
117.432078
 30
0.0
 70
    64
  0
VERTEX
  5
71A
  8
0
 10
139.224642
 20
118.208535
 30
2.0
 70
    64
  0
VERTEX
  5
71B
  8
0
 10
139.224642
 20
118.208535
 30
2.0
 70
    64
  0
VERTEX
  5
71C
  8
0
 10
142.122419
 20
117.432078
 30
2.0
 70
    64
  0
VERTEX
  5
71D
  8
0
 10
140.001099
 20
121.106313
 30
2.0
 70
    64
  0
VERTEX
  5
71E
  8
0
 10
140.001099
 20
121.106313
 30
2.0
 70
    64
  0
VERTEX
  5
71F
  8
0
 10
142.898876
 20
120.329856
 30
2.0
 70
    64
  0
SEQEND
  5
720
  8
0
  0
POLYLINE
  5
721
  8
0
 66
     1
 10
0.0
 20
0.0
 30
0.0
 70
    16
 71
     6
 72
     3
  0
VERTEX
  5
722
  8
0
 10
159.268847
 20
127.331573
 30
2.0
 70
    64
  0
VERTEX
  5
723
  8
0
 10
159.268847
 20
127.331573
 30
0.0
 70
    64
  0
VERTEX
  5
724
  8
0
 10
159.268847
 20
127.331573
 30
0.0
 70
    64
  0
VERTEX
  5
725
  8
0
 10
160.045305
 20
130.229351
 30
2.0
 70
    64
  0
VERTEX
  5
726
  8
0
 10
160.045305
 20
130.229351
 30
0.0
 70
    64
  0
VERTEX
  5
727
  8
0
 10
160.045305
 20
130.229351
 30
0.0
 70
    64
  0
VERTEX
  5
728
  8
0
 10
157.147527
 20
131.005808
 30
2.0
 70
    64
  0
VERTEX
  5
729
  8
0
 10
157.147527
 20
131.005808
 30
0.0
 70
    64
  0
VERTEX
  5
72A
  8
0
 10
160.045305
 20
130.229351
 30
0.0
 70
    64
  0
VERTEX
  5
72B
  8
0
 10
156.37107
 20
128.10803
 30
2.0
 70
    64
  0
VERTEX
  5
72C
  8
0
 10
156.37107
 20
128.10803
 30
0.0
 70
    64
  0
VERTEX
  5
72D
  8
0
 10
159.268847
 20
127.331573
 30
0.0
 70
    64
  0
VERTEX
  5
72E
  8
0
 10
156.37107
 20
128.10803
 30
2.0
 70
    64
  0
VERTEX
  5
72F
  8
0
 10
156.37107
 20
128.10803
 30
2.0
 70
    64
  0
VERTEX
  5
730
  8
0
 10
159.268847
 20
127.331573
 30
2.0
 70
    64
  0
VERTEX
  5
731
  8
0
 10
157.147527
 20
131.005808
 30
2.0
 70
    64
  0
VERTEX
  5
732
  8
0
 10
157.147527
 20
131.005808
 30
2.0
 70
    64
  0
VERTEX
  5
733
  8
0
 10
160.045305
 20
130.229351
 30
2.0
 70
    64
  0
SEQEND
  5
734
  8
0
  0
POLYLINE
  5
735
  8
0
 66
     1
 10
0.0
 20
0.0
 30
0.0
 70
    16
 71
     6
 72
     3
  0
VERTEX
  5
736
  8
0
 10
150.695633
 20
122.381826
 30
2.0
 70
    64
  0
VERTEX
  5
737
  8
0
 10
150.695633
 20
122.381826
 30
0.0
 70
    64
  0
VERTEX
  5
738
  8
0
 10
150.695633
 20
122.381826
 30
0.0
 70
    64
  0
VERTEX
  5
739
  8
0
 10
151.47209
 20
125.279603
 30
2.0
 70
    64
  0
VERTEX
  5
73A
  8
0
 10
151.47209
 20
125.279603
 30
0.0
 70
    64
  0
VERTEX
  5
73B
  8
0
 10
151.47209
 20
125.279603
 30
0.0
 70
    64
  0
VERTEX
  5
73C
  8
0
 10
148.574313
 20
126.05606
 30
2.0
 70
    64
  0
VERTEX
  5
73D
  8
0
 10
148.574313
 20
126.05606
 30
0.0
 70
    64
  0
VERTEX
  5
73E
  8
0
 10
151.47209
 20
125.279603
 30
0.0
 70
    64
  0
VERTEX
  5
73F
  8
0
 10
147.797856
 20
123.158283
 30
2.0
 70
    64
  0
VERTEX
  5
740
  8
0
 10
147.797856
 20
123.158283
 30
0.0
 70
    64
  0
VERTEX
  5
741
  8
0
 10
150.695633
 20
122.381826
 30
0.0
 70
    64
  0
VERTEX
  5
742
  8
0
 10
147.797856
 20
123.158283
 30
2.0
 70
    64
  0
VERTEX
  5
743
  8
0
 10
147.797856
 20
123.158283
 30
2.0
 70
    64
  0
VERTEX
  5
744
  8
0
 10
150.695633
 20
122.381826
 30
2.0
 70
    64
  0
VERTEX
  5
745
  8
0
 10
148.574313
 20
126.05606
 30
2.0
 70
    64
  0
VERTEX
  5
746
  8
0
 10
148.574313
 20
126.05606
 30
2.0
 70
    64
  0
VERTEX
  5
747
  8
0
 10
151.47209
 20
125.279603
 30
2.0
 70
    64
  0
SEQEND
  5
748
  8
0
  0
POLYLINE
  5
749
  8
0
 66
     1
 10
0.0
 20
0.0
 30
0.0
 70
    16
 71
     6
 72
     3
  0
VERTEX
  5
74A
  8
0
 10
57.893687
 20
140.001099
 30
2.0
 70
    64
  0
VERTEX
  5
74B
  8
0
 10
57.893687
 20
140.001099
 30
0.0
 70
    64
  0
VERTEX
  5
74C
  8
0
 10
57.893687
 20
140.001099
 30
0.0
 70
    64
  0
VERTEX
  5
74D
  8
0
 10
58.670144
 20
142.898876
 30
2.0
 70
    64
  0
VERTEX
  5
74E
  8
0
 10
58.670144
 20
142.898876
 30
0.0
 70
    64
  0
VERTEX
  5
74F
  8
0
 10
58.670144
 20
142.898876
 30
0.0
 70
    64
  0
VERTEX
  5
750
  8
0
 10
61.567922
 20
142.122419
 30
2.0
 70
    64
  0
VERTEX
  5
751
  8
0
 10
61.567922
 20
142.122419
 30
0.0
 70
    64
  0
VERTEX
  5
752
  8
0
 10
58.670144
 20
142.898876
 30
0.0
 70
    64
  0
VERTEX
  5
753
  8
0
 10
60.791465
 20
139.224642
 30
2.0
 70
    64
  0
VERTEX
  5
754
  8
0
 10
60.791465
 20
139.224642
 30
0.0
 70
    64
  0
VERTEX
  5
755
  8
0
 10
57.893687
 20
140.001099
 30
0.0
 70
    64
  0
VERTEX
  5
756
  8
0
 10
60.791465
 20
139.224642
 30
2.0
 70
    64
  0
VERTEX
  5
757
  8
0
 10
60.791465
 20
139.224642
 30
2.0
 70
    64
  0
VERTEX
  5
758
  8
0
 10
57.893687
 20
140.001099
 30
2.0
 70
    64
  0
VERTEX
  5
759
  8
0
 10
61.567922
 20
142.122419
 30
2.0
 70
    64
  0
VERTEX
  5
75A
  8
0
 10
61.567922
 20
142.122419
 30
2.0
 70
    64
  0
VERTEX
  5
75B
  8
0
 10
58.670144
 20
142.898876
 30
2.0
 70
    64
  0
SEQEND
  5
75C
  8
0
  0
POLYLINE
  5
785
  8
0
 66
     1
 10
0.0
 20
0.0
 30
0.0
 70
    16
 71
     6
 72
     3
  0
VERTEX
  5
786
  8
0
 10
101.307323
 20
73.291757
 30
2.0
 70
    64
  0
VERTEX
  5
787
  8
0
 10
101.307323
 20
73.291757
 30
0.0
 70
    64
  0
VERTEX
  5
788
  8
0
 10
101.307323
 20
73.291757
 30
0.0
 70
    64
  0
VERTEX
  5
789
  8
0
 10
100.530866
 20
70.39398
 30
2.0
 70
    64
  0
VERTEX
  5
78A
  8
0
 10
100.530866
 20
70.39398
 30
0.0
 70
    64
  0
VERTEX
  5
78B
  8
0
 10
100.530866
 20
70.39398
 30
0.0
 70
    64
  0
VERTEX
  5
78C
  8
0
 10
97.633088
 20
71.170437
 30
2.0
 70
    64
  0
VERTEX
  5
78D
  8
0
 10
97.633088
 20
71.170437
 30
0.0
 70
    64
  0
VERTEX
  5
78E
  8
0
 10
100.530866
 20
70.39398
 30
0.0
 70
    64
  0
VERTEX
  5
78F
  8
0
 10
98.409545
 20
74.068215
 30
2.0
 70
    64
  0
VERTEX
  5
790
  8
0
 10
98.409545
 20
74.068215
 30
0.0
 70
    64
  0
VERTEX
  5
791
  8
0
 10
101.307323
 20
73.291757
 30
0.0
 70
    64
  0
VERTEX
  5
792
  8
0
 10
98.409545
 20
74.068215
 30
2.0
 70
    64
  0
VERTEX
  5
793
  8
0
 10
98.409545
 20
74.068215
 30
2.0
 70
    64
  0
VERTEX
  5
794
  8
0
 10
101.307323
 20
73.291757
 30
2.0
 70
    64
  0
VERTEX
  5
795
  8
0
 10
97.633088
 20
71.170437
 30
2.0
 70
    64
  0
VERTEX
  5
796
  8
0
 10
97.633088
 20
71.170437
 30
2.0
 70
    64
  0
VERTEX
  5
797
  8
0
 10
100.530866
 20
70.39398
 30
2.0
 70
    64
  0
SEQEND
  5
798
  8
0
  0
POLYLINE
  5
7C1
  8
0
 66
     1
 10
0.0
 20
0.0
 30
0.0
 70
    16
 71
     6
 72
     3
  0
VERTEX
  5
7C2
  8
0
 10
107.829563
 20
97.633088
 30
2.0
 70
    64
  0
VERTEX
  5
7C3
  8
0
 10
107.829563
 20
97.633088
 30
0.0
 70
    64
  0
VERTEX
  5
7C4
  8
0
 10
107.829563
 20
97.633088
 30
0.0
 70
    64
  0
VERTEX
  5
7C5
  8
0
 10
108.60602
 20
100.530866
 30
2.0
 70
    64
  0
VERTEX
  5
7C6
  8
0
 10
108.60602
 20
100.530866
 30
0.0
 70
    64
  0
VERTEX
  5
7C7
  8
0
 10
108.60602
 20
100.530866
 30
0.0
 70
    64
  0
VERTEX
  5
7C8
  8
0
 10
105.708243
 20
101.307323
 30
2.0
 70
    64
  0
VERTEX
  5
7C9
  8
0
 10
105.708243
 20
101.307323
 30
0.0
 70
    64
  0
VERTEX
  5
7CA
  8
0
 10
108.60602
 20
100.530866
 30
0.0
 70
    64
  0
VERTEX
  5
7CB
  8
0
 10
104.931785
 20
98.409545
 30
2.0
 70
    64
  0
VERTEX
  5
7CC
  8
0
 10
104.931785
 20
98.409545
 30
0.0
 70
    64
  0
VERTEX
  5
7CD
  8
0
 10
107.829563
 20
97.633088
 30
0.0
 70
    64
  0
VERTEX
  5
7CE
  8
0
 10
104.931785
 20
98.409545
 30
2.0
 70
    64
  0
VERTEX
  5
7CF
  8
0
 10
104.931785
 20
98.409545
 30
2.0
 70
    64
  0
VERTEX
  5
7D0
  8
0
 10
107.829563
 20
97.633088
 30
2.0
 70
    64
  0
VERTEX
  5
7D1
  8
0
 10
105.708243
 20
101.307323
 30
2.0
 70
    64
  0
VERTEX
  5
7D2
  8
0
 10
105.708243
 20
101.307323
 30
2.0
 70
    64
  0
VERTEX
  5
7D3
  8
0
 10
108.60602
 20
100.530866
 30
2.0
 70
    64
  0
SEQEND
  5
7D4
  8
0
  0
POLYLINE
  5
7D5
  8
0
 66
     1
 10
0.0
 20
0.0
 30
0.0
 70
    16
 71
     6
 72
     3
  0
VERTEX
  5
7D6
  8
0
 10
116.402777
 20
102.582836
 30
2.0
 70
    64
  0
VERTEX
  5
7D7
  8
0
 10
116.402777
 20
102.582836
 30
0.0
 70
    64
  0
VERTEX
  5
7D8
  8
0
 10
116.402777
 20
102.582836
 30
0.0
 70
    64
  0
VERTEX
  5
7D9
  8
0
 10
117.179234
 20
105.480613
 30
2.0
 70
    64
  0
VERTEX
  5
7DA
  8
0
 10
117.179234
 20
105.480613
 30
0.0
 70
    64
  0
VERTEX
  5
7DB
  8
0
 10
117.179234
 20
105.480613
 30
0.0
 70
    64
  0
VERTEX
  5
7DC
  8
0
 10
114.281457
 20
106.25707
 30
2.0
 70
    64
  0
VERTEX
  5
7DD
  8
0
 10
114.281457
 20
106.25707
 30
0.0
 70
    64
  0
VERTEX
  5
7DE
  8
0
 10
117.179234
 20
105.480613
 30
0.0
 70
    64
  0
VERTEX
  5
7DF
  8
0
 10
113.504999
 20
103.359293
 30
2.0
 70
    64
  0
VERTEX
  5
7E0
  8
0
 10
113.504999
 20
103.359293
 30
0.0
 70
    64
  0
VERTEX
  5
7E1
  8
0
 10
116.402777
 20
102.582836
 30
0.0
 70
    64
  0
VERTEX
  5
7E2
  8
0
 10
113.504999
 20
103.359293
 30
2.0
 70
    64
  0
VERTEX
  5
7E3
  8
0
 10
113.504999
 20
103.359293
 30
2.0
 70
    64
  0
VERTEX
  5
7E4
  8
0
 10
116.402777
 20
102.582836
 30
2.0
 70
    64
  0
VERTEX
  5
7E5
  8
0
 10
114.281457
 20
106.25707
 30
2.0
 70
    64
  0
VERTEX
  5
7E6
  8
0
 10
114.281457
 20
106.25707
 30
2.0
 70
    64
  0
VERTEX
  5
7E7
  8
0
 10
117.179234
 20
105.480613
 30
2.0
 70
    64
  0
SEQEND
  5
7E8
  8
0
  0
POLYLINE
  5
7E9
  8
0
 66
     1
 10
0.0
 20
0.0
 30
0.0
 70
    16
 71
     6
 72
     3
  0
VERTEX
  5
7EA
  8
0
 10
124.975991
 20
107.532583
 30
2.0
 70
    64
  0
VERTEX
  5
7EB
  8
0
 10
124.975991
 20
107.532583
 30
0.0
 70
    64
  0
VERTEX
  5
7EC
  8
0
 10
124.975991
 20
107.532583
 30
0.0
 70
    64
  0
VERTEX
  5
7ED
  8
0
 10
125.752448
 20
110.430361
 30
2.0
 70
    64
  0
VERTEX
  5
7EE
  8
0
 10
125.752448
 20
110.430361
 30
0.0
 70
    64
  0
VERTEX
  5
7EF
  8
0
 10
125.752448
 20
110.430361
 30
0.0
 70
    64
  0
VERTEX
  5
7F0
  8
0
 10
122.854671
 20
111.206818
 30
2.0
 70
    64
  0
VERTEX
  5
7F1
  8
0
 10
122.854671
 20
111.206818
 30
0.0
 70
    64
  0
VERTEX
  5
7F2
  8
0
 10
125.752448
 20
110.430361
 30
0.0
 70
    64
  0
VERTEX
  5
7F3
  8
0
 10
122.078214
 20
108.30904
 30
2.0
 70
    64
  0
VERTEX
  5
7F4
  8
0
 10
122.078214
 20
108.30904
 30
0.0
 70
    64
  0
VERTEX
  5
7F5
  8
0
 10
124.975991
 20
107.532583
 30
0.0
 70
    64
  0
VERTEX
  5
7F6
  8
0
 10
122.078214
 20
108.30904
 30
2.0
 70
    64
  0
VERTEX
  5
7F7
  8
0
 10
122.078214
 20
108.30904
 30
2.0
 70
    64
  0
VERTEX
  5
7F8
  8
0
 10
124.975991
 20
107.532583
 30
2.0
 70
    64
  0
VERTEX
  5
7F9
  8
0
 10
122.854671
 20
111.206818
 30
2.0
 70
    64
  0
VERTEX
  5
7FA
  8
0
 10
122.854671
 20
111.206818
 30
2.0
 70
    64
  0
VERTEX
  5
7FB
  8
0
 10
125.752448
 20
110.430361
 30
2.0
 70
    64
  0
SEQEND
  5
7FC
  8
0
  0
POLYLINE
  5
7FD
  8
0
 66
     1
 10
0.0
 20
0.0
 30
0.0
 70
    16
 71
     6
 72
     3
  0
VERTEX
  5
7FE
  8
0
 10
71.170437
 20
81.366912
 30
2.0
 70
    64
  0
VERTEX
  5
7FF
  8
0
 10
71.170437
 20
81.366912
 30
0.0
 70
    64
  0
VERTEX
  5
800
  8
0
 10
71.170437
 20
81.366912
 30
0.0
 70
    64
  0
VERTEX
  5
801
  8
0
 10
70.39398
 20
78.469134
 30
2.0
 70
    64
  0
VERTEX
  5
802
  8
0
 10
70.39398
 20
78.469134
 30
0.0
 70
    64
  0
VERTEX
  5
803
  8
0
 10
70.39398
 20
78.469134
 30
0.0
 70
    64
  0
VERTEX
  5
804
  8
0
 10
73.291757
 20
77.692677
 30
2.0
 70
    64
  0
VERTEX
  5
805
  8
0
 10
73.291757
 20
77.692677
 30
0.0
 70
    64
  0
VERTEX
  5
806
  8
0
 10
70.39398
 20
78.469134
 30
0.0
 70
    64
  0
VERTEX
  5
807
  8
0
 10
74.068215
 20
80.590455
 30
2.0
 70
    64
  0
VERTEX
  5
808
  8
0
 10
74.068215
 20
80.590455
 30
0.0
 70
    64
  0
VERTEX
  5
809
  8
0
 10
71.170437
 20
81.366912
 30
0.0
 70
    64
  0
VERTEX
  5
80A
  8
0
 10
74.068215
 20
80.590455
 30
2.0
 70
    64
  0
VERTEX
  5
80B
  8
0
 10
74.068215
 20
80.590455
 30
2.0
 70
    64
  0
VERTEX
  5
80C
  8
0
 10
71.170437
 20
81.366912
 30
2.0
 70
    64
  0
VERTEX
  5
80D
  8
0
 10
73.291757
 20
77.692677
 30
2.0
 70
    64
  0
VERTEX
  5
80E
  8
0
 10
73.291757
 20
77.692677
 30
2.0
 70
    64
  0
VERTEX
  5
80F
  8
0
 10
70.39398
 20
78.469134
 30
2.0
 70
    64
  0
SEQEND
  5
810
  8
0
  0
POLYLINE
  5
811
  8
0
 66
     1
 10
0.0
 20
0.0
 30
0.0
 70
    16
 71
     6
 72
     3
  0
VERTEX
  5
812
  8
0
 10
77.692677
 20
105.708243
 30
2.0
 70
    64
  0
VERTEX
  5
813
  8
0
 10
77.692677
 20
105.708243
 30
0.0
 70
    64
  0
VERTEX
  5
814
  8
0
 10
77.692677
 20
105.708243
 30
0.0
 70
    64
  0
VERTEX
  5
815
  8
0
 10
78.469134
 20
108.60602
 30
2.0
 70
    64
  0
VERTEX
  5
816
  8
0
 10
78.469134
 20
108.60602
 30
0.0
 70
    64
  0
VERTEX
  5
817
  8
0
 10
78.469134
 20
108.60602
 30
0.0
 70
    64
  0
VERTEX
  5
818
  8
0
 10
81.366912
 20
107.829563
 30
2.0
 70
    64
  0
VERTEX
  5
819
  8
0
 10
81.366912
 20
107.829563
 30
0.0
 70
    64
  0
VERTEX
  5
81A
  8
0
 10
78.469134
 20
108.60602
 30
0.0
 70
    64
  0
VERTEX
  5
81B
  8
0
 10
80.590455
 20
104.931785
 30
2.0
 70
    64
  0
VERTEX
  5
81C
  8
0
 10
80.590455
 20
104.931785
 30
0.0
 70
    64
  0
VERTEX
  5
81D
  8
0
 10
77.692677
 20
105.708243
 30
0.0
 70
    64
  0
VERTEX
  5
81E
  8
0
 10
80.590455
 20
104.931785
 30
2.0
 70
    64
  0
VERTEX
  5
81F
  8
0
 10
80.590455
 20
104.931785
 30
2.0
 70
    64
  0
VERTEX
  5
820
  8
0
 10
77.692677
 20
105.708243
 30
2.0
 70
    64
  0
VERTEX
  5
821
  8
0
 10
81.366912
 20
107.829563
 30
2.0
 70
    64
  0
VERTEX
  5
822
  8
0
 10
81.366912
 20
107.829563
 30
2.0
 70
    64
  0
VERTEX
  5
823
  8
0
 10
78.469134
 20
108.60602
 30
2.0
 70
    64
  0
SEQEND
  5
824
  8
0
  0
POLYLINE
  5
825
  8
0
 66
     1
 10
0.0
 20
0.0
 30
0.0
 70
    16
 71
     6
 72
     3
  0
VERTEX
  5
826
  8
0
 10
72.74293
 20
114.281457
 30
2.0
 70
    64
  0
VERTEX
  5
827
  8
0
 10
72.74293
 20
114.281457
 30
0.0
 70
    64
  0
VERTEX
  5
828
  8
0
 10
72.74293
 20
114.281457
 30
0.0
 70
    64
  0
VERTEX
  5
829
  8
0
 10
73.519387
 20
117.179234
 30
2.0
 70
    64
  0
VERTEX
  5
82A
  8
0
 10
73.519387
 20
117.179234
 30
0.0
 70
    64
  0
VERTEX
  5
82B
  8
0
 10
73.519387
 20
117.179234
 30
0.0
 70
    64
  0
VERTEX
  5
82C
  8
0
 10
76.417164
 20
116.402777
 30
2.0
 70
    64
  0
VERTEX
  5
82D
  8
0
 10
76.417164
 20
116.402777
 30
0.0
 70
    64
  0
VERTEX
  5
82E
  8
0
 10
73.519387
 20
117.179234
 30
0.0
 70
    64
  0
VERTEX
  5
82F
  8
0
 10
75.640707
 20
113.504999
 30
2.0
 70
    64
  0
VERTEX
  5
830
  8
0
 10
75.640707
 20
113.504999
 30
0.0
 70
    64
  0
VERTEX
  5
831
  8
0
 10
72.74293
 20
114.281457
 30
0.0
 70
    64
  0
VERTEX
  5
832
  8
0
 10
75.640707
 20
113.504999
 30
2.0
 70
    64
  0
VERTEX
  5
833
  8
0
 10
75.640707
 20
113.504999
 30
2.0
 70
    64
  0
VERTEX
  5
834
  8
0
 10
72.74293
 20
114.281457
 30
2.0
 70
    64
  0
VERTEX
  5
835
  8
0
 10
76.417164
 20
116.402777
 30
2.0
 70
    64
  0
VERTEX
  5
836
  8
0
 10
76.417164
 20
116.402777
 30
2.0
 70
    64
  0
VERTEX
  5
837
  8
0
 10
73.519387
 20
117.179234
 30
2.0
 70
    64
  0
SEQEND
  5
838
  8
0
  0
POLYLINE
  5
839
  8
0
 66
     1
 10
0.0
 20
0.0
 30
0.0
 70
    16
 71
     6
 72
     3
  0
VERTEX
  5
83A
  8
0
 10
67.793182
 20
122.854671
 30
2.0
 70
    64
  0
VERTEX
  5
83B
  8
0
 10
67.793182
 20
122.854671
 30
0.0
 70
    64
  0
VERTEX
  5
83C
  8
0
 10
67.793182
 20
122.854671
 30
0.0
 70
    64
  0
VERTEX
  5
83D
  8
0
 10
68.569639
 20
125.752448
 30
2.0
 70
    64
  0
VERTEX
  5
83E
  8
0
 10
68.569639
 20
125.752448
 30
0.0
 70
    64
  0
VERTEX
  5
83F
  8
0
 10
68.569639
 20
125.752448
 30
0.0
 70
    64
  0
VERTEX
  5
840
  8
0
 10
71.467417
 20
124.975991
 30
2.0
 70
    64
  0
VERTEX
  5
841
  8
0
 10
71.467417
 20
124.975991
 30
0.0
 70
    64
  0
VERTEX
  5
842
  8
0
 10
68.569639
 20
125.752448
 30
0.0
 70
    64
  0
VERTEX
  5
843
  8
0
 10
70.69096
 20
122.078214
 30
2.0
 70
    64
  0
VERTEX
  5
844
  8
0
 10
70.69096
 20
122.078214
 30
0.0
 70
    64
  0
VERTEX
  5
845
  8
0
 10
67.793182
 20
122.854671
 30
0.0
 70
    64
  0
VERTEX
  5
846
  8
0
 10
70.69096
 20
122.078214
 30
2.0
 70
    64
  0
VERTEX
  5
847
  8
0
 10
70.69096
 20
122.078214
 30
2.0
 70
    64
  0
VERTEX
  5
848
  8
0
 10
67.793182
 20
122.854671
 30
2.0
 70
    64
  0
VERTEX
  5
849
  8
0
 10
71.467417
 20
124.975991
 30
2.0
 70
    64
  0
VERTEX
  5
84A
  8
0
 10
71.467417
 20
124.975991
 30
2.0
 70
    64
  0
VERTEX
  5
84B
  8
0
 10
68.569639
 20
125.752448
 30
2.0
 70
    64
  0
SEQEND
  5
84C
  8
0
  0
POLYLINE
  5
84D
  8
0
 66
     1
 10
0.0
 20
0.0
 30
0.0
 70
    16
 71
     6
 72
     3
  0
VERTEX
  5
84E
  8
0
 10
62.843435
 20
131.427885
 30
2.0
 70
    64
  0
VERTEX
  5
84F
  8
0
 10
62.843435
 20
131.427885
 30
0.0
 70
    64
  0
VERTEX
  5
850
  8
0
 10
62.843435
 20
131.427885
 30
0.0
 70
    64
  0
VERTEX
  5
851
  8
0
 10
63.619892
 20
134.325662
 30
2.0
 70
    64
  0
VERTEX
  5
852
  8
0
 10
63.619892
 20
134.325662
 30
0.0
 70
    64
  0
VERTEX
  5
853
  8
0
 10
63.619892
 20
134.325662
 30
0.0
 70
    64
  0
VERTEX
  5
854
  8
0
 10
66.517669
 20
133.549205
 30
2.0
 70
    64
  0
VERTEX
  5
855
  8
0
 10
66.517669
 20
133.549205
 30
0.0
 70
    64
  0
VERTEX
  5
856
  8
0
 10
63.619892
 20
134.325662
 30
0.0
 70
    64
  0
VERTEX
  5
857
  8
0
 10
65.741212
 20
130.651428
 30
2.0
 70
    64
  0
VERTEX
  5
858
  8
0
 10
65.741212
 20
130.651428
 30
0.0
 70
    64
  0
VERTEX
  5
859
  8
0
 10
62.843435
 20
131.427885
 30
0.0
 70
    64
  0
VERTEX
  5
85A
  8
0
 10
65.741212
 20
130.651428
 30
2.0
 70
    64
  0
VERTEX
  5
85B
  8
0
 10
65.741212
 20
130.651428
 30
2.0
 70
    64
  0
VERTEX
  5
85C
  8
0
 10
62.843435
 20
131.427885
 30
2.0
 70
    64
  0
VERTEX
  5
85D
  8
0
 10
66.517669
 20
133.549205
 30
2.0
 70
    64
  0
VERTEX
  5
85E
  8
0
 10
66.517669
 20
133.549205
 30
2.0
 70
    64
  0
VERTEX
  5
85F
  8
0
 10
63.619892
 20
134.325662
 30
2.0
 70
    64
  0
SEQEND
  5
860
  8
0
  0
POLYLINE
  5
861
  8
0
 66
     1
 10
0.0
 20
0.0
 30
0.0
 70
    16
 71
     6
 72
     3
  0
VERTEX
  5
862
  8
0
 10
52.94394
 20
148.574313
 30
2.0
 70
    64
  0
VERTEX
  5
863
  8
0
 10
52.94394
 20
148.574313
 30
0.0
 70
    64
  0
VERTEX
  5
864
  8
0
 10
52.94394
 20
148.574313
 30
0.0
 70
    64
  0
VERTEX
  5
865
  8
0
 10
53.720397
 20
151.47209
 30
2.0
 70
    64
  0
VERTEX
  5
866
  8
0
 10
53.720397
 20
151.47209
 30
0.0
 70
    64
  0
VERTEX
  5
867
  8
0
 10
53.720397
 20
151.47209
 30
0.0
 70
    64
  0
VERTEX
  5
868
  8
0
 10
56.618174
 20
150.695633
 30
2.0
 70
    64
  0
VERTEX
  5
869
  8
0
 10
56.618174
 20
150.695633
 30
0.0
 70
    64
  0
VERTEX
  5
86A
  8
0
 10
53.720397
 20
151.47209
 30
0.0
 70
    64
  0
VERTEX
  5
86B
  8
0
 10
55.841717
 20
147.797856
 30
2.0
 70
    64
  0
VERTEX
  5
86C
  8
0
 10
55.841717
 20
147.797856
 30
0.0
 70
    64
  0
VERTEX
  5
86D
  8
0
 10
52.94394
 20
148.574313
 30
0.0
 70
    64
  0
VERTEX
  5
86E
  8
0
 10
55.841717
 20
147.797856
 30
2.0
 70
    64
  0
VERTEX
  5
86F
  8
0
 10
55.841717
 20
147.797856
 30
2.0
 70
    64
  0
VERTEX
  5
870
  8
0
 10
52.94394
 20
148.574313
 30
2.0
 70
    64
  0
VERTEX
  5
871
  8
0
 10
56.618174
 20
150.695633
 30
2.0
 70
    64
  0
VERTEX
  5
872
  8
0
 10
56.618174
 20
150.695633
 30
2.0
 70
    64
  0
VERTEX
  5
873
  8
0
 10
53.720397
 20
151.47209
 30
2.0
 70
    64
  0
SEQEND
  5
874
  8
0
  0
POLYLINE
  5
875
  8
0
 66
     1
 10
0.0
 20
0.0
 30
0.0
 70
    16
 71
     6
 72
     3
  0
VERTEX
  5
876
  8
0
 10
19.731153
 20
51.668427
 30
2.0
 70
    64
  0
VERTEX
  5
877
  8
0
 10
19.731153
 20
51.668427
 30
0.0
 70
    64
  0
VERTEX
  5
878
  8
0
 10
19.731153
 20
51.668427
 30
0.0
 70
    64
  0
VERTEX
  5
879
  8
0
 10
18.954695
 20
48.770649
 30
2.0
 70
    64
  0
VERTEX
  5
87A
  8
0
 10
18.954695
 20
48.770649
 30
0.0
 70
    64
  0
VERTEX
  5
87B
  8
0
 10
18.954695
 20
48.770649
 30
0.0
 70
    64
  0
VERTEX
  5
87C
  8
0
 10
21.852473
 20
47.994192
 30
2.0
 70
    64
  0
VERTEX
  5
87D
  8
0
 10
21.852473
 20
47.994192
 30
0.0
 70
    64
  0
VERTEX
  5
87E
  8
0
 10
18.954695
 20
48.770649
 30
0.0
 70
    64
  0
VERTEX
  5
87F
  8
0
 10
22.62893
 20
50.89197
 30
2.0
 70
    64
  0
VERTEX
  5
880
  8
0
 10
22.62893
 20
50.89197
 30
0.0
 70
    64
  0
VERTEX
  5
881
  8
0
 10
19.731153
 20
51.668427
 30
0.0
 70
    64
  0
VERTEX
  5
882
  8
0
 10
22.62893
 20
50.89197
 30
2.0
 70
    64
  0
VERTEX
  5
883
  8
0
 10
22.62893
 20
50.89197
 30
2.0
 70
    64
  0
VERTEX
  5
884
  8
0
 10
19.731153
 20
51.668427
 30
2.0
 70
    64
  0
VERTEX
  5
885
  8
0
 10
21.852473
 20
47.994192
 30
2.0
 70
    64
  0
VERTEX
  5
886
  8
0
 10
21.852473
 20
47.994192
 30
2.0
 70
    64
  0
VERTEX
  5
887
  8
0
 10
18.954695
 20
48.770649
 30
2.0
 70
    64
  0
SEQEND
  5
888
  8
0
  0
POLYLINE
  5
889
  8
0
 66
     1
 10
0.0
 20
0.0
 30
0.0
 70
    16
 71
     6
 72
     3
  0
VERTEX
  5
88A
  8
0
 10
47.994192
 20
157.147527
 30
2.0
 70
    64
  0
VERTEX
  5
88B
  8
0
 10
47.994192
 20
157.147527
 30
0.0
 70
    64
  0
VERTEX
  5
88C
  8
0
 10
47.994192
 20
157.147527
 30
0.0
 70
    64
  0
VERTEX
  5
88D
  8
0
 10
48.770649
 20
160.045305
 30
2.0
 70
    64
  0
VERTEX
  5
88E
  8
0
 10
48.770649
 20
160.045305
 30
0.0
 70
    64
  0
VERTEX
  5
88F
  8
0
 10
48.770649
 20
160.045305
 30
0.0
 70
    64
  0
VERTEX
  5
890
  8
0
 10
51.668427
 20
159.268847
 30
2.0
 70
    64
  0
VERTEX
  5
891
  8
0
 10
51.668427
 20
159.268847
 30
0.0
 70
    64
  0
VERTEX
  5
892
  8
0
 10
48.770649
 20
160.045305
 30
0.0
 70
    64
  0
VERTEX
  5
893
  8
0
 10
50.89197
 20
156.37107
 30
2.0
 70
    64
  0
VERTEX
  5
894
  8
0
 10
50.89197
 20
156.37107
 30
0.0
 70
    64
  0
VERTEX
  5
895
  8
0
 10
47.994192
 20
157.147527
 30
0.0
 70
    64
  0
VERTEX
  5
896
  8
0
 10
50.89197
 20
156.37107
 30
2.0
 70
    64
  0
VERTEX
  5
897
  8
0
 10
50.89197
 20
156.37107
 30
2.0
 70
    64
  0
VERTEX
  5
898
  8
0
 10
47.994192
 20
157.147527
 30
2.0
 70
    64
  0
VERTEX
  5
899
  8
0
 10
51.668427
 20
159.268847
 30
2.0
 70
    64
  0
VERTEX
  5
89A
  8
0
 10
51.668427
 20
159.268847
 30
2.0
 70
    64
  0
VERTEX
  5
89B
  8
0
 10
48.770649
 20
160.045305
 30
2.0
 70
    64
  0
SEQEND
  5
89C
  8
0
  0
POLYLINE
  5
B1D
  8
0
 66
     1
 10
0.0
 20
0.0
 30
0.0
 70
    16
 71
     6
 72
     3
  0
VERTEX
  5
B1E
  8
0
 10
41.9
 20
38.9
 30
2.0
 70
    64
  0
VERTEX
  5
B1F
  8
0
 10
41.9
 20
38.9
 30
0.0
 70
    64
  0
VERTEX
  5
B20
  8
0
 10
41.9
 20
38.9
 30
0.0
 70
    64
  0
VERTEX
  5
B21
  8
0
 10
38.9
 20
38.9
 30
2.0
 70
    64
  0
VERTEX
  5
B22
  8
0
 10
38.9
 20
38.9
 30
0.0
 70
    64
  0
VERTEX
  5
B23
  8
0
 10
38.9
 20
38.9
 30
0.0
 70
    64
  0
VERTEX
  5
B24
  8
0
 10
38.9
 20
41.9
 30
2.0
 70
    64
  0
VERTEX
  5
B25
  8
0
 10
38.9
 20
41.9
 30
0.0
 70
    64
  0
VERTEX
  5
B26
  8
0
 10
38.9
 20
38.9
 30
0.0
 70
    64
  0
VERTEX
  5
B27
  8
0
 10
41.9
 20
41.9
 30
2.0
 70
    64
  0
VERTEX
  5
B28
  8
0
 10
41.9
 20
41.9
 30
0.0
 70
    64
  0
VERTEX
  5
B29
  8
0
 10
41.9
 20
38.9
 30
0.0
 70
    64
  0
VERTEX
  5
B2A
  8
0
 10
41.9
 20
41.9
 30
2.0
 70
    64
  0
VERTEX
  5
B2B
  8
0
 10
41.9
 20
41.9
 30
2.0
 70
    64
  0
VERTEX
  5
B2C
  8
0
 10
41.9
 20
38.9
 30
2.0
 70
    64
  0
VERTEX
  5
B2D
  8
0
 10
38.9
 20
41.9
 30
2.0
 70
    64
  0
VERTEX
  5
B2E
  8
0
 10
38.9
 20
41.9
 30
2.0
 70
    64
  0
VERTEX
  5
B2F
  8
0
 10
38.9
 20
38.9
 30
2.0
 70
    64
  0
SEQEND
  5
B30
  8
0
  0
POLYLINE
  5
B31
  8
0
 66
     1
 10
0.0
 20
0.0
 30
0.0
 70
    16
 71
     6
 72
     3
  0
VERTEX
  5
B32
  8
0
 10
34.9
 20
31.9
 30
2.0
 70
    64
  0
VERTEX
  5
B33
  8
0
 10
34.9
 20
31.9
 30
0.0
 70
    64
  0
VERTEX
  5
B34
  8
0
 10
34.9
 20
31.9
 30
0.0
 70
    64
  0
VERTEX
  5
B35
  8
0
 10
31.9
 20
31.9
 30
2.0
 70
    64
  0
VERTEX
  5
B36
  8
0
 10
31.9
 20
31.9
 30
0.0
 70
    64
  0
VERTEX
  5
B37
  8
0
 10
31.9
 20
31.9
 30
0.0
 70
    64
  0
VERTEX
  5
B38
  8
0
 10
31.9
 20
34.9
 30
2.0
 70
    64
  0
VERTEX
  5
B39
  8
0
 10
31.9
 20
34.9
 30
0.0
 70
    64
  0
VERTEX
  5
B3A
  8
0
 10
31.9
 20
31.9
 30
0.0
 70
    64
  0
VERTEX
  5
B3B
  8
0
 10
34.9
 20
34.9
 30
2.0
 70
    64
  0
VERTEX
  5
B3C
  8
0
 10
34.9
 20
34.9
 30
0.0
 70
    64
  0
VERTEX
  5
B3D
  8
0
 10
34.9
 20
31.9
 30
0.0
 70
    64
  0
VERTEX
  5
B3E
  8
0
 10
34.9
 20
34.9
 30
2.0
 70
    64
  0
VERTEX
  5
B3F
  8
0
 10
34.9
 20
34.9
 30
2.0
 70
    64
  0
VERTEX
  5
B40
  8
0
 10
34.9
 20
31.9
 30
2.0
 70
    64
  0
VERTEX
  5
B41
  8
0
 10
31.9
 20
34.9
 30
2.0
 70
    64
  0
VERTEX
  5
B42
  8
0
 10
31.9
 20
34.9
 30
2.0
 70
    64
  0
VERTEX
  5
B43
  8
0
 10
31.9
 20
31.9
 30
2.0
 70
    64
  0
SEQEND
  5
B44
  8
0
  0
POLYLINE
  5
B45
  8
0
 66
     1
 10
0.0
 20
0.0
 30
0.0
 70
    16
 71
     6
 72
     3
  0
VERTEX
  5
B46
  8
0
 10
48.9
 20
45.9
 30
2.0
 70
    64
  0
VERTEX
  5
B47
  8
0
 10
48.9
 20
45.9
 30
0.0
 70
    64
  0
VERTEX
  5
B48
  8
0
 10
48.9
 20
45.9
 30
0.0
 70
    64
  0
VERTEX
  5
B49
  8
0
 10
45.9
 20
45.9
 30
2.0
 70
    64
  0
VERTEX
  5
B4A
  8
0
 10
45.9
 20
45.9
 30
0.0
 70
    64
  0
VERTEX
  5
B4B
  8
0
 10
45.9
 20
45.9
 30
0.0
 70
    64
  0
VERTEX
  5
B4C
  8
0
 10
45.9
 20
48.9
 30
2.0
 70
    64
  0
VERTEX
  5
B4D
  8
0
 10
45.9
 20
48.9
 30
0.0
 70
    64
  0
VERTEX
  5
B4E
  8
0
 10
45.9
 20
45.9
 30
0.0
 70
    64
  0
VERTEX
  5
B4F
  8
0
 10
48.9
 20
48.9
 30
2.0
 70
    64
  0
VERTEX
  5
B50
  8
0
 10
48.9
 20
48.9
 30
0.0
 70
    64
  0
VERTEX
  5
B51
  8
0
 10
48.9
 20
45.9
 30
0.0
 70
    64
  0
VERTEX
  5
B52
  8
0
 10
48.9
 20
48.9
 30
2.0
 70
    64
  0
VERTEX
  5
B53
  8
0
 10
48.9
 20
48.9
 30
2.0
 70
    64
  0
VERTEX
  5
B54
  8
0
 10
48.9
 20
45.9
 30
2.0
 70
    64
  0
VERTEX
  5
B55
  8
0
 10
45.9
 20
48.9
 30
2.0
 70
    64
  0
VERTEX
  5
B56
  8
0
 10
45.9
 20
48.9
 30
2.0
 70
    64
  0
VERTEX
  5
B57
  8
0
 10
45.9
 20
45.9
 30
2.0
 70
    64
  0
SEQEND
  5
B58
  8
0
  0
POLYLINE
  5
B59
  8
0
 66
     1
 10
0.0
 20
0.0
 30
0.0
 70
    16
 71
     6
 72
     3
  0
VERTEX
  5
B5A
  8
0
 10
55.9
 20
52.9
 30
2.0
 70
    64
  0
VERTEX
  5
B5B
  8
0
 10
55.9
 20
52.9
 30
0.0
 70
    64
  0
VERTEX
  5
B5C
  8
0
 10
55.9
 20
52.9
 30
0.0
 70
    64
  0
VERTEX
  5
B5D
  8
0
 10
52.9
 20
52.9
 30
2.0
 70
    64
  0
VERTEX
  5
B5E
  8
0
 10
52.9
 20
52.9
 30
0.0
 70
    64
  0
VERTEX
  5
B5F
  8
0
 10
52.9
 20
52.9
 30
0.0
 70
    64
  0
VERTEX
  5
B60
  8
0
 10
52.9
 20
55.9
 30
2.0
 70
    64
  0
VERTEX
  5
B61
  8
0
 10
52.9
 20
55.9
 30
0.0
 70
    64
  0
VERTEX
  5
B62
  8
0
 10
52.9
 20
52.9
 30
0.0
 70
    64
  0
VERTEX
  5
B63
  8
0
 10
55.9
 20
55.9
 30
2.0
 70
    64
  0
VERTEX
  5
B64
  8
0
 10
55.9
 20
55.9
 30
0.0
 70
    64
  0
VERTEX
  5
B65
  8
0
 10
55.9
 20
52.9
 30
0.0
 70
    64
  0
VERTEX
  5
B66
  8
0
 10
55.9
 20
55.9
 30
2.0
 70
    64
  0
VERTEX
  5
B67
  8
0
 10
55.9
 20
55.9
 30
2.0
 70
    64
  0
VERTEX
  5
B68
  8
0
 10
55.9
 20
52.9
 30
2.0
 70
    64
  0
VERTEX
  5
B69
  8
0
 10
52.9
 20
55.9
 30
2.0
 70
    64
  0
VERTEX
  5
B6A
  8
0
 10
52.9
 20
55.9
 30
2.0
 70
    64
  0
VERTEX
  5
B6B
  8
0
 10
52.9
 20
52.9
 30
2.0
 70
    64
  0
SEQEND
  5
B6C
  8
0
  0
POLYLINE
  5
B6D
  8
0
 66
     1
 10
0.0
 20
0.0
 30
0.0
 70
    16
 71
     6
 72
     3
  0
VERTEX
  5
B6E
  8
0
 10
62.9
 20
59.9
 30
2.0
 70
    64
  0
VERTEX
  5
B6F
  8
0
 10
62.9
 20
59.9
 30
0.0
 70
    64
  0
VERTEX
  5
B70
  8
0
 10
62.9
 20
59.9
 30
0.0
 70
    64
  0
VERTEX
  5
B71
  8
0
 10
59.9
 20
59.9
 30
2.0
 70
    64
  0
VERTEX
  5
B72
  8
0
 10
59.9
 20
59.9
 30
0.0
 70
    64
  0
VERTEX
  5
B73
  8
0
 10
59.9
 20
59.9
 30
0.0
 70
    64
  0
VERTEX
  5
B74
  8
0
 10
59.9
 20
62.9
 30
2.0
 70
    64
  0
VERTEX
  5
B75
  8
0
 10
59.9
 20
62.9
 30
0.0
 70
    64
  0
VERTEX
  5
B76
  8
0
 10
59.9
 20
59.9
 30
0.0
 70
    64
  0
VERTEX
  5
B77
  8
0
 10
62.9
 20
62.9
 30
2.0
 70
    64
  0
VERTEX
  5
B78
  8
0
 10
62.9
 20
62.9
 30
0.0
 70
    64
  0
VERTEX
  5
B79
  8
0
 10
62.9
 20
59.9
 30
0.0
 70
    64
  0
VERTEX
  5
B7A
  8
0
 10
62.9
 20
62.9
 30
2.0
 70
    64
  0
VERTEX
  5
B7B
  8
0
 10
62.9
 20
62.9
 30
2.0
 70
    64
  0
VERTEX
  5
B7C
  8
0
 10
62.9
 20
59.9
 30
2.0
 70
    64
  0
VERTEX
  5
B7D
  8
0
 10
59.9
 20
62.9
 30
2.0
 70
    64
  0
VERTEX
  5
B7E
  8
0
 10
59.9
 20
62.9
 30
2.0
 70
    64
  0
VERTEX
  5
B7F
  8
0
 10
59.9
 20
59.9
 30
2.0
 70
    64
  0
SEQEND
  5
B80
  8
0
  0
POLYLINE
  5
B81
  8
0
 66
     1
 10
0.0
 20
0.0
 30
0.0
 70
    16
 71
     6
 72
     3
  0
VERTEX
  5
B82
  8
0
 10
69.9
 20
66.9
 30
2.0
 70
    64
  0
VERTEX
  5
B83
  8
0
 10
69.9
 20
66.9
 30
0.0
 70
    64
  0
VERTEX
  5
B84
  8
0
 10
69.9
 20
66.9
 30
0.0
 70
    64
  0
VERTEX
  5
B85
  8
0
 10
66.9
 20
66.9
 30
2.0
 70
    64
  0
VERTEX
  5
B86
  8
0
 10
66.9
 20
66.9
 30
0.0
 70
    64
  0
VERTEX
  5
B87
  8
0
 10
66.9
 20
66.9
 30
0.0
 70
    64
  0
VERTEX
  5
B88
  8
0
 10
66.9
 20
69.9
 30
2.0
 70
    64
  0
VERTEX
  5
B89
  8
0
 10
66.9
 20
69.9
 30
0.0
 70
    64
  0
VERTEX
  5
B8A
  8
0
 10
66.9
 20
66.9
 30
0.0
 70
    64
  0
VERTEX
  5
B8B
  8
0
 10
69.9
 20
69.9
 30
2.0
 70
    64
  0
VERTEX
  5
B8C
  8
0
 10
69.9
 20
69.9
 30
0.0
 70
    64
  0
VERTEX
  5
B8D
  8
0
 10
69.9
 20
66.9
 30
0.0
 70
    64
  0
VERTEX
  5
B8E
  8
0
 10
69.9
 20
69.9
 30
2.0
 70
    64
  0
VERTEX
  5
B8F
  8
0
 10
69.9
 20
69.9
 30
2.0
 70
    64
  0
VERTEX
  5
B90
  8
0
 10
69.9
 20
66.9
 30
2.0
 70
    64
  0
VERTEX
  5
B91
  8
0
 10
66.9
 20
69.9
 30
2.0
 70
    64
  0
VERTEX
  5
B92
  8
0
 10
66.9
 20
69.9
 30
2.0
 70
    64
  0
VERTEX
  5
B93
  8
0
 10
66.9
 20
66.9
 30
2.0
 70
    64
  0
SEQEND
  5
B94
  8
0
  0
POLYLINE
  5
B95
  8
0
 66
     1
 10
0.0
 20
0.0
 30
0.0
 70
    16
 71
     6
 72
     3
  0
VERTEX
  5
B96
  8
0
 10
62.9
 20
119.1
 30
2.0
 70
    64
  0
VERTEX
  5
B97
  8
0
 10
62.9
 20
119.1
 30
0.0
 70
    64
  0
VERTEX
  5
B98
  8
0
 10
62.9
 20
119.1
 30
0.0
 70
    64
  0
VERTEX
  5
B99
  8
0
 10
59.9
 20
119.1
 30
2.0
 70
    64
  0
VERTEX
  5
B9A
  8
0
 10
59.9
 20
119.1
 30
0.0
 70
    64
  0
VERTEX
  5
B9B
  8
0
 10
59.9
 20
119.1
 30
0.0
 70
    64
  0
VERTEX
  5
B9C
  8
0
 10
59.9
 20
116.1
 30
2.0
 70
    64
  0
VERTEX
  5
B9D
  8
0
 10
59.9
 20
116.1
 30
0.0
 70
    64
  0
VERTEX
  5
B9E
  8
0
 10
59.9
 20
119.1
 30
0.0
 70
    64
  0
VERTEX
  5
B9F
  8
0
 10
62.9
 20
116.1
 30
2.0
 70
    64
  0
VERTEX
  5
BA0
  8
0
 10
62.9
 20
116.1
 30
0.0
 70
    64
  0
VERTEX
  5
BA1
  8
0
 10
62.9
 20
119.1
 30
0.0
 70
    64
  0
VERTEX
  5
BA2
  8
0
 10
62.9
 20
116.1
 30
2.0
 70
    64
  0
VERTEX
  5
BA3
  8
0
 10
62.9
 20
116.1
 30
2.0
 70
    64
  0
VERTEX
  5
BA4
  8
0
 10
62.9
 20
119.1
 30
2.0
 70
    64
  0
VERTEX
  5
BA5
  8
0
 10
59.9
 20
116.1
 30
2.0
 70
    64
  0
VERTEX
  5
BA6
  8
0
 10
59.9
 20
116.1
 30
2.0
 70
    64
  0
VERTEX
  5
BA7
  8
0
 10
59.9
 20
119.1
 30
2.0
 70
    64
  0
SEQEND
  5
BA8
  8
0
  0
POLYLINE
  5
BA9
  8
0
 66
     1
 10
0.0
 20
0.0
 30
0.0
 70
    16
 71
     6
 72
     3
  0
VERTEX
  5
BAA
  8
0
 10
69.9
 20
112.1
 30
2.0
 70
    64
  0
VERTEX
  5
BAB
  8
0
 10
69.9
 20
112.1
 30
0.0
 70
    64
  0
VERTEX
  5
BAC
  8
0
 10
69.9
 20
112.1
 30
0.0
 70
    64
  0
VERTEX
  5
BAD
  8
0
 10
66.9
 20
112.1
 30
2.0
 70
    64
  0
VERTEX
  5
BAE
  8
0
 10
66.9
 20
112.1
 30
0.0
 70
    64
  0
VERTEX
  5
BAF
  8
0
 10
66.9
 20
112.1
 30
0.0
 70
    64
  0
VERTEX
  5
BB0
  8
0
 10
66.9
 20
109.1
 30
2.0
 70
    64
  0
VERTEX
  5
BB1
  8
0
 10
66.9
 20
109.1
 30
0.0
 70
    64
  0
VERTEX
  5
BB2
  8
0
 10
66.9
 20
112.1
 30
0.0
 70
    64
  0
VERTEX
  5
BB3
  8
0
 10
69.9
 20
109.1
 30
2.0
 70
    64
  0
VERTEX
  5
BB4
  8
0
 10
69.9
 20
109.1
 30
0.0
 70
    64
  0
VERTEX
  5
BB5
  8
0
 10
69.9
 20
112.1
 30
0.0
 70
    64
  0
VERTEX
  5
BB6
  8
0
 10
69.9
 20
109.1
 30
2.0
 70
    64
  0
VERTEX
  5
BB7
  8
0
 10
69.9
 20
109.1
 30
2.0
 70
    64
  0
VERTEX
  5
BB8
  8
0
 10
69.9
 20
112.1
 30
2.0
 70
    64
  0
VERTEX
  5
BB9
  8
0
 10
66.9
 20
109.1
 30
2.0
 70
    64
  0
VERTEX
  5
BBA
  8
0
 10
66.9
 20
109.1
 30
2.0
 70
    64
  0
VERTEX
  5
BBB
  8
0
 10
66.9
 20
112.1
 30
2.0
 70
    64
  0
SEQEND
  5
BBC
  8
0
  0
POLYLINE
  5
BBD
  8
0
 66
     1
 10
0.0
 20
0.0
 30
0.0
 70
    16
 71
     6
 72
     3
  0
VERTEX
  5
BBE
  8
0
 10
130.1
 20
45.9
 30
2.0
 70
    64
  0
VERTEX
  5
BBF
  8
0
 10
130.1
 20
45.9
 30
0.0
 70
    64
  0
VERTEX
  5
BC0
  8
0
 10
130.1
 20
45.9
 30
0.0
 70
    64
  0
VERTEX
  5
BC1
  8
0
 10
133.1
 20
45.9
 30
2.0
 70
    64
  0
VERTEX
  5
BC2
  8
0
 10
133.1
 20
45.9
 30
0.0
 70
    64
  0
VERTEX
  5
BC3
  8
0
 10
133.1
 20
45.9
 30
0.0
 70
    64
  0
VERTEX
  5
BC4
  8
0
 10
133.1
 20
48.9
 30
2.0
 70
    64
  0
VERTEX
  5
BC5
  8
0
 10
133.1
 20
48.9
 30
0.0
 70
    64
  0
VERTEX
  5
BC6
  8
0
 10
133.1
 20
45.9
 30
0.0
 70
    64
  0
VERTEX
  5
BC7
  8
0
 10
130.1
 20
48.9
 30
2.0
 70
    64
  0
VERTEX
  5
BC8
  8
0
 10
130.1
 20
48.9
 30
0.0
 70
    64
  0
VERTEX
  5
BC9
  8
0
 10
130.1
 20
45.9
 30
0.0
 70
    64
  0
VERTEX
  5
BCA
  8
0
 10
130.1
 20
48.9
 30
2.0
 70
    64
  0
VERTEX
  5
BCB
  8
0
 10
130.1
 20
48.9
 30
2.0
 70
    64
  0
VERTEX
  5
BCC
  8
0
 10
130.1
 20
45.9
 30
2.0
 70
    64
  0
VERTEX
  5
BCD
  8
0
 10
133.1
 20
48.9
 30
2.0
 70
    64
  0
VERTEX
  5
BCE
  8
0
 10
133.1
 20
48.9
 30
2.0
 70
    64
  0
VERTEX
  5
BCF
  8
0
 10
133.1
 20
45.9
 30
2.0
 70
    64
  0
SEQEND
  5
BD0
  8
0
  0
POLYLINE
  5
BD1
  8
0
 66
     1
 10
0.0
 20
0.0
 30
0.0
 70
    16
 71
     6
 72
     3
  0
VERTEX
  5
BD2
  8
0
 10
102.1
 20
73.9
 30
2.0
 70
    64
  0
VERTEX
  5
BD3
  8
0
 10
102.1
 20
73.9
 30
0.0
 70
    64
  0
VERTEX
  5
BD4
  8
0
 10
102.1
 20
73.9
 30
0.0
 70
    64
  0
VERTEX
  5
BD5
  8
0
 10
105.1
 20
73.9
 30
2.0
 70
    64
  0
VERTEX
  5
BD6
  8
0
 10
105.1
 20
73.9
 30
0.0
 70
    64
  0
VERTEX
  5
BD7
  8
0
 10
105.1
 20
73.9
 30
0.0
 70
    64
  0
VERTEX
  5
BD8
  8
0
 10
105.1
 20
76.9
 30
2.0
 70
    64
  0
VERTEX
  5
BD9
  8
0
 10
105.1
 20
76.9
 30
0.0
 70
    64
  0
VERTEX
  5
BDA
  8
0
 10
105.1
 20
73.9
 30
0.0
 70
    64
  0
VERTEX
  5
BDB
  8
0
 10
102.1
 20
76.9
 30
2.0
 70
    64
  0
VERTEX
  5
BDC
  8
0
 10
102.1
 20
76.9
 30
0.0
 70
    64
  0
VERTEX
  5
BDD
  8
0
 10
102.1
 20
73.9
 30
0.0
 70
    64
  0
VERTEX
  5
BDE
  8
0
 10
102.1
 20
76.9
 30
2.0
 70
    64
  0
VERTEX
  5
BDF
  8
0
 10
102.1
 20
76.9
 30
2.0
 70
    64
  0
VERTEX
  5
BE0
  8
0
 10
102.1
 20
73.9
 30
2.0
 70
    64
  0
VERTEX
  5
BE1
  8
0
 10
105.1
 20
76.9
 30
2.0
 70
    64
  0
VERTEX
  5
BE2
  8
0
 10
105.1
 20
76.9
 30
2.0
 70
    64
  0
VERTEX
  5
BE3
  8
0
 10
105.1
 20
73.9
 30
2.0
 70
    64
  0
SEQEND
  5
BE4
  8
0
  0
POLYLINE
  5
BE5
  8
0
 66
     1
 10
0.0
 20
0.0
 30
0.0
 70
    16
 71
     6
 72
     3
  0
VERTEX
  5
BE6
  8
0
 10
76.9
 20
73.9
 30
2.0
 70
    64
  0
VERTEX
  5
BE7
  8
0
 10
76.9
 20
73.9
 30
0.0
 70
    64
  0
VERTEX
  5
BE8
  8
0
 10
76.9
 20
73.9
 30
0.0
 70
    64
  0
VERTEX
  5
BE9
  8
0
 10
73.9
 20
73.9
 30
2.0
 70
    64
  0
VERTEX
  5
BEA
  8
0
 10
73.9
 20
73.9
 30
0.0
 70
    64
  0
VERTEX
  5
BEB
  8
0
 10
73.9
 20
73.9
 30
0.0
 70
    64
  0
VERTEX
  5
BEC
  8
0
 10
73.9
 20
76.9
 30
2.0
 70
    64
  0
VERTEX
  5
BED
  8
0
 10
73.9
 20
76.9
 30
0.0
 70
    64
  0
VERTEX
  5
BEE
  8
0
 10
73.9
 20
73.9
 30
0.0
 70
    64
  0
VERTEX
  5
BEF
  8
0
 10
76.9
 20
76.9
 30
2.0
 70
    64
  0
VERTEX
  5
BF0
  8
0
 10
76.9
 20
76.9
 30
0.0
 70
    64
  0
VERTEX
  5
BF1
  8
0
 10
76.9
 20
73.9
 30
0.0
 70
    64
  0
VERTEX
  5
BF2
  8
0
 10
76.9
 20
76.9
 30
2.0
 70
    64
  0
VERTEX
  5
BF3
  8
0
 10
76.9
 20
76.9
 30
2.0
 70
    64
  0
VERTEX
  5
BF4
  8
0
 10
76.9
 20
73.9
 30
2.0
 70
    64
  0
VERTEX
  5
BF5
  8
0
 10
73.9
 20
76.9
 30
2.0
 70
    64
  0
VERTEX
  5
BF6
  8
0
 10
73.9
 20
76.9
 30
2.0
 70
    64
  0
VERTEX
  5
BF7
  8
0
 10
73.9
 20
73.9
 30
2.0
 70
    64
  0
SEQEND
  5
BF8
  8
0
  0
POLYLINE
  5
BF9
  8
0
 66
     1
 10
0.0
 20
0.0
 30
0.0
 70
    16
 71
     6
 72
     3
  0
VERTEX
  5
BFA
  8
0
 10
109.1
 20
66.9
 30
2.0
 70
    64
  0
VERTEX
  5
BFB
  8
0
 10
109.1
 20
66.9
 30
0.0
 70
    64
  0
VERTEX
  5
BFC
  8
0
 10
109.1
 20
66.9
 30
0.0
 70
    64
  0
VERTEX
  5
BFD
  8
0
 10
112.1
 20
66.9
 30
2.0
 70
    64
  0
VERTEX
  5
BFE
  8
0
 10
112.1
 20
66.9
 30
0.0
 70
    64
  0
VERTEX
  5
BFF
  8
0
 10
112.1
 20
66.9
 30
0.0
 70
    64
  0
VERTEX
  5
C00
  8
0
 10
112.1
 20
69.9
 30
2.0
 70
    64
  0
VERTEX
  5
C01
  8
0
 10
112.1
 20
69.9
 30
0.0
 70
    64
  0
VERTEX
  5
C02
  8
0
 10
112.1
 20
66.9
 30
0.0
 70
    64
  0
VERTEX
  5
C03
  8
0
 10
109.1
 20
69.9
 30
2.0
 70
    64
  0
VERTEX
  5
C04
  8
0
 10
109.1
 20
69.9
 30
0.0
 70
    64
  0
VERTEX
  5
C05
  8
0
 10
109.1
 20
66.9
 30
0.0
 70
    64
  0
VERTEX
  5
C06
  8
0
 10
109.1
 20
69.9
 30
2.0
 70
    64
  0
VERTEX
  5
C07
  8
0
 10
109.1
 20
69.9
 30
2.0
 70
    64
  0
VERTEX
  5
C08
  8
0
 10
109.1
 20
66.9
 30
2.0
 70
    64
  0
VERTEX
  5
C09
  8
0
 10
112.1
 20
69.9
 30
2.0
 70
    64
  0
VERTEX
  5
C0A
  8
0
 10
112.1
 20
69.9
 30
2.0
 70
    64
  0
VERTEX
  5
C0B
  8
0
 10
112.1
 20
66.9
 30
2.0
 70
    64
  0
SEQEND
  5
C0C
  8
0
  0
POLYLINE
  5
C0D
  8
0
 66
     1
 10
0.0
 20
0.0
 30
0.0
 70
    16
 71
     6
 72
     3
  0
VERTEX
  5
C0E
  8
0
 10
116.1
 20
59.9
 30
2.0
 70
    64
  0
VERTEX
  5
C0F
  8
0
 10
116.1
 20
59.9
 30
0.0
 70
    64
  0
VERTEX
  5
C10
  8
0
 10
116.1
 20
59.9
 30
0.0
 70
    64
  0
VERTEX
  5
C11
  8
0
 10
119.1
 20
59.9
 30
2.0
 70
    64
  0
VERTEX
  5
C12
  8
0
 10
119.1
 20
59.9
 30
0.0
 70
    64
  0
VERTEX
  5
C13
  8
0
 10
119.1
 20
59.9
 30
0.0
 70
    64
  0
VERTEX
  5
C14
  8
0
 10
119.1
 20
62.9
 30
2.0
 70
    64
  0
VERTEX
  5
C15
  8
0
 10
119.1
 20
62.9
 30
0.0
 70
    64
  0
VERTEX
  5
C16
  8
0
 10
119.1
 20
59.9
 30
0.0
 70
    64
  0
VERTEX
  5
C17
  8
0
 10
116.1
 20
62.9
 30
2.0
 70
    64
  0
VERTEX
  5
C18
  8
0
 10
116.1
 20
62.9
 30
0.0
 70
    64
  0
VERTEX
  5
C19
  8
0
 10
116.1
 20
59.9
 30
0.0
 70
    64
  0
VERTEX
  5
C1A
  8
0
 10
116.1
 20
62.9
 30
2.0
 70
    64
  0
VERTEX
  5
C1B
  8
0
 10
116.1
 20
62.9
 30
2.0
 70
    64
  0
VERTEX
  5
C1C
  8
0
 10
116.1
 20
59.9
 30
2.0
 70
    64
  0
VERTEX
  5
C1D
  8
0
 10
119.1
 20
62.9
 30
2.0
 70
    64
  0
VERTEX
  5
C1E
  8
0
 10
119.1
 20
62.9
 30
2.0
 70
    64
  0
VERTEX
  5
C1F
  8
0
 10
119.1
 20
59.9
 30
2.0
 70
    64
  0
SEQEND
  5
C20
  8
0
  0
POLYLINE
  5
C21
  8
0
 66
     1
 10
0.0
 20
0.0
 30
0.0
 70
    16
 71
     6
 72
     3
  0
VERTEX
  5
C22
  8
0
 10
123.1
 20
52.9
 30
2.0
 70
    64
  0
VERTEX
  5
C23
  8
0
 10
123.1
 20
52.9
 30
0.0
 70
    64
  0
VERTEX
  5
C24
  8
0
 10
123.1
 20
52.9
 30
0.0
 70
    64
  0
VERTEX
  5
C25
  8
0
 10
126.1
 20
52.9
 30
2.0
 70
    64
  0
VERTEX
  5
C26
  8
0
 10
126.1
 20
52.9
 30
0.0
 70
    64
  0
VERTEX
  5
C27
  8
0
 10
126.1
 20
52.9
 30
0.0
 70
    64
  0
VERTEX
  5
C28
  8
0
 10
126.1
 20
55.9
 30
2.0
 70
    64
  0
VERTEX
  5
C29
  8
0
 10
126.1
 20
55.9
 30
0.0
 70
    64
  0
VERTEX
  5
C2A
  8
0
 10
126.1
 20
52.9
 30
0.0
 70
    64
  0
VERTEX
  5
C2B
  8
0
 10
123.1
 20
55.9
 30
2.0
 70
    64
  0
VERTEX
  5
C2C
  8
0
 10
123.1
 20
55.9
 30
0.0
 70
    64
  0
VERTEX
  5
C2D
  8
0
 10
123.1
 20
52.9
 30
0.0
 70
    64
  0
VERTEX
  5
C2E
  8
0
 10
123.1
 20
55.9
 30
2.0
 70
    64
  0
VERTEX
  5
C2F
  8
0
 10
123.1
 20
55.9
 30
2.0
 70
    64
  0
VERTEX
  5
C30
  8
0
 10
123.1
 20
52.9
 30
2.0
 70
    64
  0
VERTEX
  5
C31
  8
0
 10
126.1
 20
55.9
 30
2.0
 70
    64
  0
VERTEX
  5
C32
  8
0
 10
126.1
 20
55.9
 30
2.0
 70
    64
  0
VERTEX
  5
C33
  8
0
 10
126.1
 20
52.9
 30
2.0
 70
    64
  0
SEQEND
  5
C34
  8
0
  0
POLYLINE
  5
C85
  8
0
 66
     1
 10
0.0
 20
0.0
 30
0.0
 70
    16
 71
     6
 72
     3
  0
VERTEX
  5
C86
  8
0
 10
76.9
 20
105.1
 30
2.0
 70
    64
  0
VERTEX
  5
C87
  8
0
 10
76.9
 20
105.1
 30
0.0
 70
    64
  0
VERTEX
  5
C88
  8
0
 10
76.9
 20
105.1
 30
0.0
 70
    64
  0
VERTEX
  5
C89
  8
0
 10
73.9
 20
105.1
 30
2.0
 70
    64
  0
VERTEX
  5
C8A
  8
0
 10
73.9
 20
105.1
 30
0.0
 70
    64
  0
VERTEX
  5
C8B
  8
0
 10
73.9
 20
105.1
 30
0.0
 70
    64
  0
VERTEX
  5
C8C
  8
0
 10
73.9
 20
102.1
 30
2.0
 70
    64
  0
VERTEX
  5
C8D
  8
0
 10
73.9
 20
102.1
 30
0.0
 70
    64
  0
VERTEX
  5
C8E
  8
0
 10
73.9
 20
105.1
 30
0.0
 70
    64
  0
VERTEX
  5
C8F
  8
0
 10
76.9
 20
102.1
 30
2.0
 70
    64
  0
VERTEX
  5
C90
  8
0
 10
76.9
 20
102.1
 30
0.0
 70
    64
  0
VERTEX
  5
C91
  8
0
 10
76.9
 20
105.1
 30
0.0
 70
    64
  0
VERTEX
  5
C92
  8
0
 10
76.9
 20
102.1
 30
2.0
 70
    64
  0
VERTEX
  5
C93
  8
0
 10
76.9
 20
102.1
 30
2.0
 70
    64
  0
VERTEX
  5
C94
  8
0
 10
76.9
 20
105.1
 30
2.0
 70
    64
  0
VERTEX
  5
C95
  8
0
 10
73.9
 20
102.1
 30
2.0
 70
    64
  0
VERTEX
  5
C96
  8
0
 10
73.9
 20
102.1
 30
2.0
 70
    64
  0
VERTEX
  5
C97
  8
0
 10
73.9
 20
105.1
 30
2.0
 70
    64
  0
SEQEND
  5
C98
  8
0
  0
POLYLINE
  5
C99
  8
0
 66
     1
 10
0.0
 20
0.0
 30
0.0
 70
    16
 71
     6
 72
     3
  0
VERTEX
  5
C9A
  8
0
 10
102.1
 20
105.1
 30
2.0
 70
    64
  0
VERTEX
  5
C9B
  8
0
 10
102.1
 20
105.1
 30
0.0
 70
    64
  0
VERTEX
  5
C9C
  8
0
 10
102.1
 20
105.1
 30
0.0
 70
    64
  0
VERTEX
  5
C9D
  8
0
 10
105.1
 20
105.1
 30
2.0
 70
    64
  0
VERTEX
  5
C9E
  8
0
 10
105.1
 20
105.1
 30
0.0
 70
    64
  0
VERTEX
  5
C9F
  8
0
 10
105.1
 20
105.1
 30
0.0
 70
    64
  0
VERTEX
  5
CA0
  8
0
 10
105.1
 20
102.1
 30
2.0
 70
    64
  0
VERTEX
  5
CA1
  8
0
 10
105.1
 20
102.1
 30
0.0
 70
    64
  0
VERTEX
  5
CA2
  8
0
 10
105.1
 20
105.1
 30
0.0
 70
    64
  0
VERTEX
  5
CA3
  8
0
 10
102.1
 20
102.1
 30
2.0
 70
    64
  0
VERTEX
  5
CA4
  8
0
 10
102.1
 20
102.1
 30
0.0
 70
    64
  0
VERTEX
  5
CA5
  8
0
 10
102.1
 20
105.1
 30
0.0
 70
    64
  0
VERTEX
  5
CA6
  8
0
 10
102.1
 20
102.1
 30
2.0
 70
    64
  0
VERTEX
  5
CA7
  8
0
 10
102.1
 20
102.1
 30
2.0
 70
    64
  0
VERTEX
  5
CA8
  8
0
 10
102.1
 20
105.1
 30
2.0
 70
    64
  0
VERTEX
  5
CA9
  8
0
 10
105.1
 20
102.1
 30
2.0
 70
    64
  0
VERTEX
  5
CAA
  8
0
 10
105.1
 20
102.1
 30
2.0
 70
    64
  0
VERTEX
  5
CAB
  8
0
 10
105.1
 20
105.1
 30
2.0
 70
    64
  0
SEQEND
  5
CAC
  8
0
  0
POLYLINE
  5
CAD
  8
0
 66
     1
 10
0.0
 20
0.0
 30
0.0
 70
    16
 71
     6
 72
     3
  0
VERTEX
  5
CAE
  8
0
 10
109.1
 20
112.1
 30
2.0
 70
    64
  0
VERTEX
  5
CAF
  8
0
 10
109.1
 20
112.1
 30
0.0
 70
    64
  0
VERTEX
  5
CB0
  8
0
 10
109.1
 20
112.1
 30
0.0
 70
    64
  0
VERTEX
  5
CB1
  8
0
 10
112.1
 20
112.1
 30
2.0
 70
    64
  0
VERTEX
  5
CB2
  8
0
 10
112.1
 20
112.1
 30
0.0
 70
    64
  0
VERTEX
  5
CB3
  8
0
 10
112.1
 20
112.1
 30
0.0
 70
    64
  0
VERTEX
  5
CB4
  8
0
 10
112.1
 20
109.1
 30
2.0
 70
    64
  0
VERTEX
  5
CB5
  8
0
 10
112.1
 20
109.1
 30
0.0
 70
    64
  0
VERTEX
  5
CB6
  8
0
 10
112.1
 20
112.1
 30
0.0
 70
    64
  0
VERTEX
  5
CB7
  8
0
 10
109.1
 20
109.1
 30
2.0
 70
    64
  0
VERTEX
  5
CB8
  8
0
 10
109.1
 20
109.1
 30
0.0
 70
    64
  0
VERTEX
  5
CB9
  8
0
 10
109.1
 20
112.1
 30
0.0
 70
    64
  0
VERTEX
  5
CBA
  8
0
 10
109.1
 20
109.1
 30
2.0
 70
    64
  0
VERTEX
  5
CBB
  8
0
 10
109.1
 20
109.1
 30
2.0
 70
    64
  0
VERTEX
  5
CBC
  8
0
 10
109.1
 20
112.1
 30
2.0
 70
    64
  0
VERTEX
  5
CBD
  8
0
 10
112.1
 20
109.1
 30
2.0
 70
    64
  0
VERTEX
  5
CBE
  8
0
 10
112.1
 20
109.1
 30
2.0
 70
    64
  0
VERTEX
  5
CBF
  8
0
 10
112.1
 20
112.1
 30
2.0
 70
    64
  0
SEQEND
  5
CC0
  8
0
  0
POLYLINE
  5
CC1
  8
0
 66
     1
 10
0.0
 20
0.0
 30
0.0
 70
    16
 71
     6
 72
     3
  0
VERTEX
  5
CC2
  8
0
 10
116.1
 20
119.1
 30
2.0
 70
    64
  0
VERTEX
  5
CC3
  8
0
 10
116.1
 20
119.1
 30
0.0
 70
    64
  0
VERTEX
  5
CC4
  8
0
 10
116.1
 20
119.1
 30
0.0
 70
    64
  0
VERTEX
  5
CC5
  8
0
 10
119.1
 20
119.1
 30
2.0
 70
    64
  0
VERTEX
  5
CC6
  8
0
 10
119.1
 20
119.1
 30
0.0
 70
    64
  0
VERTEX
  5
CC7
  8
0
 10
119.1
 20
119.1
 30
0.0
 70
    64
  0
VERTEX
  5
CC8
  8
0
 10
119.1
 20
116.1
 30
2.0
 70
    64
  0
VERTEX
  5
CC9
  8
0
 10
119.1
 20
116.1
 30
0.0
 70
    64
  0
VERTEX
  5
CCA
  8
0
 10
119.1
 20
119.1
 30
0.0
 70
    64
  0
VERTEX
  5
CCB
  8
0
 10
116.1
 20
116.1
 30
2.0
 70
    64
  0
VERTEX
  5
CCC
  8
0
 10
116.1
 20
116.1
 30
0.0
 70
    64
  0
VERTEX
  5
CCD
  8
0
 10
116.1
 20
119.1
 30
0.0
 70
    64
  0
VERTEX
  5
CCE
  8
0
 10
116.1
 20
116.1
 30
2.0
 70
    64
  0
VERTEX
  5
CCF
  8
0
 10
116.1
 20
116.1
 30
2.0
 70
    64
  0
VERTEX
  5
CD0
  8
0
 10
116.1
 20
119.1
 30
2.0
 70
    64
  0
VERTEX
  5
CD1
  8
0
 10
119.1
 20
116.1
 30
2.0
 70
    64
  0
VERTEX
  5
CD2
  8
0
 10
119.1
 20
116.1
 30
2.0
 70
    64
  0
VERTEX
  5
CD3
  8
0
 10
119.1
 20
119.1
 30
2.0
 70
    64
  0
SEQEND
  5
CD4
  8
0
  0
POLYLINE
  5
CD5
  8
0
 66
     1
 10
0.0
 20
0.0
 30
0.0
 70
    16
 71
     6
 72
     3
  0
VERTEX
  5
CD6
  8
0
 10
144.1
 20
31.9
 30
2.0
 70
    64
  0
VERTEX
  5
CD7
  8
0
 10
144.1
 20
31.9
 30
0.0
 70
    64
  0
VERTEX
  5
CD8
  8
0
 10
144.1
 20
31.9
 30
0.0
 70
    64
  0
VERTEX
  5
CD9
  8
0
 10
147.1
 20
31.9
 30
2.0
 70
    64
  0
VERTEX
  5
CDA
  8
0
 10
147.1
 20
31.9
 30
0.0
 70
    64
  0
VERTEX
  5
CDB
  8
0
 10
147.1
 20
31.9
 30
0.0
 70
    64
  0
VERTEX
  5
CDC
  8
0
 10
147.1
 20
34.9
 30
2.0
 70
    64
  0
VERTEX
  5
CDD
  8
0
 10
147.1
 20
34.9
 30
0.0
 70
    64
  0
VERTEX
  5
CDE
  8
0
 10
147.1
 20
31.9
 30
0.0
 70
    64
  0
VERTEX
  5
CDF
  8
0
 10
144.1
 20
34.9
 30
2.0
 70
    64
  0
VERTEX
  5
CE0
  8
0
 10
144.1
 20
34.9
 30
0.0
 70
    64
  0
VERTEX
  5
CE1
  8
0
 10
144.1
 20
31.9
 30
0.0
 70
    64
  0
VERTEX
  5
CE2
  8
0
 10
144.1
 20
34.9
 30
2.0
 70
    64
  0
VERTEX
  5
CE3
  8
0
 10
144.1
 20
34.9
 30
2.0
 70
    64
  0
VERTEX
  5
CE4
  8
0
 10
144.1
 20
31.9
 30
2.0
 70
    64
  0
VERTEX
  5
CE5
  8
0
 10
147.1
 20
34.9
 30
2.0
 70
    64
  0
VERTEX
  5
CE6
  8
0
 10
147.1
 20
34.9
 30
2.0
 70
    64
  0
VERTEX
  5
CE7
  8
0
 10
147.1
 20
31.9
 30
2.0
 70
    64
  0
SEQEND
  5
CE8
  8
0
  0
POLYLINE
  5
CE9
  8
0
 66
     1
 10
0.0
 20
0.0
 30
0.0
 70
    16
 71
     6
 72
     3
  0
VERTEX
  5
CEA
  8
0
 10
137.1
 20
38.9
 30
2.0
 70
    64
  0
VERTEX
  5
CEB
  8
0
 10
137.1
 20
38.9
 30
0.0
 70
    64
  0
VERTEX
  5
CEC
  8
0
 10
137.1
 20
38.9
 30
0.0
 70
    64
  0
VERTEX
  5
CED
  8
0
 10
140.1
 20
38.9
 30
2.0
 70
    64
  0
VERTEX
  5
CEE
  8
0
 10
140.1
 20
38.9
 30
0.0
 70
    64
  0
VERTEX
  5
CEF
  8
0
 10
140.1
 20
38.9
 30
0.0
 70
    64
  0
VERTEX
  5
CF0
  8
0
 10
140.1
 20
41.9
 30
2.0
 70
    64
  0
VERTEX
  5
CF1
  8
0
 10
140.1
 20
41.9
 30
0.0
 70
    64
  0
VERTEX
  5
CF2
  8
0
 10
140.1
 20
38.9
 30
0.0
 70
    64
  0
VERTEX
  5
CF3
  8
0
 10
137.1
 20
41.9
 30
2.0
 70
    64
  0
VERTEX
  5
CF4
  8
0
 10
137.1
 20
41.9
 30
0.0
 70
    64
  0
VERTEX
  5
CF5
  8
0
 10
137.1
 20
38.9
 30
0.0
 70
    64
  0
VERTEX
  5
CF6
  8
0
 10
137.1
 20
41.9
 30
2.0
 70
    64
  0
VERTEX
  5
CF7
  8
0
 10
137.1
 20
41.9
 30
2.0
 70
    64
  0
VERTEX
  5
CF8
  8
0
 10
137.1
 20
38.9
 30
2.0
 70
    64
  0
VERTEX
  5
CF9
  8
0
 10
140.1
 20
41.9
 30
2.0
 70
    64
  0
VERTEX
  5
CFA
  8
0
 10
140.1
 20
41.9
 30
2.0
 70
    64
  0
VERTEX
  5
CFB
  8
0
 10
140.1
 20
38.9
 30
2.0
 70
    64
  0
SEQEND
  5
CFC
  8
0
  0
POLYLINE
  5
CFD
  8
0
 66
     1
 10
0.0
 20
0.0
 30
0.0
 70
    16
 71
     6
 72
     3
  0
VERTEX
  5
CFE
  8
0
 10
41.9
 20
140.1
 30
2.0
 70
    64
  0
VERTEX
  5
CFF
  8
0
 10
41.9
 20
140.1
 30
0.0
 70
    64
  0
VERTEX
  5
D00
  8
0
 10
41.9
 20
140.1
 30
0.0
 70
    64
  0
VERTEX
  5
D01
  8
0
 10
38.9
 20
140.1
 30
2.0
 70
    64
  0
VERTEX
  5
D02
  8
0
 10
38.9
 20
140.1
 30
0.0
 70
    64
  0
VERTEX
  5
D03
  8
0
 10
38.9
 20
140.1
 30
0.0
 70
    64
  0
VERTEX
  5
D04
  8
0
 10
38.9
 20
137.1
 30
2.0
 70
    64
  0
VERTEX
  5
D05
  8
0
 10
38.9
 20
137.1
 30
0.0
 70
    64
  0
VERTEX
  5
D06
  8
0
 10
38.9
 20
140.1
 30
0.0
 70
    64
  0
VERTEX
  5
D07
  8
0
 10
41.9
 20
137.1
 30
2.0
 70
    64
  0
VERTEX
  5
D08
  8
0
 10
41.9
 20
137.1
 30
0.0
 70
    64
  0
VERTEX
  5
D09
  8
0
 10
41.9
 20
140.1
 30
0.0
 70
    64
  0
VERTEX
  5
D0A
  8
0
 10
41.9
 20
137.1
 30
2.0
 70
    64
  0
VERTEX
  5
D0B
  8
0
 10
41.9
 20
137.1
 30
2.0
 70
    64
  0
VERTEX
  5
D0C
  8
0
 10
41.9
 20
140.1
 30
2.0
 70
    64
  0
VERTEX
  5
D0D
  8
0
 10
38.9
 20
137.1
 30
2.0
 70
    64
  0
VERTEX
  5
D0E
  8
0
 10
38.9
 20
137.1
 30
2.0
 70
    64
  0
VERTEX
  5
D0F
  8
0
 10
38.9
 20
140.1
 30
2.0
 70
    64
  0
SEQEND
  5
D10
  8
0
  0
POLYLINE
  5
D11
  8
0
 66
     1
 10
0.0
 20
0.0
 30
0.0
 70
    16
 71
     6
 72
     3
  0
VERTEX
  5
D12
  8
0
 10
34.9
 20
147.1
 30
2.0
 70
    64
  0
VERTEX
  5
D13
  8
0
 10
34.9
 20
147.1
 30
0.0
 70
    64
  0
VERTEX
  5
D14
  8
0
 10
34.9
 20
147.1
 30
0.0
 70
    64
  0
VERTEX
  5
D15
  8
0
 10
31.9
 20
147.1
 30
2.0
 70
    64
  0
VERTEX
  5
D16
  8
0
 10
31.9
 20
147.1
 30
0.0
 70
    64
  0
VERTEX
  5
D17
  8
0
 10
31.9
 20
147.1
 30
0.0
 70
    64
  0
VERTEX
  5
D18
  8
0
 10
31.9
 20
144.1
 30
2.0
 70
    64
  0
VERTEX
  5
D19
  8
0
 10
31.9
 20
144.1
 30
0.0
 70
    64
  0
VERTEX
  5
D1A
  8
0
 10
31.9
 20
147.1
 30
0.0
 70
    64
  0
VERTEX
  5
D1B
  8
0
 10
34.9
 20
144.1
 30
2.0
 70
    64
  0
VERTEX
  5
D1C
  8
0
 10
34.9
 20
144.1
 30
0.0
 70
    64
  0
VERTEX
  5
D1D
  8
0
 10
34.9
 20
147.1
 30
0.0
 70
    64
  0
VERTEX
  5
D1E
  8
0
 10
34.9
 20
144.1
 30
2.0
 70
    64
  0
VERTEX
  5
D1F
  8
0
 10
34.9
 20
144.1
 30
2.0
 70
    64
  0
VERTEX
  5
D20
  8
0
 10
34.9
 20
147.1
 30
2.0
 70
    64
  0
VERTEX
  5
D21
  8
0
 10
31.9
 20
144.1
 30
2.0
 70
    64
  0
VERTEX
  5
D22
  8
0
 10
31.9
 20
144.1
 30
2.0
 70
    64
  0
VERTEX
  5
D23
  8
0
 10
31.9
 20
147.1
 30
2.0
 70
    64
  0
SEQEND
  5
D24
  8
0
  0
POLYLINE
  5
D25
  8
0
 66
     1
 10
0.0
 20
0.0
 30
0.0
 70
    16
 71
     6
 72
     3
  0
VERTEX
  5
D26
  8
0
 10
48.9
 20
133.1
 30
2.0
 70
    64
  0
VERTEX
  5
D27
  8
0
 10
48.9
 20
133.1
 30
0.0
 70
    64
  0
VERTEX
  5
D28
  8
0
 10
48.9
 20
133.1
 30
0.0
 70
    64
  0
VERTEX
  5
D29
  8
0
 10
45.9
 20
133.1
 30
2.0
 70
    64
  0
VERTEX
  5
D2A
  8
0
 10
45.9
 20
133.1
 30
0.0
 70
    64
  0
VERTEX
  5
D2B
  8
0
 10
45.9
 20
133.1
 30
0.0
 70
    64
  0
VERTEX
  5
D2C
  8
0
 10
45.9
 20
130.1
 30
2.0
 70
    64
  0
VERTEX
  5
D2D
  8
0
 10
45.9
 20
130.1
 30
0.0
 70
    64
  0
VERTEX
  5
D2E
  8
0
 10
45.9
 20
133.1
 30
0.0
 70
    64
  0
VERTEX
  5
D2F
  8
0
 10
48.9
 20
130.1
 30
2.0
 70
    64
  0
VERTEX
  5
D30
  8
0
 10
48.9
 20
130.1
 30
0.0
 70
    64
  0
VERTEX
  5
D31
  8
0
 10
48.9
 20
133.1
 30
0.0
 70
    64
  0
VERTEX
  5
D32
  8
0
 10
48.9
 20
130.1
 30
2.0
 70
    64
  0
VERTEX
  5
D33
  8
0
 10
48.9
 20
130.1
 30
2.0
 70
    64
  0
VERTEX
  5
D34
  8
0
 10
48.9
 20
133.1
 30
2.0
 70
    64
  0
VERTEX
  5
D35
  8
0
 10
45.9
 20
130.1
 30
2.0
 70
    64
  0
VERTEX
  5
D36
  8
0
 10
45.9
 20
130.1
 30
2.0
 70
    64
  0
VERTEX
  5
D37
  8
0
 10
45.9
 20
133.1
 30
2.0
 70
    64
  0
SEQEND
  5
D38
  8
0
  0
POLYLINE
  5
D39
  8
0
 66
     1
 10
0.0
 20
0.0
 30
0.0
 70
    16
 71
     6
 72
     3
  0
VERTEX
  5
D3A
  8
0
 10
55.9
 20
126.1
 30
2.0
 70
    64
  0
VERTEX
  5
D3B
  8
0
 10
55.9
 20
126.1
 30
0.0
 70
    64
  0
VERTEX
  5
D3C
  8
0
 10
55.9
 20
126.1
 30
0.0
 70
    64
  0
VERTEX
  5
D3D
  8
0
 10
52.9
 20
126.1
 30
2.0
 70
    64
  0
VERTEX
  5
D3E
  8
0
 10
52.9
 20
126.1
 30
0.0
 70
    64
  0
VERTEX
  5
D3F
  8
0
 10
52.9
 20
126.1
 30
0.0
 70
    64
  0
VERTEX
  5
D40
  8
0
 10
52.9
 20
123.1
 30
2.0
 70
    64
  0
VERTEX
  5
D41
  8
0
 10
52.9
 20
123.1
 30
0.0
 70
    64
  0
VERTEX
  5
D42
  8
0
 10
52.9
 20
126.1
 30
0.0
 70
    64
  0
VERTEX
  5
D43
  8
0
 10
55.9
 20
123.1
 30
2.0
 70
    64
  0
VERTEX
  5
D44
  8
0
 10
55.9
 20
123.1
 30
0.0
 70
    64
  0
VERTEX
  5
D45
  8
0
 10
55.9
 20
126.1
 30
0.0
 70
    64
  0
VERTEX
  5
D46
  8
0
 10
55.9
 20
123.1
 30
2.0
 70
    64
  0
VERTEX
  5
D47
  8
0
 10
55.9
 20
123.1
 30
2.0
 70
    64
  0
VERTEX
  5
D48
  8
0
 10
55.9
 20
126.1
 30
2.0
 70
    64
  0
VERTEX
  5
D49
  8
0
 10
52.9
 20
123.1
 30
2.0
 70
    64
  0
VERTEX
  5
D4A
  8
0
 10
52.9
 20
123.1
 30
2.0
 70
    64
  0
VERTEX
  5
D4B
  8
0
 10
52.9
 20
126.1
 30
2.0
 70
    64
  0
SEQEND
  5
D4C
  8
0
  0
POLYLINE
  5
D4D
  8
0
 66
     1
 10
0.0
 20
0.0
 30
0.0
 70
    16
 71
     6
 72
     3
  0
VERTEX
  5
D4E
  8
0
 10
130.1
 20
133.1
 30
2.0
 70
    64
  0
VERTEX
  5
D4F
  8
0
 10
130.1
 20
133.1
 30
0.0
 70
    64
  0
VERTEX
  5
D50
  8
0
 10
130.1
 20
133.1
 30
0.0
 70
    64
  0
VERTEX
  5
D51
  8
0
 10
133.1
 20
133.1
 30
2.0
 70
    64
  0
VERTEX
  5
D52
  8
0
 10
133.1
 20
133.1
 30
0.0
 70
    64
  0
VERTEX
  5
D53
  8
0
 10
133.1
 20
133.1
 30
0.0
 70
    64
  0
VERTEX
  5
D54
  8
0
 10
133.1
 20
130.1
 30
2.0
 70
    64
  0
VERTEX
  5
D55
  8
0
 10
133.1
 20
130.1
 30
0.0
 70
    64
  0
VERTEX
  5
D56
  8
0
 10
133.1
 20
133.1
 30
0.0
 70
    64
  0
VERTEX
  5
D57
  8
0
 10
130.1
 20
130.1
 30
2.0
 70
    64
  0
VERTEX
  5
D58
  8
0
 10
130.1
 20
130.1
 30
0.0
 70
    64
  0
VERTEX
  5
D59
  8
0
 10
130.1
 20
133.1
 30
0.0
 70
    64
  0
VERTEX
  5
D5A
  8
0
 10
130.1
 20
130.1
 30
2.0
 70
    64
  0
VERTEX
  5
D5B
  8
0
 10
130.1
 20
130.1
 30
2.0
 70
    64
  0
VERTEX
  5
D5C
  8
0
 10
130.1
 20
133.1
 30
2.0
 70
    64
  0
VERTEX
  5
D5D
  8
0
 10
133.1
 20
130.1
 30
2.0
 70
    64
  0
VERTEX
  5
D5E
  8
0
 10
133.1
 20
130.1
 30
2.0
 70
    64
  0
VERTEX
  5
D5F
  8
0
 10
133.1
 20
133.1
 30
2.0
 70
    64
  0
SEQEND
  5
D60
  8
0
  0
POLYLINE
  5
D61
  8
0
 66
     1
 10
0.0
 20
0.0
 30
0.0
 70
    16
 71
     6
 72
     3
  0
VERTEX
  5
D62
  8
0
 10
123.1
 20
126.1
 30
2.0
 70
    64
  0
VERTEX
  5
D63
  8
0
 10
123.1
 20
126.1
 30
0.0
 70
    64
  0
VERTEX
  5
D64
  8
0
 10
123.1
 20
126.1
 30
0.0
 70
    64
  0
VERTEX
  5
D65
  8
0
 10
126.1
 20
126.1
 30
2.0
 70
    64
  0
VERTEX
  5
D66
  8
0
 10
126.1
 20
126.1
 30
0.0
 70
    64
  0
VERTEX
  5
D67
  8
0
 10
126.1
 20
126.1
 30
0.0
 70
    64
  0
VERTEX
  5
D68
  8
0
 10
126.1
 20
123.1
 30
2.0
 70
    64
  0
VERTEX
  5
D69
  8
0
 10
126.1
 20
123.1
 30
0.0
 70
    64
  0
VERTEX
  5
D6A
  8
0
 10
126.1
 20
126.1
 30
0.0
 70
    64
  0
VERTEX
  5
D6B
  8
0
 10
123.1
 20
123.1
 30
2.0
 70
    64
  0
VERTEX
  5
D6C
  8
0
 10
123.1
 20
123.1
 30
0.0
 70
    64
  0
VERTEX
  5
D6D
  8
0
 10
123.1
 20
126.1
 30
0.0
 70
    64
  0
VERTEX
  5
D6E
  8
0
 10
123.1
 20
123.1
 30
2.0
 70
    64
  0
VERTEX
  5
D6F
  8
0
 10
123.1
 20
123.1
 30
2.0
 70
    64
  0
VERTEX
  5
D70
  8
0
 10
123.1
 20
126.1
 30
2.0
 70
    64
  0
VERTEX
  5
D71
  8
0
 10
126.1
 20
123.1
 30
2.0
 70
    64
  0
VERTEX
  5
D72
  8
0
 10
126.1
 20
123.1
 30
2.0
 70
    64
  0
VERTEX
  5
D73
  8
0
 10
126.1
 20
126.1
 30
2.0
 70
    64
  0
SEQEND
  5
D74
  8
0
  0
POLYLINE
  5
D75
  8
0
 66
     1
 10
0.0
 20
0.0
 30
0.0
 70
    16
 71
     6
 72
     3
  0
VERTEX
  5
D76
  8
0
 10
137.1
 20
140.1
 30
2.0
 70
    64
  0
VERTEX
  5
D77
  8
0
 10
137.1
 20
140.1
 30
0.0
 70
    64
  0
VERTEX
  5
D78
  8
0
 10
137.1
 20
140.1
 30
0.0
 70
    64
  0
VERTEX
  5
D79
  8
0
 10
140.1
 20
140.1
 30
2.0
 70
    64
  0
VERTEX
  5
D7A
  8
0
 10
140.1
 20
140.1
 30
0.0
 70
    64
  0
VERTEX
  5
D7B
  8
0
 10
140.1
 20
140.1
 30
0.0
 70
    64
  0
VERTEX
  5
D7C
  8
0
 10
140.1
 20
137.1
 30
2.0
 70
    64
  0
VERTEX
  5
D7D
  8
0
 10
140.1
 20
137.1
 30
0.0
 70
    64
  0
VERTEX
  5
D7E
  8
0
 10
140.1
 20
140.1
 30
0.0
 70
    64
  0
VERTEX
  5
D7F
  8
0
 10
137.1
 20
137.1
 30
2.0
 70
    64
  0
VERTEX
  5
D80
  8
0
 10
137.1
 20
137.1
 30
0.0
 70
    64
  0
VERTEX
  5
D81
  8
0
 10
137.1
 20
140.1
 30
0.0
 70
    64
  0
VERTEX
  5
D82
  8
0
 10
137.1
 20
137.1
 30
2.0
 70
    64
  0
VERTEX
  5
D83
  8
0
 10
137.1
 20
137.1
 30
2.0
 70
    64
  0
VERTEX
  5
D84
  8
0
 10
137.1
 20
140.1
 30
2.0
 70
    64
  0
VERTEX
  5
D85
  8
0
 10
140.1
 20
137.1
 30
2.0
 70
    64
  0
VERTEX
  5
D86
  8
0
 10
140.1
 20
137.1
 30
2.0
 70
    64
  0
VERTEX
  5
D87
  8
0
 10
140.1
 20
140.1
 30
2.0
 70
    64
  0
SEQEND
  5
D88
  8
0
  0
POLYLINE
  5
D89
  8
0
 66
     1
 10
0.0
 20
0.0
 30
0.0
 70
    16
 71
     6
 72
     3
  0
VERTEX
  5
D8A
  8
0
 10
144.1
 20
147.1
 30
2.0
 70
    64
  0
VERTEX
  5
D8B
  8
0
 10
144.1
 20
147.1
 30
0.0
 70
    64
  0
VERTEX
  5
D8C
  8
0
 10
144.1
 20
147.1
 30
0.0
 70
    64
  0
VERTEX
  5
D8D
  8
0
 10
147.1
 20
147.1
 30
2.0
 70
    64
  0
VERTEX
  5
D8E
  8
0
 10
147.1
 20
147.1
 30
0.0
 70
    64
  0
VERTEX
  5
D8F
  8
0
 10
147.1
 20
147.1
 30
0.0
 70
    64
  0
VERTEX
  5
D90
  8
0
 10
147.1
 20
144.1
 30
2.0
 70
    64
  0
VERTEX
  5
D91
  8
0
 10
147.1
 20
144.1
 30
0.0
 70
    64
  0
VERTEX
  5
D92
  8
0
 10
147.1
 20
147.1
 30
0.0
 70
    64
  0
VERTEX
  5
D93
  8
0
 10
144.1
 20
144.1
 30
2.0
 70
    64
  0
VERTEX
  5
D94
  8
0
 10
144.1
 20
144.1
 30
0.0
 70
    64
  0
VERTEX
  5
D95
  8
0
 10
144.1
 20
147.1
 30
0.0
 70
    64
  0
VERTEX
  5
D96
  8
0
 10
144.1
 20
144.1
 30
2.0
 70
    64
  0
VERTEX
  5
D97
  8
0
 10
144.1
 20
144.1
 30
2.0
 70
    64
  0
VERTEX
  5
D98
  8
0
 10
144.1
 20
147.1
 30
2.0
 70
    64
  0
VERTEX
  5
D99
  8
0
 10
147.1
 20
144.1
 30
2.0
 70
    64
  0
VERTEX
  5
D9A
  8
0
 10
147.1
 20
144.1
 30
2.0
 70
    64
  0
VERTEX
  5
D9B
  8
0
 10
147.1
 20
147.1
 30
2.0
 70
    64
  0
SEQEND
  5
D9C
  8
0
  0
POLYLINE
  5
D9D
  8
0
 66
     1
 10
0.0
 20
0.0
 30
0.0
 70
    16
 71
     6
 72
     3
  0
VERTEX
  5
D9E
  8
0
 10
95.174098
 20
118.872174
 30
2.0
 70
    64
  0
VERTEX
  5
D9F
  8
0
 10
95.174098
 20
118.872174
 30
0.0
 70
    64
  0
VERTEX
  5
DA0
  8
0
 10
95.174098
 20
118.872174
 30
0.0
 70
    64
  0
VERTEX
  5
DA1
  8
0
 10
97.772174
 20
120.372174
 30
2.0
 70
    64
  0
VERTEX
  5
DA2
  8
0
 10
97.772174
 20
120.372174
 30
0.0
 70
    64
  0
VERTEX
  5
DA3
  8
0
 10
97.772174
 20
120.372174
 30
0.0
 70
    64
  0
VERTEX
  5
DA4
  8
0
 10
99.272174
 20
117.774098
 30
2.0
 70
    64
  0
VERTEX
  5
DA5
  8
0
 10
99.272174
 20
117.774098
 30
0.0
 70
    64
  0
VERTEX
  5
DA6
  8
0
 10
97.772174
 20
120.372174
 30
0.0
 70
    64
  0
VERTEX
  5
DA7
  8
0
 10
96.674098
 20
116.274098
 30
2.0
 70
    64
  0
VERTEX
  5
DA8
  8
0
 10
96.674098
 20
116.274098
 30
0.0
 70
    64
  0
VERTEX
  5
DA9
  8
0
 10
95.174098
 20
118.872174
 30
0.0
 70
    64
  0
VERTEX
  5
DAA
  8
0
 10
96.674098
 20
116.274098
 30
2.0
 70
    64
  0
VERTEX
  5
DAB
  8
0
 10
96.674098
 20
116.274098
 30
2.0
 70
    64
  0
VERTEX
  5
DAC
  8
0
 10
95.174098
 20
118.872174
 30
2.0
 70
    64
  0
VERTEX
  5
DAD
  8
0
 10
99.272174
 20
117.774098
 30
2.0
 70
    64
  0
VERTEX
  5
DAE
  8
0
 10
99.272174
 20
117.774098
 30
2.0
 70
    64
  0
VERTEX
  5
DAF
  8
0
 10
97.772174
 20
120.372174
 30
2.0
 70
    64
  0
SEQEND
  5
DB0
  8
0
  0
POLYLINE
  5
DB1
  8
0
 66
     1
 10
0.0
 20
0.0
 30
0.0
 70
    16
 71
     6
 72
     3
  0
VERTEX
  5
DB2
  8
0
 10
70.78808
 20
96.709996
 30
2.0
 70
    64
  0
VERTEX
  5
DB3
  8
0
 10
70.78808
 20
96.709996
 30
0.0
 70
    64
  0
VERTEX
  5
DB4
  8
0
 10
70.78808
 20
96.709996
 30
0.0
 70
    64
  0
VERTEX
  5
DB5
  8
0
 10
68.190004
 20
95.209996
 30
2.0
 70
    64
  0
VERTEX
  5
DB6
  8
0
 10
68.190004
 20
95.209996
 30
0.0
 70
    64
  0
VERTEX
  5
DB7
  8
0
 10
68.190004
 20
95.209996
 30
0.0
 70
    64
  0
VERTEX
  5
DB8
  8
0
 10
69.690004
 20
92.61192
 30
2.0
 70
    64
  0
VERTEX
  5
DB9
  8
0
 10
69.690004
 20
92.61192
 30
0.0
 70
    64
  0
VERTEX
  5
DBA
  8
0
 10
68.190004
 20
95.209996
 30
0.0
 70
    64
  0
VERTEX
  5
DBB
  8
0
 10
72.28808
 20
94.11192
 30
2.0
 70
    64
  0
VERTEX
  5
DBC
  8
0
 10
72.28808
 20
94.11192
 30
0.0
 70
    64
  0
VERTEX
  5
DBD
  8
0
 10
70.78808
 20
96.709996
 30
0.0
 70
    64
  0
VERTEX
  5
DBE
  8
0
 10
72.28808
 20
94.11192
 30
2.0
 70
    64
  0
VERTEX
  5
DBF
  8
0
 10
72.28808
 20
94.11192
 30
2.0
 70
    64
  0
VERTEX
  5
DC0
  8
0
 10
70.78808
 20
96.709996
 30
2.0
 70
    64
  0
VERTEX
  5
DC1
  8
0
 10
69.690004
 20
92.61192
 30
2.0
 70
    64
  0
VERTEX
  5
DC2
  8
0
 10
69.690004
 20
92.61192
 30
2.0
 70
    64
  0
VERTEX
  5
DC3
  8
0
 10
68.190004
 20
95.209996
 30
2.0
 70
    64
  0
SEQEND
  5
DC4
  8
0
  0
POLYLINE
  5
DC5
  8
0
 66
     1
 10
0.0
 20
0.0
 30
0.0
 70
    16
 71
     6
 72
     3
  0
VERTEX
  5
DC6
  8
0
 10
73.577191
 20
21.879115
 30
2.0
 70
    64
  0
VERTEX
  5
DC7
  8
0
 10
73.577191
 20
21.879115
 30
0.0
 70
    64
  0
VERTEX
  5
DC8
  8
0
 10
73.577191
 20
21.879115
 30
0.0
 70
    64
  0
VERTEX
  5
DC9
  8
0
 10
70.979115
 20
20.379115
 30
2.0
 70
    64
  0
VERTEX
  5
DCA
  8
0
 10
70.979115
 20
20.379115
 30
0.0
 70
    64
  0
VERTEX
  5
DCB
  8
0
 10
70.979115
 20
20.379115
 30
0.0
 70
    64
  0
VERTEX
  5
DCC
  8
0
 10
69.479115
 20
22.977191
 30
2.0
 70
    64
  0
VERTEX
  5
DCD
  8
0
 10
69.479115
 20
22.977191
 30
0.0
 70
    64
  0
VERTEX
  5
DCE
  8
0
 10
70.979115
 20
20.379115
 30
0.0
 70
    64
  0
VERTEX
  5
DCF
  8
0
 10
72.077191
 20
24.477191
 30
2.0
 70
    64
  0
VERTEX
  5
DD0
  8
0
 10
72.077191
 20
24.477191
 30
0.0
 70
    64
  0
VERTEX
  5
DD1
  8
0
 10
73.577191
 20
21.879115
 30
0.0
 70
    64
  0
VERTEX
  5
DD2
  8
0
 10
72.077191
 20
24.477191
 30
2.0
 70
    64
  0
VERTEX
  5
DD3
  8
0
 10
72.077191
 20
24.477191
 30
2.0
 70
    64
  0
VERTEX
  5
DD4
  8
0
 10
73.577191
 20
21.879115
 30
2.0
 70
    64
  0
VERTEX
  5
DD5
  8
0
 10
69.479115
 20
22.977191
 30
2.0
 70
    64
  0
VERTEX
  5
DD6
  8
0
 10
69.479115
 20
22.977191
 30
2.0
 70
    64
  0
VERTEX
  5
DD7
  8
0
 10
70.979115
 20
20.379115
 30
2.0
 70
    64
  0
SEQEND
  5
DD8
  8
0
  0
POLYLINE
  5
DD9
  8
0
 66
     1
 10
0.0
 20
0.0
 30
0.0
 70
    16
 71
     6
 72
     3
  0
VERTEX
  5
DDA
  8
0
 10
71.015013
 20
12.316937
 30
2.0
 70
    64
  0
VERTEX
  5
DDB
  8
0
 10
71.015013
 20
12.316937
 30
0.0
 70
    64
  0
VERTEX
  5
DDC
  8
0
 10
71.015013
 20
12.316937
 30
0.0
 70
    64
  0
VERTEX
  5
DDD
  8
0
 10
68.416937
 20
10.816937
 30
2.0
 70
    64
  0
VERTEX
  5
DDE
  8
0
 10
68.416937
 20
10.816937
 30
0.0
 70
    64
  0
VERTEX
  5
DDF
  8
0
 10
68.416937
 20
10.816937
 30
0.0
 70
    64
  0
VERTEX
  5
DE0
  8
0
 10
66.916937
 20
13.415013
 30
2.0
 70
    64
  0
VERTEX
  5
DE1
  8
0
 10
66.916937
 20
13.415013
 30
0.0
 70
    64
  0
VERTEX
  5
DE2
  8
0
 10
68.416937
 20
10.816937
 30
0.0
 70
    64
  0
VERTEX
  5
DE3
  8
0
 10
69.515013
 20
14.915013
 30
2.0
 70
    64
  0
VERTEX
  5
DE4
  8
0
 10
69.515013
 20
14.915013
 30
0.0
 70
    64
  0
VERTEX
  5
DE5
  8
0
 10
71.015013
 20
12.316937
 30
0.0
 70
    64
  0
VERTEX
  5
DE6
  8
0
 10
69.515013
 20
14.915013
 30
2.0
 70
    64
  0
VERTEX
  5
DE7
  8
0
 10
69.515013
 20
14.915013
 30
2.0
 70
    64
  0
VERTEX
  5
DE8
  8
0
 10
71.015013
 20
12.316937
 30
2.0
 70
    64
  0
VERTEX
  5
DE9
  8
0
 10
66.916937
 20
13.415013
 30
2.0
 70
    64
  0
VERTEX
  5
DEA
  8
0
 10
66.916937
 20
13.415013
 30
2.0
 70
    64
  0
VERTEX
  5
DEB
  8
0
 10
68.416937
 20
10.816937
 30
2.0
 70
    64
  0
SEQEND
  5
DEC
  8
0
  0
POLYLINE
  5
DED
  8
0
 66
     1
 10
0.0
 20
0.0
 30
0.0
 70
    16
 71
     6
 72
     3
  0
VERTEX
  5
DEE
  8
0
 10
13.415013
 20
112.083063
 30
2.0
 70
    64
  0
VERTEX
  5
DEF
  8
0
 10
13.415013
 20
112.083063
 30
0.0
 70
    64
  0
VERTEX
  5
DF0
  8
0
 10
13.415013
 20
112.083063
 30
0.0
 70
    64
  0
VERTEX
  5
DF1
  8
0
 10
10.816937
 20
110.583063
 30
2.0
 70
    64
  0
VERTEX
  5
DF2
  8
0
 10
10.816937
 20
110.583063
 30
0.0
 70
    64
  0
VERTEX
  5
DF3
  8
0
 10
10.816937
 20
110.583063
 30
0.0
 70
    64
  0
VERTEX
  5
DF4
  8
0
 10
12.316937
 20
107.984987
 30
2.0
 70
    64
  0
VERTEX
  5
DF5
  8
0
 10
12.316937
 20
107.984987
 30
0.0
 70
    64
  0
VERTEX
  5
DF6
  8
0
 10
10.816937
 20
110.583063
 30
0.0
 70
    64
  0
VERTEX
  5
DF7
  8
0
 10
14.915013
 20
109.484987
 30
2.0
 70
    64
  0
VERTEX
  5
DF8
  8
0
 10
14.915013
 20
109.484987
 30
0.0
 70
    64
  0
VERTEX
  5
DF9
  8
0
 10
13.415013
 20
112.083063
 30
0.0
 70
    64
  0
VERTEX
  5
DFA
  8
0
 10
14.915013
 20
109.484987
 30
2.0
 70
    64
  0
VERTEX
  5
DFB
  8
0
 10
14.915013
 20
109.484987
 30
2.0
 70
    64
  0
VERTEX
  5
DFC
  8
0
 10
13.415013
 20
112.083063
 30
2.0
 70
    64
  0
VERTEX
  5
DFD
  8
0
 10
12.316937
 20
107.984987
 30
2.0
 70
    64
  0
VERTEX
  5
DFE
  8
0
 10
12.316937
 20
107.984987
 30
2.0
 70
    64
  0
VERTEX
  5
DFF
  8
0
 10
10.816937
 20
110.583063
 30
2.0
 70
    64
  0
SEQEND
  5
E00
  8
0
  0
POLYLINE
  5
E01
  8
0
 66
     1
 10
0.0
 20
0.0
 30
0.0
 70
    16
 71
     6
 72
     3
  0
VERTEX
  5
E02
  8
0
 10
42.101546
 20
104.39653
 30
2.0
 70
    64
  0
VERTEX
  5
E03
  8
0
 10
42.101546
 20
104.39653
 30
0.0
 70
    64
  0
VERTEX
  5
E04
  8
0
 10
42.101546
 20
104.39653
 30
0.0
 70
    64
  0
VERTEX
  5
E05
  8
0
 10
39.50347
 20
102.89653
 30
2.0
 70
    64
  0
VERTEX
  5
E06
  8
0
 10
39.50347
 20
102.89653
 30
0.0
 70
    64
  0
VERTEX
  5
E07
  8
0
 10
39.50347
 20
102.89653
 30
0.0
 70
    64
  0
VERTEX
  5
E08
  8
0
 10
41.00347
 20
100.298454
 30
2.0
 70
    64
  0
VERTEX
  5
E09
  8
0
 10
41.00347
 20
100.298454
 30
0.0
 70
    64
  0
VERTEX
  5
E0A
  8
0
 10
39.50347
 20
102.89653
 30
0.0
 70
    64
  0
VERTEX
  5
E0B
  8
0
 10
43.601546
 20
101.798454
 30
2.0
 70
    64
  0
VERTEX
  5
E0C
  8
0
 10
43.601546
 20
101.798454
 30
0.0
 70
    64
  0
VERTEX
  5
E0D
  8
0
 10
42.101546
 20
104.39653
 30
0.0
 70
    64
  0
VERTEX
  5
E0E
  8
0
 10
43.601546
 20
101.798454
 30
2.0
 70
    64
  0
VERTEX
  5
E0F
  8
0
 10
43.601546
 20
101.798454
 30
2.0
 70
    64
  0
VERTEX
  5
E10
  8
0
 10
42.101546
 20
104.39653
 30
2.0
 70
    64
  0
VERTEX
  5
E11
  8
0
 10
41.00347
 20
100.298454
 30
2.0
 70
    64
  0
VERTEX
  5
E12
  8
0
 10
41.00347
 20
100.298454
 30
2.0
 70
    64
  0
VERTEX
  5
E13
  8
0
 10
39.50347
 20
102.89653
 30
2.0
 70
    64
  0
SEQEND
  5
E14
  8
0
  0
POLYLINE
  5
E15
  8
0
 66
     1
 10
0.0
 20
0.0
 30
0.0
 70
    16
 71
     6
 72
     3
  0
VERTEX
  5
E16
  8
0
 10
22.977191
 20
109.520885
 30
2.0
 70
    64
  0
VERTEX
  5
E17
  8
0
 10
22.977191
 20
109.520885
 30
0.0
 70
    64
  0
VERTEX
  5
E18
  8
0
 10
22.977191
 20
109.520885
 30
0.0
 70
    64
  0
VERTEX
  5
E19
  8
0
 10
20.379115
 20
108.020885
 30
2.0
 70
    64
  0
VERTEX
  5
E1A
  8
0
 10
20.379115
 20
108.020885
 30
0.0
 70
    64
  0
VERTEX
  5
E1B
  8
0
 10
20.379115
 20
108.020885
 30
0.0
 70
    64
  0
VERTEX
  5
E1C
  8
0
 10
21.879115
 20
105.422809
 30
2.0
 70
    64
  0
VERTEX
  5
E1D
  8
0
 10
21.879115
 20
105.422809
 30
0.0
 70
    64
  0
VERTEX
  5
E1E
  8
0
 10
20.379115
 20
108.020885
 30
0.0
 70
    64
  0
VERTEX
  5
E1F
  8
0
 10
24.477191
 20
106.922809
 30
2.0
 70
    64
  0
VERTEX
  5
E20
  8
0
 10
24.477191
 20
106.922809
 30
0.0
 70
    64
  0
VERTEX
  5
E21
  8
0
 10
22.977191
 20
109.520885
 30
0.0
 70
    64
  0
VERTEX
  5
E22
  8
0
 10
24.477191
 20
106.922809
 30
2.0
 70
    64
  0
VERTEX
  5
E23
  8
0
 10
24.477191
 20
106.922809
 30
2.0
 70
    64
  0
VERTEX
  5
E24
  8
0
 10
22.977191
 20
109.520885
 30
2.0
 70
    64
  0
VERTEX
  5
E25
  8
0
 10
21.879115
 20
105.422809
 30
2.0
 70
    64
  0
VERTEX
  5
E26
  8
0
 10
21.879115
 20
105.422809
 30
2.0
 70
    64
  0
VERTEX
  5
E27
  8
0
 10
20.379115
 20
108.020885
 30
2.0
 70
    64
  0
SEQEND
  5
E28
  8
0
  0
POLYLINE
  5
E29
  8
0
 66
     1
 10
0.0
 20
0.0
 30
0.0
 70
    16
 71
     6
 72
     3
  0
VERTEX
  5
E2A
  8
0
 10
32.539369
 20
106.958708
 30
2.0
 70
    64
  0
VERTEX
  5
E2B
  8
0
 10
32.539369
 20
106.958708
 30
0.0
 70
    64
  0
VERTEX
  5
E2C
  8
0
 10
32.539369
 20
106.958708
 30
0.0
 70
    64
  0
VERTEX
  5
E2D
  8
0
 10
29.941292
 20
105.458708
 30
2.0
 70
    64
  0
VERTEX
  5
E2E
  8
0
 10
29.941292
 20
105.458708
 30
0.0
 70
    64
  0
VERTEX
  5
E2F
  8
0
 10
29.941292
 20
105.458708
 30
0.0
 70
    64
  0
VERTEX
  5
E30
  8
0
 10
31.441292
 20
102.860631
 30
2.0
 70
    64
  0
VERTEX
  5
E31
  8
0
 10
31.441292
 20
102.860631
 30
0.0
 70
    64
  0
VERTEX
  5
E32
  8
0
 10
29.941292
 20
105.458708
 30
0.0
 70
    64
  0
VERTEX
  5
E33
  8
0
 10
34.039369
 20
104.360631
 30
2.0
 70
    64
  0
VERTEX
  5
E34
  8
0
 10
34.039369
 20
104.360631
 30
0.0
 70
    64
  0
VERTEX
  5
E35
  8
0
 10
32.539369
 20
106.958708
 30
0.0
 70
    64
  0
VERTEX
  5
E36
  8
0
 10
34.039369
 20
104.360631
 30
2.0
 70
    64
  0
VERTEX
  5
E37
  8
0
 10
34.039369
 20
104.360631
 30
2.0
 70
    64
  0
VERTEX
  5
E38
  8
0
 10
32.539369
 20
106.958708
 30
2.0
 70
    64
  0
VERTEX
  5
E39
  8
0
 10
31.441292
 20
102.860631
 30
2.0
 70
    64
  0
VERTEX
  5
E3A
  8
0
 10
31.441292
 20
102.860631
 30
2.0
 70
    64
  0
VERTEX
  5
E3B
  8
0
 10
29.941292
 20
105.458708
 30
2.0
 70
    64
  0
SEQEND
  5
E3C
  8
0
  0
POLYLINE
  5
E3D
  8
0
 66
     1
 10
0.0
 20
0.0
 30
0.0
 70
    16
 71
     6
 72
     3
  0
VERTEX
  5
E3E
  8
0
 10
61.225902
 20
99.272174
 30
2.0
 70
    64
  0
VERTEX
  5
E3F
  8
0
 10
61.225902
 20
99.272174
 30
0.0
 70
    64
  0
VERTEX
  5
E40
  8
0
 10
61.225902
 20
99.272174
 30
0.0
 70
    64
  0
VERTEX
  5
E41
  8
0
 10
58.627826
 20
97.772174
 30
2.0
 70
    64
  0
VERTEX
  5
E42
  8
0
 10
58.627826
 20
97.772174
 30
0.0
 70
    64
  0
VERTEX
  5
E43
  8
0
 10
58.627826
 20
97.772174
 30
0.0
 70
    64
  0
VERTEX
  5
E44
  8
0
 10
60.127826
 20
95.174098
 30
2.0
 70
    64
  0
VERTEX
  5
E45
  8
0
 10
60.127826
 20
95.174098
 30
0.0
 70
    64
  0
VERTEX
  5
E46
  8
0
 10
58.627826
 20
97.772174
 30
0.0
 70
    64
  0
VERTEX
  5
E47
  8
0
 10
62.725902
 20
96.674098
 30
2.0
 70
    64
  0
VERTEX
  5
E48
  8
0
 10
62.725902
 20
96.674098
 30
0.0
 70
    64
  0
VERTEX
  5
E49
  8
0
 10
61.225902
 20
99.272174
 30
0.0
 70
    64
  0
VERTEX
  5
E4A
  8
0
 10
62.725902
 20
96.674098
 30
2.0
 70
    64
  0
VERTEX
  5
E4B
  8
0
 10
62.725902
 20
96.674098
 30
2.0
 70
    64
  0
VERTEX
  5
E4C
  8
0
 10
61.225902
 20
99.272174
 30
2.0
 70
    64
  0
VERTEX
  5
E4D
  8
0
 10
60.127826
 20
95.174098
 30
2.0
 70
    64
  0
VERTEX
  5
E4E
  8
0
 10
60.127826
 20
95.174098
 30
2.0
 70
    64
  0
VERTEX
  5
E4F
  8
0
 10
58.627826
 20
97.772174
 30
2.0
 70
    64
  0
SEQEND
  5
E50
  8
0
  0
POLYLINE
  5
E51
  8
0
 66
     1
 10
0.0
 20
0.0
 30
0.0
 70
    16
 71
     6
 72
     3
  0
VERTEX
  5
E52
  8
0
 10
51.663724
 20
101.834352
 30
2.0
 70
    64
  0
VERTEX
  5
E53
  8
0
 10
51.663724
 20
101.834352
 30
0.0
 70
    64
  0
VERTEX
  5
E54
  8
0
 10
51.663724
 20
101.834352
 30
0.0
 70
    64
  0
VERTEX
  5
E55
  8
0
 10
49.065648
 20
100.334352
 30
2.0
 70
    64
  0
VERTEX
  5
E56
  8
0
 10
49.065648
 20
100.334352
 30
0.0
 70
    64
  0
VERTEX
  5
E57
  8
0
 10
49.065648
 20
100.334352
 30
0.0
 70
    64
  0
VERTEX
  5
E58
  8
0
 10
50.565648
 20
97.736276
 30
2.0
 70
    64
  0
VERTEX
  5
E59
  8
0
 10
50.565648
 20
97.736276
 30
0.0
 70
    64
  0
VERTEX
  5
E5A
  8
0
 10
49.065648
 20
100.334352
 30
0.0
 70
    64
  0
VERTEX
  5
E5B
  8
0
 10
53.163724
 20
99.236276
 30
2.0
 70
    64
  0
VERTEX
  5
E5C
  8
0
 10
53.163724
 20
99.236276
 30
0.0
 70
    64
  0
VERTEX
  5
E5D
  8
0
 10
51.663724
 20
101.834352
 30
0.0
 70
    64
  0
VERTEX
  5
E5E
  8
0
 10
53.163724
 20
99.236276
 30
2.0
 70
    64
  0
VERTEX
  5
E5F
  8
0
 10
53.163724
 20
99.236276
 30
2.0
 70
    64
  0
VERTEX
  5
E60
  8
0
 10
51.663724
 20
101.834352
 30
2.0
 70
    64
  0
VERTEX
  5
E61
  8
0
 10
50.565648
 20
97.736276
 30
2.0
 70
    64
  0
VERTEX
  5
E62
  8
0
 10
50.565648
 20
97.736276
 30
2.0
 70
    64
  0
VERTEX
  5
E63
  8
0
 10
49.065648
 20
100.334352
 30
2.0
 70
    64
  0
SEQEND
  5
E64
  8
0
  0
POLYLINE
  5
E65
  8
0
 66
     1
 10
0.0
 20
0.0
 30
0.0
 70
    16
 71
     6
 72
     3
  0
VERTEX
  5
E66
  8
0
 10
76.139369
 20
31.441292
 30
2.0
 70
    64
  0
VERTEX
  5
E67
  8
0
 10
76.139369
 20
31.441292
 30
0.0
 70
    64
  0
VERTEX
  5
E68
  8
0
 10
76.139369
 20
31.441292
 30
0.0
 70
    64
  0
VERTEX
  5
E69
  8
0
 10
73.541292
 20
29.941292
 30
2.0
 70
    64
  0
VERTEX
  5
E6A
  8
0
 10
73.541292
 20
29.941292
 30
0.0
 70
    64
  0
VERTEX
  5
E6B
  8
0
 10
73.541292
 20
29.941292
 30
0.0
 70
    64
  0
VERTEX
  5
E6C
  8
0
 10
72.041292
 20
32.539369
 30
2.0
 70
    64
  0
VERTEX
  5
E6D
  8
0
 10
72.041292
 20
32.539369
 30
0.0
 70
    64
  0
VERTEX
  5
E6E
  8
0
 10
73.541292
 20
29.941292
 30
0.0
 70
    64
  0
VERTEX
  5
E6F
  8
0
 10
74.639369
 20
34.039369
 30
2.0
 70
    64
  0
VERTEX
  5
E70
  8
0
 10
74.639369
 20
34.039369
 30
0.0
 70
    64
  0
VERTEX
  5
E71
  8
0
 10
76.139369
 20
31.441292
 30
0.0
 70
    64
  0
VERTEX
  5
E72
  8
0
 10
74.639369
 20
34.039369
 30
2.0
 70
    64
  0
VERTEX
  5
E73
  8
0
 10
74.639369
 20
34.039369
 30
2.0
 70
    64
  0
VERTEX
  5
E74
  8
0
 10
76.139369
 20
31.441292
 30
2.0
 70
    64
  0
VERTEX
  5
E75
  8
0
 10
72.041292
 20
32.539369
 30
2.0
 70
    64
  0
VERTEX
  5
E76
  8
0
 10
72.041292
 20
32.539369
 30
2.0
 70
    64
  0
VERTEX
  5
E77
  8
0
 10
73.541292
 20
29.941292
 30
2.0
 70
    64
  0
SEQEND
  5
E78
  8
0
  0
POLYLINE
  5
E79
  8
0
 66
     1
 10
0.0
 20
0.0
 30
0.0
 70
    16
 71
     6
 72
     3
  0
VERTEX
  5
E7A
  8
0
 10
81.263724
 20
50.565648
 30
2.0
 70
    64
  0
VERTEX
  5
E7B
  8
0
 10
81.263724
 20
50.565648
 30
0.0
 70
    64
  0
VERTEX
  5
E7C
  8
0
 10
81.263724
 20
50.565648
 30
0.0
 70
    64
  0
VERTEX
  5
E7D
  8
0
 10
78.665648
 20
49.065648
 30
2.0
 70
    64
  0
VERTEX
  5
E7E
  8
0
 10
78.665648
 20
49.065648
 30
0.0
 70
    64
  0
VERTEX
  5
E7F
  8
0
 10
78.665648
 20
49.065648
 30
0.0
 70
    64
  0
VERTEX
  5
E80
  8
0
 10
77.165648
 20
51.663724
 30
2.0
 70
    64
  0
VERTEX
  5
E81
  8
0
 10
77.165648
 20
51.663724
 30
0.0
 70
    64
  0
VERTEX
  5
E82
  8
0
 10
78.665648
 20
49.065648
 30
0.0
 70
    64
  0
VERTEX
  5
E83
  8
0
 10
79.763724
 20
53.163724
 30
2.0
 70
    64
  0
VERTEX
  5
E84
  8
0
 10
79.763724
 20
53.163724
 30
0.0
 70
    64
  0
VERTEX
  5
E85
  8
0
 10
81.263724
 20
50.565648
 30
0.0
 70
    64
  0
VERTEX
  5
E86
  8
0
 10
79.763724
 20
53.163724
 30
2.0
 70
    64
  0
VERTEX
  5
E87
  8
0
 10
79.763724
 20
53.163724
 30
2.0
 70
    64
  0
VERTEX
  5
E88
  8
0
 10
81.263724
 20
50.565648
 30
2.0
 70
    64
  0
VERTEX
  5
E89
  8
0
 10
77.165648
 20
51.663724
 30
2.0
 70
    64
  0
VERTEX
  5
E8A
  8
0
 10
77.165648
 20
51.663724
 30
2.0
 70
    64
  0
VERTEX
  5
E8B
  8
0
 10
78.665648
 20
49.065648
 30
2.0
 70
    64
  0
SEQEND
  5
E8C
  8
0
  0
POLYLINE
  5
E8D
  8
0
 66
     1
 10
0.0
 20
0.0
 30
0.0
 70
    16
 71
     6
 72
     3
  0
VERTEX
  5
E8E
  8
0
 10
78.701546
 20
41.00347
 30
2.0
 70
    64
  0
VERTEX
  5
E8F
  8
0
 10
78.701546
 20
41.00347
 30
0.0
 70
    64
  0
VERTEX
  5
E90
  8
0
 10
78.701546
 20
41.00347
 30
0.0
 70
    64
  0
VERTEX
  5
E91
  8
0
 10
76.10347
 20
39.50347
 30
2.0
 70
    64
  0
VERTEX
  5
E92
  8
0
 10
76.10347
 20
39.50347
 30
0.0
 70
    64
  0
VERTEX
  5
E93
  8
0
 10
76.10347
 20
39.50347
 30
0.0
 70
    64
  0
VERTEX
  5
E94
  8
0
 10
74.60347
 20
42.101546
 30
2.0
 70
    64
  0
VERTEX
  5
E95
  8
0
 10
74.60347
 20
42.101546
 30
0.0
 70
    64
  0
VERTEX
  5
E96
  8
0
 10
76.10347
 20
39.50347
 30
0.0
 70
    64
  0
VERTEX
  5
E97
  8
0
 10
77.201546
 20
43.601546
 30
2.0
 70
    64
  0
VERTEX
  5
E98
  8
0
 10
77.201546
 20
43.601546
 30
0.0
 70
    64
  0
VERTEX
  5
E99
  8
0
 10
78.701546
 20
41.00347
 30
0.0
 70
    64
  0
VERTEX
  5
E9A
  8
0
 10
77.201546
 20
43.601546
 30
2.0
 70
    64
  0
VERTEX
  5
E9B
  8
0
 10
77.201546
 20
43.601546
 30
2.0
 70
    64
  0
VERTEX
  5
E9C
  8
0
 10
78.701546
 20
41.00347
 30
2.0
 70
    64
  0
VERTEX
  5
E9D
  8
0
 10
74.60347
 20
42.101546
 30
2.0
 70
    64
  0
VERTEX
  5
E9E
  8
0
 10
74.60347
 20
42.101546
 30
2.0
 70
    64
  0
VERTEX
  5
E9F
  8
0
 10
76.10347
 20
39.50347
 30
2.0
 70
    64
  0
SEQEND
  5
EA0
  8
0
  0
POLYLINE
  5
EA1
  8
0
 66
     1
 10
0.0
 20
0.0
 30
0.0
 70
    16
 71
     6
 72
     3
  0
VERTEX
  5
EA2
  8
0
 10
86.38808
 20
69.690004
 30
2.0
 70
    64
  0
VERTEX
  5
EA3
  8
0
 10
86.38808
 20
69.690004
 30
0.0
 70
    64
  0
VERTEX
  5
EA4
  8
0
 10
86.38808
 20
69.690004
 30
0.0
 70
    64
  0
VERTEX
  5
EA5
  8
0
 10
83.790004
 20
68.190004
 30
2.0
 70
    64
  0
VERTEX
  5
EA6
  8
0
 10
83.790004
 20
68.190004
 30
0.0
 70
    64
  0
VERTEX
  5
EA7
  8
0
 10
83.790004
 20
68.190004
 30
0.0
 70
    64
  0
VERTEX
  5
EA8
  8
0
 10
82.290004
 20
70.78808
 30
2.0
 70
    64
  0
VERTEX
  5
EA9
  8
0
 10
82.290004
 20
70.78808
 30
0.0
 70
    64
  0
VERTEX
  5
EAA
  8
0
 10
83.790004
 20
68.190004
 30
0.0
 70
    64
  0
VERTEX
  5
EAB
  8
0
 10
84.88808
 20
72.28808
 30
2.0
 70
    64
  0
VERTEX
  5
EAC
  8
0
 10
84.88808
 20
72.28808
 30
0.0
 70
    64
  0
VERTEX
  5
EAD
  8
0
 10
86.38808
 20
69.690004
 30
0.0
 70
    64
  0
VERTEX
  5
EAE
  8
0
 10
84.88808
 20
72.28808
 30
2.0
 70
    64
  0
VERTEX
  5
EAF
  8
0
 10
84.88808
 20
72.28808
 30
2.0
 70
    64
  0
VERTEX
  5
EB0
  8
0
 10
86.38808
 20
69.690004
 30
2.0
 70
    64
  0
VERTEX
  5
EB1
  8
0
 10
82.290004
 20
70.78808
 30
2.0
 70
    64
  0
VERTEX
  5
EB2
  8
0
 10
82.290004
 20
70.78808
 30
2.0
 70
    64
  0
VERTEX
  5
EB3
  8
0
 10
83.790004
 20
68.190004
 30
2.0
 70
    64
  0
SEQEND
  5
EB4
  8
0
  0
POLYLINE
  5
EB5
  8
0
 66
     1
 10
0.0
 20
0.0
 30
0.0
 70
    16
 71
     6
 72
     3
  0
VERTEX
  5
EB6
  8
0
 10
83.825902
 20
60.127826
 30
2.0
 70
    64
  0
VERTEX
  5
EB7
  8
0
 10
83.825902
 20
60.127826
 30
0.0
 70
    64
  0
VERTEX
  5
EB8
  8
0
 10
83.825902
 20
60.127826
 30
0.0
 70
    64
  0
VERTEX
  5
EB9
  8
0
 10
81.227826
 20
58.627826
 30
2.0
 70
    64
  0
VERTEX
  5
EBA
  8
0
 10
81.227826
 20
58.627826
 30
0.0
 70
    64
  0
VERTEX
  5
EBB
  8
0
 10
81.227826
 20
58.627826
 30
0.0
 70
    64
  0
VERTEX
  5
EBC
  8
0
 10
79.727826
 20
61.225902
 30
2.0
 70
    64
  0
VERTEX
  5
EBD
  8
0
 10
79.727826
 20
61.225902
 30
0.0
 70
    64
  0
VERTEX
  5
EBE
  8
0
 10
81.227826
 20
58.627826
 30
0.0
 70
    64
  0
VERTEX
  5
EBF
  8
0
 10
82.325902
 20
62.725902
 30
2.0
 70
    64
  0
VERTEX
  5
EC0
  8
0
 10
82.325902
 20
62.725902
 30
0.0
 70
    64
  0
VERTEX
  5
EC1
  8
0
 10
83.825902
 20
60.127826
 30
0.0
 70
    64
  0
VERTEX
  5
EC2
  8
0
 10
82.325902
 20
62.725902
 30
2.0
 70
    64
  0
VERTEX
  5
EC3
  8
0
 10
82.325902
 20
62.725902
 30
2.0
 70
    64
  0
VERTEX
  5
EC4
  8
0
 10
83.825902
 20
60.127826
 30
2.0
 70
    64
  0
VERTEX
  5
EC5
  8
0
 10
79.727826
 20
61.225902
 30
2.0
 70
    64
  0
VERTEX
  5
EC6
  8
0
 10
79.727826
 20
61.225902
 30
2.0
 70
    64
  0
VERTEX
  5
EC7
  8
0
 10
81.227826
 20
58.627826
 30
2.0
 70
    64
  0
SEQEND
  5
EC8
  8
0
  0
POLYLINE
  5
F19
  8
0
 66
     1
 10
0.0
 20
0.0
 30
0.0
 70
    16
 71
     6
 72
     3
  0
VERTEX
  5
F1A
  8
0
 10
92.61192
 20
109.309996
 30
2.0
 70
    64
  0
VERTEX
  5
F1B
  8
0
 10
92.61192
 20
109.309996
 30
0.0
 70
    64
  0
VERTEX
  5
F1C
  8
0
 10
92.61192
 20
109.309996
 30
0.0
 70
    64
  0
VERTEX
  5
F1D
  8
0
 10
95.209996
 20
110.809996
 30
2.0
 70
    64
  0
VERTEX
  5
F1E
  8
0
 10
95.209996
 20
110.809996
 30
0.0
 70
    64
  0
VERTEX
  5
F1F
  8
0
 10
95.209996
 20
110.809996
 30
0.0
 70
    64
  0
VERTEX
  5
F20
  8
0
 10
96.709996
 20
108.21192
 30
2.0
 70
    64
  0
VERTEX
  5
F21
  8
0
 10
96.709996
 20
108.21192
 30
0.0
 70
    64
  0
VERTEX
  5
F22
  8
0
 10
95.209996
 20
110.809996
 30
0.0
 70
    64
  0
VERTEX
  5
F23
  8
0
 10
94.11192
 20
106.71192
 30
2.0
 70
    64
  0
VERTEX
  5
F24
  8
0
 10
94.11192
 20
106.71192
 30
0.0
 70
    64
  0
VERTEX
  5
F25
  8
0
 10
92.61192
 20
109.309996
 30
0.0
 70
    64
  0
VERTEX
  5
F26
  8
0
 10
94.11192
 20
106.71192
 30
2.0
 70
    64
  0
VERTEX
  5
F27
  8
0
 10
94.11192
 20
106.71192
 30
2.0
 70
    64
  0
VERTEX
  5
F28
  8
0
 10
92.61192
 20
109.309996
 30
2.0
 70
    64
  0
VERTEX
  5
F29
  8
0
 10
96.709996
 20
108.21192
 30
2.0
 70
    64
  0
VERTEX
  5
F2A
  8
0
 10
96.709996
 20
108.21192
 30
2.0
 70
    64
  0
VERTEX
  5
F2B
  8
0
 10
95.209996
 20
110.809996
 30
2.0
 70
    64
  0
SEQEND
  5
F2C
  8
0
  0
POLYLINE
  5
F2D
  8
0
 66
     1
 10
0.0
 20
0.0
 30
0.0
 70
    16
 71
     6
 72
     3
  0
VERTEX
  5
F2E
  8
0
 10
108.21192
 20
82.290004
 30
2.0
 70
    64
  0
VERTEX
  5
F2F
  8
0
 10
108.21192
 20
82.290004
 30
0.0
 70
    64
  0
VERTEX
  5
F30
  8
0
 10
108.21192
 20
82.290004
 30
0.0
 70
    64
  0
VERTEX
  5
F31
  8
0
 10
110.809996
 20
83.790004
 30
2.0
 70
    64
  0
VERTEX
  5
F32
  8
0
 10
110.809996
 20
83.790004
 30
0.0
 70
    64
  0
VERTEX
  5
F33
  8
0
 10
110.809996
 20
83.790004
 30
0.0
 70
    64
  0
VERTEX
  5
F34
  8
0
 10
109.309996
 20
86.38808
 30
2.0
 70
    64
  0
VERTEX
  5
F35
  8
0
 10
109.309996
 20
86.38808
 30
0.0
 70
    64
  0
VERTEX
  5
F36
  8
0
 10
110.809996
 20
83.790004
 30
0.0
 70
    64
  0
VERTEX
  5
F37
  8
0
 10
106.71192
 20
84.88808
 30
2.0
 70
    64
  0
VERTEX
  5
F38
  8
0
 10
106.71192
 20
84.88808
 30
0.0
 70
    64
  0
VERTEX
  5
F39
  8
0
 10
108.21192
 20
82.290004
 30
0.0
 70
    64
  0
VERTEX
  5
F3A
  8
0
 10
106.71192
 20
84.88808
 30
2.0
 70
    64
  0
VERTEX
  5
F3B
  8
0
 10
106.71192
 20
84.88808
 30
2.0
 70
    64
  0
VERTEX
  5
F3C
  8
0
 10
108.21192
 20
82.290004
 30
2.0
 70
    64
  0
VERTEX
  5
F3D
  8
0
 10
109.309996
 20
86.38808
 30
2.0
 70
    64
  0
VERTEX
  5
F3E
  8
0
 10
109.309996
 20
86.38808
 30
2.0
 70
    64
  0
VERTEX
  5
F3F
  8
0
 10
110.809996
 20
83.790004
 30
2.0
 70
    64
  0
SEQEND
  5
F40
  8
0
  0
POLYLINE
  5
F41
  8
0
 66
     1
 10
0.0
 20
0.0
 30
0.0
 70
    16
 71
     6
 72
     3
  0
VERTEX
  5
F42
  8
0
 10
117.774098
 20
79.727826
 30
2.0
 70
    64
  0
VERTEX
  5
F43
  8
0
 10
117.774098
 20
79.727826
 30
0.0
 70
    64
  0
VERTEX
  5
F44
  8
0
 10
117.774098
 20
79.727826
 30
0.0
 70
    64
  0
VERTEX
  5
F45
  8
0
 10
120.372174
 20
81.227826
 30
2.0
 70
    64
  0
VERTEX
  5
F46
  8
0
 10
120.372174
 20
81.227826
 30
0.0
 70
    64
  0
VERTEX
  5
F47
  8
0
 10
120.372174
 20
81.227826
 30
0.0
 70
    64
  0
VERTEX
  5
F48
  8
0
 10
118.872174
 20
83.825902
 30
2.0
 70
    64
  0
VERTEX
  5
F49
  8
0
 10
118.872174
 20
83.825902
 30
0.0
 70
    64
  0
VERTEX
  5
F4A
  8
0
 10
120.372174
 20
81.227826
 30
0.0
 70
    64
  0
VERTEX
  5
F4B
  8
0
 10
116.274098
 20
82.325902
 30
2.0
 70
    64
  0
VERTEX
  5
F4C
  8
0
 10
116.274098
 20
82.325902
 30
0.0
 70
    64
  0
VERTEX
  5
F4D
  8
0
 10
117.774098
 20
79.727826
 30
0.0
 70
    64
  0
VERTEX
  5
F4E
  8
0
 10
116.274098
 20
82.325902
 30
2.0
 70
    64
  0
VERTEX
  5
F4F
  8
0
 10
116.274098
 20
82.325902
 30
2.0
 70
    64
  0
VERTEX
  5
F50
  8
0
 10
117.774098
 20
79.727826
 30
2.0
 70
    64
  0
VERTEX
  5
F51
  8
0
 10
118.872174
 20
83.825902
 30
2.0
 70
    64
  0
VERTEX
  5
F52
  8
0
 10
118.872174
 20
83.825902
 30
2.0
 70
    64
  0
VERTEX
  5
F53
  8
0
 10
120.372174
 20
81.227826
 30
2.0
 70
    64
  0
SEQEND
  5
F54
  8
0
  0
POLYLINE
  5
F55
  8
0
 66
     1
 10
0.0
 20
0.0
 30
0.0
 70
    16
 71
     6
 72
     3
  0
VERTEX
  5
F56
  8
0
 10
127.336276
 20
77.165648
 30
2.0
 70
    64
  0
VERTEX
  5
F57
  8
0
 10
127.336276
 20
77.165648
 30
0.0
 70
    64
  0
VERTEX
  5
F58
  8
0
 10
127.336276
 20
77.165648
 30
0.0
 70
    64
  0
VERTEX
  5
F59
  8
0
 10
129.934352
 20
78.665648
 30
2.0
 70
    64
  0
VERTEX
  5
F5A
  8
0
 10
129.934352
 20
78.665648
 30
0.0
 70
    64
  0
VERTEX
  5
F5B
  8
0
 10
129.934352
 20
78.665648
 30
0.0
 70
    64
  0
VERTEX
  5
F5C
  8
0
 10
128.434352
 20
81.263724
 30
2.0
 70
    64
  0
VERTEX
  5
F5D
  8
0
 10
128.434352
 20
81.263724
 30
0.0
 70
    64
  0
VERTEX
  5
F5E
  8
0
 10
129.934352
 20
78.665648
 30
0.0
 70
    64
  0
VERTEX
  5
F5F
  8
0
 10
125.836276
 20
79.763724
 30
2.0
 70
    64
  0
VERTEX
  5
F60
  8
0
 10
125.836276
 20
79.763724
 30
0.0
 70
    64
  0
VERTEX
  5
F61
  8
0
 10
127.336276
 20
77.165648
 30
0.0
 70
    64
  0
VERTEX
  5
F62
  8
0
 10
125.836276
 20
79.763724
 30
2.0
 70
    64
  0
VERTEX
  5
F63
  8
0
 10
125.836276
 20
79.763724
 30
2.0
 70
    64
  0
VERTEX
  5
F64
  8
0
 10
127.336276
 20
77.165648
 30
2.0
 70
    64
  0
VERTEX
  5
F65
  8
0
 10
128.434352
 20
81.263724
 30
2.0
 70
    64
  0
VERTEX
  5
F66
  8
0
 10
128.434352
 20
81.263724
 30
2.0
 70
    64
  0
VERTEX
  5
F67
  8
0
 10
129.934352
 20
78.665648
 30
2.0
 70
    64
  0
SEQEND
  5
F68
  8
0
  0
POLYLINE
  5
F69
  8
0
 66
     1
 10
0.0
 20
0.0
 30
0.0
 70
    16
 71
     6
 72
     3
  0
VERTEX
  5
F6A
  8
0
 10
136.898454
 20
74.60347
 30
2.0
 70
    64
  0
VERTEX
  5
F6B
  8
0
 10
136.898454
 20
74.60347
 30
0.0
 70
    64
  0
VERTEX
  5
F6C
  8
0
 10
136.898454
 20
74.60347
 30
0.0
 70
    64
  0
VERTEX
  5
F6D
  8
0
 10
139.49653
 20
76.10347
 30
2.0
 70
    64
  0
VERTEX
  5
F6E
  8
0
 10
139.49653
 20
76.10347
 30
0.0
 70
    64
  0
VERTEX
  5
F6F
  8
0
 10
139.49653
 20
76.10347
 30
0.0
 70
    64
  0
VERTEX
  5
F70
  8
0
 10
137.99653
 20
78.701546
 30
2.0
 70
    64
  0
VERTEX
  5
F71
  8
0
 10
137.99653
 20
78.701546
 30
0.0
 70
    64
  0
VERTEX
  5
F72
  8
0
 10
139.49653
 20
76.10347
 30
0.0
 70
    64
  0
VERTEX
  5
F73
  8
0
 10
135.398454
 20
77.201546
 30
2.0
 70
    64
  0
VERTEX
  5
F74
  8
0
 10
135.398454
 20
77.201546
 30
0.0
 70
    64
  0
VERTEX
  5
F75
  8
0
 10
136.898454
 20
74.60347
 30
0.0
 70
    64
  0
VERTEX
  5
F76
  8
0
 10
135.398454
 20
77.201546
 30
2.0
 70
    64
  0
VERTEX
  5
F77
  8
0
 10
135.398454
 20
77.201546
 30
2.0
 70
    64
  0
VERTEX
  5
F78
  8
0
 10
136.898454
 20
74.60347
 30
2.0
 70
    64
  0
VERTEX
  5
F79
  8
0
 10
137.99653
 20
78.701546
 30
2.0
 70
    64
  0
VERTEX
  5
F7A
  8
0
 10
137.99653
 20
78.701546
 30
2.0
 70
    64
  0
VERTEX
  5
F7B
  8
0
 10
139.49653
 20
76.10347
 30
2.0
 70
    64
  0
SEQEND
  5
F7C
  8
0
  0
POLYLINE
  5
F7D
  8
0
 66
     1
 10
0.0
 20
0.0
 30
0.0
 70
    16
 71
     6
 72
     3
  0
VERTEX
  5
F7E
  8
0
 10
146.460631
 20
72.041292
 30
2.0
 70
    64
  0
VERTEX
  5
F7F
  8
0
 10
146.460631
 20
72.041292
 30
0.0
 70
    64
  0
VERTEX
  5
F80
  8
0
 10
146.460631
 20
72.041292
 30
0.0
 70
    64
  0
VERTEX
  5
F81
  8
0
 10
149.058708
 20
73.541292
 30
2.0
 70
    64
  0
VERTEX
  5
F82
  8
0
 10
149.058708
 20
73.541292
 30
0.0
 70
    64
  0
VERTEX
  5
F83
  8
0
 10
149.058708
 20
73.541292
 30
0.0
 70
    64
  0
VERTEX
  5
F84
  8
0
 10
147.558708
 20
76.139369
 30
2.0
 70
    64
  0
VERTEX
  5
F85
  8
0
 10
147.558708
 20
76.139369
 30
0.0
 70
    64
  0
VERTEX
  5
F86
  8
0
 10
149.058708
 20
73.541292
 30
0.0
 70
    64
  0
VERTEX
  5
F87
  8
0
 10
144.960631
 20
74.639369
 30
2.0
 70
    64
  0
VERTEX
  5
F88
  8
0
 10
144.960631
 20
74.639369
 30
0.0
 70
    64
  0
VERTEX
  5
F89
  8
0
 10
146.460631
 20
72.041292
 30
0.0
 70
    64
  0
VERTEX
  5
F8A
  8
0
 10
144.960631
 20
74.639369
 30
2.0
 70
    64
  0
VERTEX
  5
F8B
  8
0
 10
144.960631
 20
74.639369
 30
2.0
 70
    64
  0
VERTEX
  5
F8C
  8
0
 10
146.460631
 20
72.041292
 30
2.0
 70
    64
  0
VERTEX
  5
F8D
  8
0
 10
147.558708
 20
76.139369
 30
2.0
 70
    64
  0
VERTEX
  5
F8E
  8
0
 10
147.558708
 20
76.139369
 30
2.0
 70
    64
  0
VERTEX
  5
F8F
  8
0
 10
149.058708
 20
73.541292
 30
2.0
 70
    64
  0
SEQEND
  5
F90
  8
0
  0
POLYLINE
  5
F91
  8
0
 66
     1
 10
0.0
 20
0.0
 30
0.0
 70
    16
 71
     6
 72
     3
  0
VERTEX
  5
F92
  8
0
 10
156.022809
 20
69.479115
 30
2.0
 70
    64
  0
VERTEX
  5
F93
  8
0
 10
156.022809
 20
69.479115
 30
0.0
 70
    64
  0
VERTEX
  5
F94
  8
0
 10
156.022809
 20
69.479115
 30
0.0
 70
    64
  0
VERTEX
  5
F95
  8
0
 10
158.620885
 20
70.979115
 30
2.0
 70
    64
  0
VERTEX
  5
F96
  8
0
 10
158.620885
 20
70.979115
 30
0.0
 70
    64
  0
VERTEX
  5
F97
  8
0
 10
158.620885
 20
70.979115
 30
0.0
 70
    64
  0
VERTEX
  5
F98
  8
0
 10
157.120885
 20
73.577191
 30
2.0
 70
    64
  0
VERTEX
  5
F99
  8
0
 10
157.120885
 20
73.577191
 30
0.0
 70
    64
  0
VERTEX
  5
F9A
  8
0
 10
158.620885
 20
70.979115
 30
0.0
 70
    64
  0
VERTEX
  5
F9B
  8
0
 10
154.522809
 20
72.077191
 30
2.0
 70
    64
  0
VERTEX
  5
F9C
  8
0
 10
154.522809
 20
72.077191
 30
0.0
 70
    64
  0
VERTEX
  5
F9D
  8
0
 10
156.022809
 20
69.479115
 30
0.0
 70
    64
  0
VERTEX
  5
F9E
  8
0
 10
154.522809
 20
72.077191
 30
2.0
 70
    64
  0
VERTEX
  5
F9F
  8
0
 10
154.522809
 20
72.077191
 30
2.0
 70
    64
  0
VERTEX
  5
FA0
  8
0
 10
156.022809
 20
69.479115
 30
2.0
 70
    64
  0
VERTEX
  5
FA1
  8
0
 10
157.120885
 20
73.577191
 30
2.0
 70
    64
  0
VERTEX
  5
FA2
  8
0
 10
157.120885
 20
73.577191
 30
2.0
 70
    64
  0
VERTEX
  5
FA3
  8
0
 10
158.620885
 20
70.979115
 30
2.0
 70
    64
  0
SEQEND
  5
FA4
  8
0
  0
POLYLINE
  5
FA5
  8
0
 66
     1
 10
0.0
 20
0.0
 30
0.0
 70
    16
 71
     6
 72
     3
  0
VERTEX
  5
FA6
  8
0
 10
165.584987
 20
66.916937
 30
2.0
 70
    64
  0
VERTEX
  5
FA7
  8
0
 10
165.584987
 20
66.916937
 30
0.0
 70
    64
  0
VERTEX
  5
FA8
  8
0
 10
165.584987
 20
66.916937
 30
0.0
 70
    64
  0
VERTEX
  5
FA9
  8
0
 10
168.183063
 20
68.416937
 30
2.0
 70
    64
  0
VERTEX
  5
FAA
  8
0
 10
168.183063
 20
68.416937
 30
0.0
 70
    64
  0
VERTEX
  5
FAB
  8
0
 10
168.183063
 20
68.416937
 30
0.0
 70
    64
  0
VERTEX
  5
FAC
  8
0
 10
166.683063
 20
71.015013
 30
2.0
 70
    64
  0
VERTEX
  5
FAD
  8
0
 10
166.683063
 20
71.015013
 30
0.0
 70
    64
  0
VERTEX
  5
FAE
  8
0
 10
168.183063
 20
68.416937
 30
0.0
 70
    64
  0
VERTEX
  5
FAF
  8
0
 10
164.084987
 20
69.515013
 30
2.0
 70
    64
  0
VERTEX
  5
FB0
  8
0
 10
164.084987
 20
69.515013
 30
0.0
 70
    64
  0
VERTEX
  5
FB1
  8
0
 10
165.584987
 20
66.916937
 30
0.0
 70
    64
  0
VERTEX
  5
FB2
  8
0
 10
164.084987
 20
69.515013
 30
2.0
 70
    64
  0
VERTEX
  5
FB3
  8
0
 10
164.084987
 20
69.515013
 30
2.0
 70
    64
  0
VERTEX
  5
FB4
  8
0
 10
165.584987
 20
66.916937
 30
2.0
 70
    64
  0
VERTEX
  5
FB5
  8
0
 10
166.683063
 20
71.015013
 30
2.0
 70
    64
  0
VERTEX
  5
FB6
  8
0
 10
166.683063
 20
71.015013
 30
2.0
 70
    64
  0
VERTEX
  5
FB7
  8
0
 10
168.183063
 20
68.416937
 30
2.0
 70
    64
  0
SEQEND
  5
FB8
  8
0
  0
POLYLINE
  5
FB9
  8
0
 66
     1
 10
0.0
 20
0.0
 30
0.0
 70
    16
 71
     6
 72
     3
  0
VERTEX
  5
FBA
  8
0
 10
100.298454
 20
137.99653
 30
2.0
 70
    64
  0
VERTEX
  5
FBB
  8
0
 10
100.298454
 20
137.99653
 30
0.0
 70
    64
  0
VERTEX
  5
FBC
  8
0
 10
100.298454
 20
137.99653
 30
0.0
 70
    64
  0
VERTEX
  5
FBD
  8
0
 10
102.89653
 20
139.49653
 30
2.0
 70
    64
  0
VERTEX
  5
FBE
  8
0
 10
102.89653
 20
139.49653
 30
0.0
 70
    64
  0
VERTEX
  5
FBF
  8
0
 10
102.89653
 20
139.49653
 30
0.0
 70
    64
  0
VERTEX
  5
FC0
  8
0
 10
104.39653
 20
136.898454
 30
2.0
 70
    64
  0
VERTEX
  5
FC1
  8
0
 10
104.39653
 20
136.898454
 30
0.0
 70
    64
  0
VERTEX
  5
FC2
  8
0
 10
102.89653
 20
139.49653
 30
0.0
 70
    64
  0
VERTEX
  5
FC3
  8
0
 10
101.798454
 20
135.398454
 30
2.0
 70
    64
  0
VERTEX
  5
FC4
  8
0
 10
101.798454
 20
135.398454
 30
0.0
 70
    64
  0
VERTEX
  5
FC5
  8
0
 10
100.298454
 20
137.99653
 30
0.0
 70
    64
  0
VERTEX
  5
FC6
  8
0
 10
101.798454
 20
135.398454
 30
2.0
 70
    64
  0
VERTEX
  5
FC7
  8
0
 10
101.798454
 20
135.398454
 30
2.0
 70
    64
  0
VERTEX
  5
FC8
  8
0
 10
100.298454
 20
137.99653
 30
2.0
 70
    64
  0
VERTEX
  5
FC9
  8
0
 10
104.39653
 20
136.898454
 30
2.0
 70
    64
  0
VERTEX
  5
FCA
  8
0
 10
104.39653
 20
136.898454
 30
2.0
 70
    64
  0
VERTEX
  5
FCB
  8
0
 10
102.89653
 20
139.49653
 30
2.0
 70
    64
  0
SEQEND
  5
FCC
  8
0
  0
POLYLINE
  5
FCD
  8
0
 66
     1
 10
0.0
 20
0.0
 30
0.0
 70
    16
 71
     6
 72
     3
  0
VERTEX
  5
FCE
  8
0
 10
97.736276
 20
128.434352
 30
2.0
 70
    64
  0
VERTEX
  5
FCF
  8
0
 10
97.736276
 20
128.434352
 30
0.0
 70
    64
  0
VERTEX
  5
FD0
  8
0
 10
97.736276
 20
128.434352
 30
0.0
 70
    64
  0
VERTEX
  5
FD1
  8
0
 10
100.334352
 20
129.934352
 30
2.0
 70
    64
  0
VERTEX
  5
FD2
  8
0
 10
100.334352
 20
129.934352
 30
0.0
 70
    64
  0
VERTEX
  5
FD3
  8
0
 10
100.334352
 20
129.934352
 30
0.0
 70
    64
  0
VERTEX
  5
FD4
  8
0
 10
101.834352
 20
127.336276
 30
2.0
 70
    64
  0
VERTEX
  5
FD5
  8
0
 10
101.834352
 20
127.336276
 30
0.0
 70
    64
  0
VERTEX
  5
FD6
  8
0
 10
100.334352
 20
129.934352
 30
0.0
 70
    64
  0
VERTEX
  5
FD7
  8
0
 10
99.236276
 20
125.836276
 30
2.0
 70
    64
  0
VERTEX
  5
FD8
  8
0
 10
99.236276
 20
125.836276
 30
0.0
 70
    64
  0
VERTEX
  5
FD9
  8
0
 10
97.736276
 20
128.434352
 30
0.0
 70
    64
  0
VERTEX
  5
FDA
  8
0
 10
99.236276
 20
125.836276
 30
2.0
 70
    64
  0
VERTEX
  5
FDB
  8
0
 10
99.236276
 20
125.836276
 30
2.0
 70
    64
  0
VERTEX
  5
FDC
  8
0
 10
97.736276
 20
128.434352
 30
2.0
 70
    64
  0
VERTEX
  5
FDD
  8
0
 10
101.834352
 20
127.336276
 30
2.0
 70
    64
  0
VERTEX
  5
FDE
  8
0
 10
101.834352
 20
127.336276
 30
2.0
 70
    64
  0
VERTEX
  5
FDF
  8
0
 10
100.334352
 20
129.934352
 30
2.0
 70
    64
  0
SEQEND
  5
FE0
  8
0
  0
POLYLINE
  5
FE1
  8
0
 66
     1
 10
0.0
 20
0.0
 30
0.0
 70
    16
 71
     6
 72
     3
  0
VERTEX
  5
FE2
  8
0
 10
102.860631
 20
147.558708
 30
2.0
 70
    64
  0
VERTEX
  5
FE3
  8
0
 10
102.860631
 20
147.558708
 30
0.0
 70
    64
  0
VERTEX
  5
FE4
  8
0
 10
102.860631
 20
147.558708
 30
0.0
 70
    64
  0
VERTEX
  5
FE5
  8
0
 10
105.458708
 20
149.058708
 30
2.0
 70
    64
  0
VERTEX
  5
FE6
  8
0
 10
105.458708
 20
149.058708
 30
0.0
 70
    64
  0
VERTEX
  5
FE7
  8
0
 10
105.458708
 20
149.058708
 30
0.0
 70
    64
  0
VERTEX
  5
FE8
  8
0
 10
106.958708
 20
146.460631
 30
2.0
 70
    64
  0
VERTEX
  5
FE9
  8
0
 10
106.958708
 20
146.460631
 30
0.0
 70
    64
  0
VERTEX
  5
FEA
  8
0
 10
105.458708
 20
149.058708
 30
0.0
 70
    64
  0
VERTEX
  5
FEB
  8
0
 10
104.360631
 20
144.960631
 30
2.0
 70
    64
  0
VERTEX
  5
FEC
  8
0
 10
104.360631
 20
144.960631
 30
0.0
 70
    64
  0
VERTEX
  5
FED
  8
0
 10
102.860631
 20
147.558708
 30
0.0
 70
    64
  0
VERTEX
  5
FEE
  8
0
 10
104.360631
 20
144.960631
 30
2.0
 70
    64
  0
VERTEX
  5
FEF
  8
0
 10
104.360631
 20
144.960631
 30
2.0
 70
    64
  0
VERTEX
  5
FF0
  8
0
 10
102.860631
 20
147.558708
 30
2.0
 70
    64
  0
VERTEX
  5
FF1
  8
0
 10
106.958708
 20
146.460631
 30
2.0
 70
    64
  0
VERTEX
  5
FF2
  8
0
 10
106.958708
 20
146.460631
 30
2.0
 70
    64
  0
VERTEX
  5
FF3
  8
0
 10
105.458708
 20
149.058708
 30
2.0
 70
    64
  0
SEQEND
  5
FF4
  8
0
  0
POLYLINE
  5
FF5
  8
0
 66
     1
 10
0.0
 20
0.0
 30
0.0
 70
    16
 71
     6
 72
     3
  0
VERTEX
  5
FF6
  8
0
 10
105.422809
 20
157.120885
 30
2.0
 70
    64
  0
VERTEX
  5
FF7
  8
0
 10
105.422809
 20
157.120885
 30
0.0
 70
    64
  0
VERTEX
  5
FF8
  8
0
 10
105.422809
 20
157.120885
 30
0.0
 70
    64
  0
VERTEX
  5
FF9
  8
0
 10
108.020885
 20
158.620885
 30
2.0
 70
    64
  0
VERTEX
  5
FFA
  8
0
 10
108.020885
 20
158.620885
 30
0.0
 70
    64
  0
VERTEX
  5
FFB
  8
0
 10
108.020885
 20
158.620885
 30
0.0
 70
    64
  0
VERTEX
  5
FFC
  8
0
 10
109.520885
 20
156.022809
 30
2.0
 70
    64
  0
VERTEX
  5
FFD
  8
0
 10
109.520885
 20
156.022809
 30
0.0
 70
    64
  0
VERTEX
  5
FFE
  8
0
 10
108.020885
 20
158.620885
 30
0.0
 70
    64
  0
VERTEX
  5
FFF
  8
0
 10
106.922809
 20
154.522809
 30
2.0
 70
    64
  0
VERTEX
  5
1000
  8
0
 10
106.922809
 20
154.522809
 30
0.0
 70
    64
  0
VERTEX
  5
1001
  8
0
 10
105.422809
 20
157.120885
 30
0.0
 70
    64
  0
VERTEX
  5
1002
  8
0
 10
106.922809
 20
154.522809
 30
2.0
 70
    64
  0
VERTEX
  5
1003
  8
0
 10
106.922809
 20
154.522809
 30
2.0
 70
    64
  0
VERTEX
  5
1004
  8
0
 10
105.422809
 20
157.120885
 30
2.0
 70
    64
  0
VERTEX
  5
1005
  8
0
 10
109.520885
 20
156.022809
 30
2.0
 70
    64
  0
VERTEX
  5
1006
  8
0
 10
109.520885
 20
156.022809
 30
2.0
 70
    64
  0
VERTEX
  5
1007
  8
0
 10
108.020885
 20
158.620885
 30
2.0
 70
    64
  0
SEQEND
  5
1008
  8
0
  0
POLYLINE
  5
1009
  8
0
 66
     1
 10
0.0
 20
0.0
 30
0.0
 70
    16
 71
     6
 72
     3
  0
VERTEX
  5
100A
  8
0
 10
107.984987
 20
166.683063
 30
2.0
 70
    64
  0
VERTEX
  5
100B
  8
0
 10
107.984987
 20
166.683063
 30
0.0
 70
    64
  0
VERTEX
  5
100C
  8
0
 10
107.984987
 20
166.683063
 30
0.0
 70
    64
  0
VERTEX
  5
100D
  8
0
 10
110.583063
 20
168.183063
 30
2.0
 70
    64
  0
VERTEX
  5
100E
  8
0
 10
110.583063
 20
168.183063
 30
0.0
 70
    64
  0
VERTEX
  5
100F
  8
0
 10
110.583063
 20
168.183063
 30
0.0
 70
    64
  0
VERTEX
  5
1010
  8
0
 10
112.083063
 20
165.584987
 30
2.0
 70
    64
  0
VERTEX
  5
1011
  8
0
 10
112.083063
 20
165.584987
 30
0.0
 70
    64
  0
VERTEX
  5
1012
  8
0
 10
110.583063
 20
168.183063
 30
0.0
 70
    64
  0
VERTEX
  5
1013
  8
0
 10
109.484987
 20
164.084987
 30
2.0
 70
    64
  0
VERTEX
  5
1014
  8
0
 10
109.484987
 20
164.084987
 30
0.0
 70
    64
  0
VERTEX
  5
1015
  8
0
 10
107.984987
 20
166.683063
 30
0.0
 70
    64
  0
VERTEX
  5
1016
  8
0
 10
109.484987
 20
164.084987
 30
2.0
 70
    64
  0
VERTEX
  5
1017
  8
0
 10
109.484987
 20
164.084987
 30
2.0
 70
    64
  0
VERTEX
  5
1018
  8
0
 10
107.984987
 20
166.683063
 30
2.0
 70
    64
  0
VERTEX
  5
1019
  8
0
 10
112.083063
 20
165.584987
 30
2.0
 70
    64
  0
VERTEX
  5
101A
  8
0
 10
112.083063
 20
165.584987
 30
2.0
 70
    64
  0
VERTEX
  5
101B
  8
0
 10
110.583063
 20
168.183063
 30
2.0
 70
    64
  0
SEQEND
  5
101C
  8
0
  0
POLYLINE
  5
101D
  8
0
 66
     1
 10
0.0
 20
0.0
 30
0.0
 70
    16
 71
     6
 72
     3
  0
VERTEX
  5
101E
  8
0
 10
87.37868
 20
119.339906
 30
2.0
 70
    64
  0
VERTEX
  5
101F
  8
0
 10
87.37868
 20
119.339906
 30
0.0
 70
    64
  0
VERTEX
  5
1020
  8
0
 10
87.37868
 20
119.339906
 30
0.0
 70
    64
  0
VERTEX
  5
1021
  8
0
 10
89.5
 20
121.461227
 30
2.0
 70
    64
  0
VERTEX
  5
1022
  8
0
 10
89.5
 20
121.461227
 30
0.0
 70
    64
  0
VERTEX
  5
1023
  8
0
 10
89.5
 20
121.461227
 30
0.0
 70
    64
  0
VERTEX
  5
1024
  8
0
 10
91.62132
 20
119.339906
 30
2.0
 70
    64
  0
VERTEX
  5
1025
  8
0
 10
91.62132
 20
119.339906
 30
0.0
 70
    64
  0
VERTEX
  5
1026
  8
0
 10
89.5
 20
121.461227
 30
0.0
 70
    64
  0
VERTEX
  5
1027
  8
0
 10
89.5
 20
117.218586
 30
2.0
 70
    64
  0
VERTEX
  5
1028
  8
0
 10
89.5
 20
117.218586
 30
0.0
 70
    64
  0
VERTEX
  5
1029
  8
0
 10
87.37868
 20
119.339906
 30
0.0
 70
    64
  0
VERTEX
  5
102A
  8
0
 10
89.5
 20
117.218586
 30
2.0
 70
    64
  0
VERTEX
  5
102B
  8
0
 10
89.5
 20
117.218586
 30
2.0
 70
    64
  0
VERTEX
  5
102C
  8
0
 10
87.37868
 20
119.339906
 30
2.0
 70
    64
  0
VERTEX
  5
102D
  8
0
 10
91.62132
 20
119.339906
 30
2.0
 70
    64
  0
VERTEX
  5
102E
  8
0
 10
91.62132
 20
119.339906
 30
2.0
 70
    64
  0
VERTEX
  5
102F
  8
0
 10
89.5
 20
121.461227
 30
2.0
 70
    64
  0
SEQEND
  5
1030
  8
0
  0
POLYLINE
  5
1031
  8
0
 66
     1
 10
0.0
 20
0.0
 30
0.0
 70
    16
 71
     6
 72
     3
  0
VERTEX
  5
1032
  8
0
 10
69.559589
 20
91.62132
 30
2.0
 70
    64
  0
VERTEX
  5
1033
  8
0
 10
69.559589
 20
91.62132
 30
0.0
 70
    64
  0
VERTEX
  5
1034
  8
0
 10
69.559589
 20
91.62132
 30
0.0
 70
    64
  0
VERTEX
  5
1035
  8
0
 10
67.438268
 20
89.5
 30
2.0
 70
    64
  0
VERTEX
  5
1036
  8
0
 10
67.438268
 20
89.5
 30
0.0
 70
    64
  0
VERTEX
  5
1037
  8
0
 10
67.438268
 20
89.5
 30
0.0
 70
    64
  0
VERTEX
  5
1038
  8
0
 10
69.559589
 20
87.37868
 30
2.0
 70
    64
  0
VERTEX
  5
1039
  8
0
 10
69.559589
 20
87.37868
 30
0.0
 70
    64
  0
VERTEX
  5
103A
  8
0
 10
67.438268
 20
89.5
 30
0.0
 70
    64
  0
VERTEX
  5
103B
  8
0
 10
71.680909
 20
89.5
 30
2.0
 70
    64
  0
VERTEX
  5
103C
  8
0
 10
71.680909
 20
89.5
 30
0.0
 70
    64
  0
VERTEX
  5
103D
  8
0
 10
69.559589
 20
91.62132
 30
0.0
 70
    64
  0
VERTEX
  5
103E
  8
0
 10
71.680909
 20
89.5
 30
2.0
 70
    64
  0
VERTEX
  5
103F
  8
0
 10
71.680909
 20
89.5
 30
2.0
 70
    64
  0
VERTEX
  5
1040
  8
0
 10
69.559589
 20
91.62132
 30
2.0
 70
    64
  0
VERTEX
  5
1041
  8
0
 10
69.559589
 20
87.37868
 30
2.0
 70
    64
  0
VERTEX
  5
1042
  8
0
 10
69.559589
 20
87.37868
 30
2.0
 70
    64
  0
VERTEX
  5
1043
  8
0
 10
67.438268
 20
89.5
 30
2.0
 70
    64
  0
SEQEND
  5
1044
  8
0
  0
POLYLINE
  5
1045
  8
0
 66
     1
 10
0.0
 20
0.0
 30
0.0
 70
    16
 71
     6
 72
     3
  0
VERTEX
  5
1046
  8
0
 10
10.162619
 20
91.62132
 30
2.0
 70
    64
  0
VERTEX
  5
1047
  8
0
 10
10.162619
 20
91.62132
 30
0.0
 70
    64
  0
VERTEX
  5
1048
  8
0
 10
10.162619
 20
91.62132
 30
0.0
 70
    64
  0
VERTEX
  5
1049
  8
0
 10
8.041299
 20
89.5
 30
2.0
 70
    64
  0
VERTEX
  5
104A
  8
0
 10
8.041299
 20
89.5
 30
0.0
 70
    64
  0
VERTEX
  5
104B
  8
0
 10
8.041299
 20
89.5
 30
0.0
 70
    64
  0
VERTEX
  5
104C
  8
0
 10
10.162619
 20
87.37868
 30
2.0
 70
    64
  0
VERTEX
  5
104D
  8
0
 10
10.162619
 20
87.37868
 30
0.0
 70
    64
  0
VERTEX
  5
104E
  8
0
 10
8.041299
 20
89.5
 30
0.0
 70
    64
  0
VERTEX
  5
104F
  8
0
 10
12.283939
 20
89.5
 30
2.0
 70
    64
  0
VERTEX
  5
1050
  8
0
 10
12.283939
 20
89.5
 30
0.0
 70
    64
  0
VERTEX
  5
1051
  8
0
 10
10.162619
 20
91.62132
 30
0.0
 70
    64
  0
VERTEX
  5
1052
  8
0
 10
12.283939
 20
89.5
 30
2.0
 70
    64
  0
VERTEX
  5
1053
  8
0
 10
12.283939
 20
89.5
 30
2.0
 70
    64
  0
VERTEX
  5
1054
  8
0
 10
10.162619
 20
91.62132
 30
2.0
 70
    64
  0
VERTEX
  5
1055
  8
0
 10
10.162619
 20
87.37868
 30
2.0
 70
    64
  0
VERTEX
  5
1056
  8
0
 10
10.162619
 20
87.37868
 30
2.0
 70
    64
  0
VERTEX
  5
1057
  8
0
 10
8.041299
 20
89.5
 30
2.0
 70
    64
  0
SEQEND
  5
1058
  8
0
  0
POLYLINE
  5
1059
  8
0
 66
     1
 10
0.0
 20
0.0
 30
0.0
 70
    16
 71
     6
 72
     3
  0
VERTEX
  5
105A
  8
0
 10
39.861104
 20
91.62132
 30
2.0
 70
    64
  0
VERTEX
  5
105B
  8
0
 10
39.861104
 20
91.62132
 30
0.0
 70
    64
  0
VERTEX
  5
105C
  8
0
 10
39.861104
 20
91.62132
 30
0.0
 70
    64
  0
VERTEX
  5
105D
  8
0
 10
37.739784
 20
89.5
 30
2.0
 70
    64
  0
VERTEX
  5
105E
  8
0
 10
37.739784
 20
89.5
 30
0.0
 70
    64
  0
VERTEX
  5
105F
  8
0
 10
37.739784
 20
89.5
 30
0.0
 70
    64
  0
VERTEX
  5
1060
  8
0
 10
39.861104
 20
87.37868
 30
2.0
 70
    64
  0
VERTEX
  5
1061
  8
0
 10
39.861104
 20
87.37868
 30
0.0
 70
    64
  0
VERTEX
  5
1062
  8
0
 10
37.739784
 20
89.5
 30
0.0
 70
    64
  0
VERTEX
  5
1063
  8
0
 10
41.982424
 20
89.5
 30
2.0
 70
    64
  0
VERTEX
  5
1064
  8
0
 10
41.982424
 20
89.5
 30
0.0
 70
    64
  0
VERTEX
  5
1065
  8
0
 10
39.861104
 20
91.62132
 30
0.0
 70
    64
  0
VERTEX
  5
1066
  8
0
 10
41.982424
 20
89.5
 30
2.0
 70
    64
  0
VERTEX
  5
1067
  8
0
 10
41.982424
 20
89.5
 30
2.0
 70
    64
  0
VERTEX
  5
1068
  8
0
 10
39.861104
 20
91.62132
 30
2.0
 70
    64
  0
VERTEX
  5
1069
  8
0
 10
39.861104
 20
87.37868
 30
2.0
 70
    64
  0
VERTEX
  5
106A
  8
0
 10
39.861104
 20
87.37868
 30
2.0
 70
    64
  0
VERTEX
  5
106B
  8
0
 10
37.739784
 20
89.5
 30
2.0
 70
    64
  0
SEQEND
  5
106C
  8
0
  0
POLYLINE
  5
106D
  8
0
 66
     1
 10
0.0
 20
0.0
 30
0.0
 70
    16
 71
     6
 72
     3
  0
VERTEX
  5
106E
  8
0
 10
20.062114
 20
91.62132
 30
2.0
 70
    64
  0
VERTEX
  5
106F
  8
0
 10
20.062114
 20
91.62132
 30
0.0
 70
    64
  0
VERTEX
  5
1070
  8
0
 10
20.062114
 20
91.62132
 30
0.0
 70
    64
  0
VERTEX
  5
1071
  8
0
 10
17.940794
 20
89.5
 30
2.0
 70
    64
  0
VERTEX
  5
1072
  8
0
 10
17.940794
 20
89.5
 30
0.0
 70
    64
  0
VERTEX
  5
1073
  8
0
 10
17.940794
 20
89.5
 30
0.0
 70
    64
  0
VERTEX
  5
1074
  8
0
 10
20.062114
 20
87.37868
 30
2.0
 70
    64
  0
VERTEX
  5
1075
  8
0
 10
20.062114
 20
87.37868
 30
0.0
 70
    64
  0
VERTEX
  5
1076
  8
0
 10
17.940794
 20
89.5
 30
0.0
 70
    64
  0
VERTEX
  5
1077
  8
0
 10
22.183434
 20
89.5
 30
2.0
 70
    64
  0
VERTEX
  5
1078
  8
0
 10
22.183434
 20
89.5
 30
0.0
 70
    64
  0
VERTEX
  5
1079
  8
0
 10
20.062114
 20
91.62132
 30
0.0
 70
    64
  0
VERTEX
  5
107A
  8
0
 10
22.183434
 20
89.5
 30
2.0
 70
    64
  0
VERTEX
  5
107B
  8
0
 10
22.183434
 20
89.5
 30
2.0
 70
    64
  0
VERTEX
  5
107C
  8
0
 10
20.062114
 20
91.62132
 30
2.0
 70
    64
  0
VERTEX
  5
107D
  8
0
 10
20.062114
 20
87.37868
 30
2.0
 70
    64
  0
VERTEX
  5
107E
  8
0
 10
20.062114
 20
87.37868
 30
2.0
 70
    64
  0
VERTEX
  5
107F
  8
0
 10
17.940794
 20
89.5
 30
2.0
 70
    64
  0
SEQEND
  5
1080
  8
0
  0
POLYLINE
  5
1081
  8
0
 66
     1
 10
0.0
 20
0.0
 30
0.0
 70
    16
 71
     6
 72
     3
  0
VERTEX
  5
1082
  8
0
 10
29.961609
 20
91.62132
 30
2.0
 70
    64
  0
VERTEX
  5
1083
  8
0
 10
29.961609
 20
91.62132
 30
0.0
 70
    64
  0
VERTEX
  5
1084
  8
0
 10
29.961609
 20
91.62132
 30
0.0
 70
    64
  0
VERTEX
  5
1085
  8
0
 10
27.840289
 20
89.5
 30
2.0
 70
    64
  0
VERTEX
  5
1086
  8
0
 10
27.840289
 20
89.5
 30
0.0
 70
    64
  0
VERTEX
  5
1087
  8
0
 10
27.840289
 20
89.5
 30
0.0
 70
    64
  0
VERTEX
  5
1088
  8
0
 10
29.961609
 20
87.37868
 30
2.0
 70
    64
  0
VERTEX
  5
1089
  8
0
 10
29.961609
 20
87.37868
 30
0.0
 70
    64
  0
VERTEX
  5
108A
  8
0
 10
27.840289
 20
89.5
 30
0.0
 70
    64
  0
VERTEX
  5
108B
  8
0
 10
32.082929
 20
89.5
 30
2.0
 70
    64
  0
VERTEX
  5
108C
  8
0
 10
32.082929
 20
89.5
 30
0.0
 70
    64
  0
VERTEX
  5
108D
  8
0
 10
29.961609
 20
91.62132
 30
0.0
 70
    64
  0
VERTEX
  5
108E
  8
0
 10
32.082929
 20
89.5
 30
2.0
 70
    64
  0
VERTEX
  5
108F
  8
0
 10
32.082929
 20
89.5
 30
2.0
 70
    64
  0
VERTEX
  5
1090
  8
0
 10
29.961609
 20
91.62132
 30
2.0
 70
    64
  0
VERTEX
  5
1091
  8
0
 10
29.961609
 20
87.37868
 30
2.0
 70
    64
  0
VERTEX
  5
1092
  8
0
 10
29.961609
 20
87.37868
 30
2.0
 70
    64
  0
VERTEX
  5
1093
  8
0
 10
27.840289
 20
89.5
 30
2.0
 70
    64
  0
SEQEND
  5
1094
  8
0
  0
POLYLINE
  5
1095
  8
0
 66
     1
 10
0.0
 20
0.0
 30
0.0
 70
    16
 71
     6
 72
     3
  0
VERTEX
  5
1096
  8
0
 10
49.760599
 20
91.62132
 30
2.0
 70
    64
  0
VERTEX
  5
1097
  8
0
 10
49.760599
 20
91.62132
 30
0.0
 70
    64
  0
VERTEX
  5
1098
  8
0
 10
49.760599
 20
91.62132
 30
0.0
 70
    64
  0
VERTEX
  5
1099
  8
0
 10
47.639279
 20
89.5
 30
2.0
 70
    64
  0
VERTEX
  5
109A
  8
0
 10
47.639279
 20
89.5
 30
0.0
 70
    64
  0
VERTEX
  5
109B
  8
0
 10
47.639279
 20
89.5
 30
0.0
 70
    64
  0
VERTEX
  5
109C
  8
0
 10
49.760599
 20
87.37868
 30
2.0
 70
    64
  0
VERTEX
  5
109D
  8
0
 10
49.760599
 20
87.37868
 30
0.0
 70
    64
  0
VERTEX
  5
109E
  8
0
 10
47.639279
 20
89.5
 30
0.0
 70
    64
  0
VERTEX
  5
109F
  8
0
 10
51.881919
 20
89.5
 30
2.0
 70
    64
  0
VERTEX
  5
10A0
  8
0
 10
51.881919
 20
89.5
 30
0.0
 70
    64
  0
VERTEX
  5
10A1
  8
0
 10
49.760599
 20
91.62132
 30
0.0
 70
    64
  0
VERTEX
  5
10A2
  8
0
 10
51.881919
 20
89.5
 30
2.0
 70
    64
  0
VERTEX
  5
10A3
  8
0
 10
51.881919
 20
89.5
 30
2.0
 70
    64
  0
VERTEX
  5
10A4
  8
0
 10
49.760599
 20
91.62132
 30
2.0
 70
    64
  0
VERTEX
  5
10A5
  8
0
 10
49.760599
 20
87.37868
 30
2.0
 70
    64
  0
VERTEX
  5
10A6
  8
0
 10
49.760599
 20
87.37868
 30
2.0
 70
    64
  0
VERTEX
  5
10A7
  8
0
 10
47.639279
 20
89.5
 30
2.0
 70
    64
  0
SEQEND
  5
10A8
  8
0
  0
POLYLINE
  5
10A9
  8
0
 66
     1
 10
0.0
 20
0.0
 30
0.0
 70
    16
 71
     6
 72
     3
  0
VERTEX
  5
10AA
  8
0
 10
59.660094
 20
91.62132
 30
2.0
 70
    64
  0
VERTEX
  5
10AB
  8
0
 10
59.660094
 20
91.62132
 30
0.0
 70
    64
  0
VERTEX
  5
10AC
  8
0
 10
59.660094
 20
91.62132
 30
0.0
 70
    64
  0
VERTEX
  5
10AD
  8
0
 10
57.538773
 20
89.5
 30
2.0
 70
    64
  0
VERTEX
  5
10AE
  8
0
 10
57.538773
 20
89.5
 30
0.0
 70
    64
  0
VERTEX
  5
10AF
  8
0
 10
57.538773
 20
89.5
 30
0.0
 70
    64
  0
VERTEX
  5
10B0
  8
0
 10
59.660094
 20
87.37868
 30
2.0
 70
    64
  0
VERTEX
  5
10B1
  8
0
 10
59.660094
 20
87.37868
 30
0.0
 70
    64
  0
VERTEX
  5
10B2
  8
0
 10
57.538773
 20
89.5
 30
0.0
 70
    64
  0
VERTEX
  5
10B3
  8
0
 10
61.781414
 20
89.5
 30
2.0
 70
    64
  0
VERTEX
  5
10B4
  8
0
 10
61.781414
 20
89.5
 30
0.0
 70
    64
  0
VERTEX
  5
10B5
  8
0
 10
59.660094
 20
91.62132
 30
0.0
 70
    64
  0
VERTEX
  5
10B6
  8
0
 10
61.781414
 20
89.5
 30
2.0
 70
    64
  0
VERTEX
  5
10B7
  8
0
 10
61.781414
 20
89.5
 30
2.0
 70
    64
  0
VERTEX
  5
10B8
  8
0
 10
59.660094
 20
91.62132
 30
2.0
 70
    64
  0
VERTEX
  5
10B9
  8
0
 10
59.660094
 20
87.37868
 30
2.0
 70
    64
  0
VERTEX
  5
10BA
  8
0
 10
59.660094
 20
87.37868
 30
2.0
 70
    64
  0
VERTEX
  5
10BB
  8
0
 10
57.538773
 20
89.5
 30
2.0
 70
    64
  0
SEQEND
  5
10BC
  8
0
  0
POLYLINE
  5
10BD
  8
0
 66
     1
 10
0.0
 20
0.0
 30
0.0
 70
    16
 71
     6
 72
     3
  0
VERTEX
  5
10BE
  8
0
 10
91.62132
 20
29.961609
 30
2.0
 70
    64
  0
VERTEX
  5
10BF
  8
0
 10
91.62132
 20
29.961609
 30
0.0
 70
    64
  0
VERTEX
  5
10C0
  8
0
 10
91.62132
 20
29.961609
 30
0.0
 70
    64
  0
VERTEX
  5
10C1
  8
0
 10
89.5
 20
27.840289
 30
2.0
 70
    64
  0
VERTEX
  5
10C2
  8
0
 10
89.5
 20
27.840289
 30
0.0
 70
    64
  0
VERTEX
  5
10C3
  8
0
 10
89.5
 20
27.840289
 30
0.0
 70
    64
  0
VERTEX
  5
10C4
  8
0
 10
87.37868
 20
29.961609
 30
2.0
 70
    64
  0
VERTEX
  5
10C5
  8
0
 10
87.37868
 20
29.961609
 30
0.0
 70
    64
  0
VERTEX
  5
10C6
  8
0
 10
89.5
 20
27.840289
 30
0.0
 70
    64
  0
VERTEX
  5
10C7
  8
0
 10
89.5
 20
32.082929
 30
2.0
 70
    64
  0
VERTEX
  5
10C8
  8
0
 10
89.5
 20
32.082929
 30
0.0
 70
    64
  0
VERTEX
  5
10C9
  8
0
 10
91.62132
 20
29.961609
 30
0.0
 70
    64
  0
VERTEX
  5
10CA
  8
0
 10
89.5
 20
32.082929
 30
2.0
 70
    64
  0
VERTEX
  5
10CB
  8
0
 10
89.5
 20
32.082929
 30
2.0
 70
    64
  0
VERTEX
  5
10CC
  8
0
 10
91.62132
 20
29.961609
 30
2.0
 70
    64
  0
VERTEX
  5
10CD
  8
0
 10
87.37868
 20
29.961609
 30
2.0
 70
    64
  0
VERTEX
  5
10CE
  8
0
 10
87.37868
 20
29.961609
 30
2.0
 70
    64
  0
VERTEX
  5
10CF
  8
0
 10
89.5
 20
27.840289
 30
2.0
 70
    64
  0
SEQEND
  5
10D0
  8
0
  0
POLYLINE
  5
10D1
  8
0
 66
     1
 10
0.0
 20
0.0
 30
0.0
 70
    16
 71
     6
 72
     3
  0
VERTEX
  5
10D2
  8
0
 10
91.62132
 20
10.162619
 30
2.0
 70
    64
  0
VERTEX
  5
10D3
  8
0
 10
91.62132
 20
10.162619
 30
0.0
 70
    64
  0
VERTEX
  5
10D4
  8
0
 10
91.62132
 20
10.162619
 30
0.0
 70
    64
  0
VERTEX
  5
10D5
  8
0
 10
89.5
 20
8.041299
 30
2.0
 70
    64
  0
VERTEX
  5
10D6
  8
0
 10
89.5
 20
8.041299
 30
0.0
 70
    64
  0
VERTEX
  5
10D7
  8
0
 10
89.5
 20
8.041299
 30
0.0
 70
    64
  0
VERTEX
  5
10D8
  8
0
 10
87.37868
 20
10.162619
 30
2.0
 70
    64
  0
VERTEX
  5
10D9
  8
0
 10
87.37868
 20
10.162619
 30
0.0
 70
    64
  0
VERTEX
  5
10DA
  8
0
 10
89.5
 20
8.041299
 30
0.0
 70
    64
  0
VERTEX
  5
10DB
  8
0
 10
89.5
 20
12.283939
 30
2.0
 70
    64
  0
VERTEX
  5
10DC
  8
0
 10
89.5
 20
12.283939
 30
0.0
 70
    64
  0
VERTEX
  5
10DD
  8
0
 10
91.62132
 20
10.162619
 30
0.0
 70
    64
  0
VERTEX
  5
10DE
  8
0
 10
89.5
 20
12.283939
 30
2.0
 70
    64
  0
VERTEX
  5
10DF
  8
0
 10
89.5
 20
12.283939
 30
2.0
 70
    64
  0
VERTEX
  5
10E0
  8
0
 10
91.62132
 20
10.162619
 30
2.0
 70
    64
  0
VERTEX
  5
10E1
  8
0
 10
87.37868
 20
10.162619
 30
2.0
 70
    64
  0
VERTEX
  5
10E2
  8
0
 10
87.37868
 20
10.162619
 30
2.0
 70
    64
  0
VERTEX
  5
10E3
  8
0
 10
89.5
 20
8.041299
 30
2.0
 70
    64
  0
SEQEND
  5
10E4
  8
0
  0
POLYLINE
  5
10E5
  8
0
 66
     1
 10
0.0
 20
0.0
 30
0.0
 70
    16
 71
     6
 72
     3
  0
VERTEX
  5
10E6
  8
0
 10
91.62132
 20
20.062114
 30
2.0
 70
    64
  0
VERTEX
  5
10E7
  8
0
 10
91.62132
 20
20.062114
 30
0.0
 70
    64
  0
VERTEX
  5
10E8
  8
0
 10
91.62132
 20
20.062114
 30
0.0
 70
    64
  0
VERTEX
  5
10E9
  8
0
 10
89.5
 20
17.940794
 30
2.0
 70
    64
  0
VERTEX
  5
10EA
  8
0
 10
89.5
 20
17.940794
 30
0.0
 70
    64
  0
VERTEX
  5
10EB
  8
0
 10
89.5
 20
17.940794
 30
0.0
 70
    64
  0
VERTEX
  5
10EC
  8
0
 10
87.37868
 20
20.062114
 30
2.0
 70
    64
  0
VERTEX
  5
10ED
  8
0
 10
87.37868
 20
20.062114
 30
0.0
 70
    64
  0
VERTEX
  5
10EE
  8
0
 10
89.5
 20
17.940794
 30
0.0
 70
    64
  0
VERTEX
  5
10EF
  8
0
 10
89.5
 20
22.183434
 30
2.0
 70
    64
  0
VERTEX
  5
10F0
  8
0
 10
89.5
 20
22.183434
 30
0.0
 70
    64
  0
VERTEX
  5
10F1
  8
0
 10
91.62132
 20
20.062114
 30
0.0
 70
    64
  0
VERTEX
  5
10F2
  8
0
 10
89.5
 20
22.183434
 30
2.0
 70
    64
  0
VERTEX
  5
10F3
  8
0
 10
89.5
 20
22.183434
 30
2.0
 70
    64
  0
VERTEX
  5
10F4
  8
0
 10
91.62132
 20
20.062114
 30
2.0
 70
    64
  0
VERTEX
  5
10F5
  8
0
 10
87.37868
 20
20.062114
 30
2.0
 70
    64
  0
VERTEX
  5
10F6
  8
0
 10
87.37868
 20
20.062114
 30
2.0
 70
    64
  0
VERTEX
  5
10F7
  8
0
 10
89.5
 20
17.940794
 30
2.0
 70
    64
  0
SEQEND
  5
10F8
  8
0
  0
POLYLINE
  5
10F9
  8
0
 66
     1
 10
0.0
 20
0.0
 30
0.0
 70
    16
 71
     6
 72
     3
  0
VERTEX
  5
10FA
  8
0
 10
129.239401
 20
87.37868
 30
2.0
 70
    64
  0
VERTEX
  5
10FB
  8
0
 10
129.239401
 20
87.37868
 30
0.0
 70
    64
  0
VERTEX
  5
10FC
  8
0
 10
129.239401
 20
87.37868
 30
0.0
 70
    64
  0
VERTEX
  5
10FD
  8
0
 10
131.360721
 20
89.5
 30
2.0
 70
    64
  0
VERTEX
  5
10FE
  8
0
 10
131.360721
 20
89.5
 30
0.0
 70
    64
  0
VERTEX
  5
10FF
  8
0
 10
131.360721
 20
89.5
 30
0.0
 70
    64
  0
VERTEX
  5
1100
  8
0
 10
129.239401
 20
91.62132
 30
2.0
 70
    64
  0
VERTEX
  5
1101
  8
0
 10
129.239401
 20
91.62132
 30
0.0
 70
    64
  0
VERTEX
  5
1102
  8
0
 10
131.360721
 20
89.5
 30
0.0
 70
    64
  0
VERTEX
  5
1103
  8
0
 10
127.118081
 20
89.5
 30
2.0
 70
    64
  0
VERTEX
  5
1104
  8
0
 10
127.118081
 20
89.5
 30
0.0
 70
    64
  0
VERTEX
  5
1105
  8
0
 10
129.239401
 20
87.37868
 30
0.0
 70
    64
  0
VERTEX
  5
1106
  8
0
 10
127.118081
 20
89.5
 30
2.0
 70
    64
  0
VERTEX
  5
1107
  8
0
 10
127.118081
 20
89.5
 30
2.0
 70
    64
  0
VERTEX
  5
1108
  8
0
 10
129.239401
 20
87.37868
 30
2.0
 70
    64
  0
VERTEX
  5
1109
  8
0
 10
129.239401
 20
91.62132
 30
2.0
 70
    64
  0
VERTEX
  5
110A
  8
0
 10
129.239401
 20
91.62132
 30
2.0
 70
    64
  0
VERTEX
  5
110B
  8
0
 10
131.360721
 20
89.5
 30
2.0
 70
    64
  0
SEQEND
  5
110C
  8
0
  0
POLYLINE
  5
110D
  8
0
 66
     1
 10
0.0
 20
0.0
 30
0.0
 70
    16
 71
     6
 72
     3
  0
VERTEX
  5
110E
  8
0
 10
91.62132
 20
39.861104
 30
2.0
 70
    64
  0
VERTEX
  5
110F
  8
0
 10
91.62132
 20
39.861104
 30
0.0
 70
    64
  0
VERTEX
  5
1110
  8
0
 10
91.62132
 20
39.861104
 30
0.0
 70
    64
  0
VERTEX
  5
1111
  8
0
 10
89.5
 20
37.739784
 30
2.0
 70
    64
  0
VERTEX
  5
1112
  8
0
 10
89.5
 20
37.739784
 30
0.0
 70
    64
  0
VERTEX
  5
1113
  8
0
 10
89.5
 20
37.739784
 30
0.0
 70
    64
  0
VERTEX
  5
1114
  8
0
 10
87.37868
 20
39.861104
 30
2.0
 70
    64
  0
VERTEX
  5
1115
  8
0
 10
87.37868
 20
39.861104
 30
0.0
 70
    64
  0
VERTEX
  5
1116
  8
0
 10
89.5
 20
37.739784
 30
0.0
 70
    64
  0
VERTEX
  5
1117
  8
0
 10
89.5
 20
41.982424
 30
2.0
 70
    64
  0
VERTEX
  5
1118
  8
0
 10
89.5
 20
41.982424
 30
0.0
 70
    64
  0
VERTEX
  5
1119
  8
0
 10
91.62132
 20
39.861104
 30
0.0
 70
    64
  0
VERTEX
  5
111A
  8
0
 10
89.5
 20
41.982424
 30
2.0
 70
    64
  0
VERTEX
  5
111B
  8
0
 10
89.5
 20
41.982424
 30
2.0
 70
    64
  0
VERTEX
  5
111C
  8
0
 10
91.62132
 20
39.861104
 30
2.0
 70
    64
  0
VERTEX
  5
111D
  8
0
 10
87.37868
 20
39.861104
 30
2.0
 70
    64
  0
VERTEX
  5
111E
  8
0
 10
87.37868
 20
39.861104
 30
2.0
 70
    64
  0
VERTEX
  5
111F
  8
0
 10
89.5
 20
37.739784
 30
2.0
 70
    64
  0
SEQEND
  5
1120
  8
0
  0
POLYLINE
  5
1121
  8
0
 66
     1
 10
0.0
 20
0.0
 30
0.0
 70
    16
 71
     6
 72
     3
  0
VERTEX
  5
1122
  8
0
 10
91.62132
 20
49.760599
 30
2.0
 70
    64
  0
VERTEX
  5
1123
  8
0
 10
91.62132
 20
49.760599
 30
0.0
 70
    64
  0
VERTEX
  5
1124
  8
0
 10
91.62132
 20
49.760599
 30
0.0
 70
    64
  0
VERTEX
  5
1125
  8
0
 10
89.5
 20
47.639279
 30
2.0
 70
    64
  0
VERTEX
  5
1126
  8
0
 10
89.5
 20
47.639279
 30
0.0
 70
    64
  0
VERTEX
  5
1127
  8
0
 10
89.5
 20
47.639279
 30
0.0
 70
    64
  0
VERTEX
  5
1128
  8
0
 10
87.37868
 20
49.760599
 30
2.0
 70
    64
  0
VERTEX
  5
1129
  8
0
 10
87.37868
 20
49.760599
 30
0.0
 70
    64
  0
VERTEX
  5
112A
  8
0
 10
89.5
 20
47.639279
 30
0.0
 70
    64
  0
VERTEX
  5
112B
  8
0
 10
89.5
 20
51.881919
 30
2.0
 70
    64
  0
VERTEX
  5
112C
  8
0
 10
89.5
 20
51.881919
 30
0.0
 70
    64
  0
VERTEX
  5
112D
  8
0
 10
91.62132
 20
49.760599
 30
0.0
 70
    64
  0
VERTEX
  5
112E
  8
0
 10
89.5
 20
51.881919
 30
2.0
 70
    64
  0
VERTEX
  5
112F
  8
0
 10
89.5
 20
51.881919
 30
2.0
 70
    64
  0
VERTEX
  5
1130
  8
0
 10
91.62132
 20
49.760599
 30
2.0
 70
    64
  0
VERTEX
  5
1131
  8
0
 10
87.37868
 20
49.760599
 30
2.0
 70
    64
  0
VERTEX
  5
1132
  8
0
 10
87.37868
 20
49.760599
 30
2.0
 70
    64
  0
VERTEX
  5
1133
  8
0
 10
89.5
 20
47.639279
 30
2.0
 70
    64
  0
SEQEND
  5
1134
  8
0
  0
POLYLINE
  5
1135
  8
0
 66
     1
 10
0.0
 20
0.0
 30
0.0
 70
    16
 71
     6
 72
     3
  0
VERTEX
  5
1136
  8
0
 10
91.62132
 20
59.660094
 30
2.0
 70
    64
  0
VERTEX
  5
1137
  8
0
 10
91.62132
 20
59.660094
 30
0.0
 70
    64
  0
VERTEX
  5
1138
  8
0
 10
91.62132
 20
59.660094
 30
0.0
 70
    64
  0
VERTEX
  5
1139
  8
0
 10
89.5
 20
57.538773
 30
2.0
 70
    64
  0
VERTEX
  5
113A
  8
0
 10
89.5
 20
57.538773
 30
0.0
 70
    64
  0
VERTEX
  5
113B
  8
0
 10
89.5
 20
57.538773
 30
0.0
 70
    64
  0
VERTEX
  5
113C
  8
0
 10
87.37868
 20
59.660094
 30
2.0
 70
    64
  0
VERTEX
  5
113D
  8
0
 10
87.37868
 20
59.660094
 30
0.0
 70
    64
  0
VERTEX
  5
113E
  8
0
 10
89.5
 20
57.538773
 30
0.0
 70
    64
  0
VERTEX
  5
113F
  8
0
 10
89.5
 20
61.781414
 30
2.0
 70
    64
  0
VERTEX
  5
1140
  8
0
 10
89.5
 20
61.781414
 30
0.0
 70
    64
  0
VERTEX
  5
1141
  8
0
 10
91.62132
 20
59.660094
 30
0.0
 70
    64
  0
VERTEX
  5
1142
  8
0
 10
89.5
 20
61.781414
 30
2.0
 70
    64
  0
VERTEX
  5
1143
  8
0
 10
89.5
 20
61.781414
 30
2.0
 70
    64
  0
VERTEX
  5
1144
  8
0
 10
91.62132
 20
59.660094
 30
2.0
 70
    64
  0
VERTEX
  5
1145
  8
0
 10
87.37868
 20
59.660094
 30
2.0
 70
    64
  0
VERTEX
  5
1146
  8
0
 10
87.37868
 20
59.660094
 30
2.0
 70
    64
  0
VERTEX
  5
1147
  8
0
 10
89.5
 20
57.538773
 30
2.0
 70
    64
  0
SEQEND
  5
1148
  8
0
  0
POLYLINE
  5
1149
  8
0
 66
     1
 10
0.0
 20
0.0
 30
0.0
 70
    16
 71
     6
 72
     3
  0
VERTEX
  5
114A
  8
0
 10
91.62132
 20
69.559589
 30
2.0
 70
    64
  0
VERTEX
  5
114B
  8
0
 10
91.62132
 20
69.559589
 30
0.0
 70
    64
  0
VERTEX
  5
114C
  8
0
 10
91.62132
 20
69.559589
 30
0.0
 70
    64
  0
VERTEX
  5
114D
  8
0
 10
89.5
 20
67.438268
 30
2.0
 70
    64
  0
VERTEX
  5
114E
  8
0
 10
89.5
 20
67.438268
 30
0.0
 70
    64
  0
VERTEX
  5
114F
  8
0
 10
89.5
 20
67.438268
 30
0.0
 70
    64
  0
VERTEX
  5
1150
  8
0
 10
87.37868
 20
69.559589
 30
2.0
 70
    64
  0
VERTEX
  5
1151
  8
0
 10
87.37868
 20
69.559589
 30
0.0
 70
    64
  0
VERTEX
  5
1152
  8
0
 10
89.5
 20
67.438268
 30
0.0
 70
    64
  0
VERTEX
  5
1153
  8
0
 10
89.5
 20
71.680909
 30
2.0
 70
    64
  0
VERTEX
  5
1154
  8
0
 10
89.5
 20
71.680909
 30
0.0
 70
    64
  0
VERTEX
  5
1155
  8
0
 10
91.62132
 20
69.559589
 30
0.0
 70
    64
  0
VERTEX
  5
1156
  8
0
 10
89.5
 20
71.680909
 30
2.0
 70
    64
  0
VERTEX
  5
1157
  8
0
 10
89.5
 20
71.680909
 30
2.0
 70
    64
  0
VERTEX
  5
1158
  8
0
 10
91.62132
 20
69.559589
 30
2.0
 70
    64
  0
VERTEX
  5
1159
  8
0
 10
87.37868
 20
69.559589
 30
2.0
 70
    64
  0
VERTEX
  5
115A
  8
0
 10
87.37868
 20
69.559589
 30
2.0
 70
    64
  0
VERTEX
  5
115B
  8
0
 10
89.5
 20
67.438268
 30
2.0
 70
    64
  0
SEQEND
  5
115C
  8
0
  0
POLYLINE
  5
1199
  8
0
 66
     1
 10
0.0
 20
0.0
 30
0.0
 70
    16
 71
     6
 72
     3
  0
VERTEX
  5
119A
  8
0
 10
87.37868
 20
109.440411
 30
2.0
 70
    64
  0
VERTEX
  5
119B
  8
0
 10
87.37868
 20
109.440411
 30
0.0
 70
    64
  0
VERTEX
  5
119C
  8
0
 10
87.37868
 20
109.440411
 30
0.0
 70
    64
  0
VERTEX
  5
119D
  8
0
 10
89.5
 20
111.561732
 30
2.0
 70
    64
  0
VERTEX
  5
119E
  8
0
 10
89.5
 20
111.561732
 30
0.0
 70
    64
  0
VERTEX
  5
119F
  8
0
 10
89.5
 20
111.561732
 30
0.0
 70
    64
  0
VERTEX
  5
11A0
  8
0
 10
91.62132
 20
109.440411
 30
2.0
 70
    64
  0
VERTEX
  5
11A1
  8
0
 10
91.62132
 20
109.440411
 30
0.0
 70
    64
  0
VERTEX
  5
11A2
  8
0
 10
89.5
 20
111.561732
 30
0.0
 70
    64
  0
VERTEX
  5
11A3
  8
0
 10
89.5
 20
107.319091
 30
2.0
 70
    64
  0
VERTEX
  5
11A4
  8
0
 10
89.5
 20
107.319091
 30
0.0
 70
    64
  0
VERTEX
  5
11A5
  8
0
 10
87.37868
 20
109.440411
 30
0.0
 70
    64
  0
VERTEX
  5
11A6
  8
0
 10
89.5
 20
107.319091
 30
2.0
 70
    64
  0
VERTEX
  5
11A7
  8
0
 10
89.5
 20
107.319091
 30
2.0
 70
    64
  0
VERTEX
  5
11A8
  8
0
 10
87.37868
 20
109.440411
 30
2.0
 70
    64
  0
VERTEX
  5
11A9
  8
0
 10
91.62132
 20
109.440411
 30
2.0
 70
    64
  0
VERTEX
  5
11AA
  8
0
 10
91.62132
 20
109.440411
 30
2.0
 70
    64
  0
VERTEX
  5
11AB
  8
0
 10
89.5
 20
111.561732
 30
2.0
 70
    64
  0
SEQEND
  5
11AC
  8
0
  0
POLYLINE
  5
11C1
  8
0
 66
     1
 10
0.0
 20
0.0
 30
0.0
 70
    16
 71
     6
 72
     3
  0
VERTEX
  5
11C2
  8
0
 10
109.440411
 20
87.37868
 30
2.0
 70
    64
  0
VERTEX
  5
11C3
  8
0
 10
109.440411
 20
87.37868
 30
0.0
 70
    64
  0
VERTEX
  5
11C4
  8
0
 10
109.440411
 20
87.37868
 30
0.0
 70
    64
  0
VERTEX
  5
11C5
  8
0
 10
111.561732
 20
89.5
 30
2.0
 70
    64
  0
VERTEX
  5
11C6
  8
0
 10
111.561732
 20
89.5
 30
0.0
 70
    64
  0
VERTEX
  5
11C7
  8
0
 10
111.561732
 20
89.5
 30
0.0
 70
    64
  0
VERTEX
  5
11C8
  8
0
 10
109.440411
 20
91.62132
 30
2.0
 70
    64
  0
VERTEX
  5
11C9
  8
0
 10
109.440411
 20
91.62132
 30
0.0
 70
    64
  0
VERTEX
  5
11CA
  8
0
 10
111.561732
 20
89.5
 30
0.0
 70
    64
  0
VERTEX
  5
11CB
  8
0
 10
107.319091
 20
89.5
 30
2.0
 70
    64
  0
VERTEX
  5
11CC
  8
0
 10
107.319091
 20
89.5
 30
0.0
 70
    64
  0
VERTEX
  5
11CD
  8
0
 10
109.440411
 20
87.37868
 30
0.0
 70
    64
  0
VERTEX
  5
11CE
  8
0
 10
107.319091
 20
89.5
 30
2.0
 70
    64
  0
VERTEX
  5
11CF
  8
0
 10
107.319091
 20
89.5
 30
2.0
 70
    64
  0
VERTEX
  5
11D0
  8
0
 10
109.440411
 20
87.37868
 30
2.0
 70
    64
  0
VERTEX
  5
11D1
  8
0
 10
109.440411
 20
91.62132
 30
2.0
 70
    64
  0
VERTEX
  5
11D2
  8
0
 10
109.440411
 20
91.62132
 30
2.0
 70
    64
  0
VERTEX
  5
11D3
  8
0
 10
111.561732
 20
89.5
 30
2.0
 70
    64
  0
SEQEND
  5
11D4
  8
0
  0
POLYLINE
  5
11D5
  8
0
 66
     1
 10
0.0
 20
0.0
 30
0.0
 70
    16
 71
     6
 72
     3
  0
VERTEX
  5
11D6
  8
0
 10
119.339906
 20
87.37868
 30
2.0
 70
    64
  0
VERTEX
  5
11D7
  8
0
 10
119.339906
 20
87.37868
 30
0.0
 70
    64
  0
VERTEX
  5
11D8
  8
0
 10
119.339906
 20
87.37868
 30
0.0
 70
    64
  0
VERTEX
  5
11D9
  8
0
 10
121.461227
 20
89.5
 30
2.0
 70
    64
  0
VERTEX
  5
11DA
  8
0
 10
121.461227
 20
89.5
 30
0.0
 70
    64
  0
VERTEX
  5
11DB
  8
0
 10
121.461227
 20
89.5
 30
0.0
 70
    64
  0
VERTEX
  5
11DC
  8
0
 10
119.339906
 20
91.62132
 30
2.0
 70
    64
  0
VERTEX
  5
11DD
  8
0
 10
119.339906
 20
91.62132
 30
0.0
 70
    64
  0
VERTEX
  5
11DE
  8
0
 10
121.461227
 20
89.5
 30
0.0
 70
    64
  0
VERTEX
  5
11DF
  8
0
 10
117.218586
 20
89.5
 30
2.0
 70
    64
  0
VERTEX
  5
11E0
  8
0
 10
117.218586
 20
89.5
 30
0.0
 70
    64
  0
VERTEX
  5
11E1
  8
0
 10
119.339906
 20
87.37868
 30
0.0
 70
    64
  0
VERTEX
  5
11E2
  8
0
 10
117.218586
 20
89.5
 30
2.0
 70
    64
  0
VERTEX
  5
11E3
  8
0
 10
117.218586
 20
89.5
 30
2.0
 70
    64
  0
VERTEX
  5
11E4
  8
0
 10
119.339906
 20
87.37868
 30
2.0
 70
    64
  0
VERTEX
  5
11E5
  8
0
 10
119.339906
 20
91.62132
 30
2.0
 70
    64
  0
VERTEX
  5
11E6
  8
0
 10
119.339906
 20
91.62132
 30
2.0
 70
    64
  0
VERTEX
  5
11E7
  8
0
 10
121.461227
 20
89.5
 30
2.0
 70
    64
  0
SEQEND
  5
11E8
  8
0
  0
POLYLINE
  5
11E9
  8
0
 66
     1
 10
0.0
 20
0.0
 30
0.0
 70
    16
 71
     6
 72
     3
  0
VERTEX
  5
11EA
  8
0
 10
158.937886
 20
87.37868
 30
2.0
 70
    64
  0
VERTEX
  5
11EB
  8
0
 10
158.937886
 20
87.37868
 30
0.0
 70
    64
  0
VERTEX
  5
11EC
  8
0
 10
158.937886
 20
87.37868
 30
0.0
 70
    64
  0
VERTEX
  5
11ED
  8
0
 10
161.059206
 20
89.5
 30
2.0
 70
    64
  0
VERTEX
  5
11EE
  8
0
 10
161.059206
 20
89.5
 30
0.0
 70
    64
  0
VERTEX
  5
11EF
  8
0
 10
161.059206
 20
89.5
 30
0.0
 70
    64
  0
VERTEX
  5
11F0
  8
0
 10
158.937886
 20
91.62132
 30
2.0
 70
    64
  0
VERTEX
  5
11F1
  8
0
 10
158.937886
 20
91.62132
 30
0.0
 70
    64
  0
VERTEX
  5
11F2
  8
0
 10
161.059206
 20
89.5
 30
0.0
 70
    64
  0
VERTEX
  5
11F3
  8
0
 10
156.816566
 20
89.5
 30
2.0
 70
    64
  0
VERTEX
  5
11F4
  8
0
 10
156.816566
 20
89.5
 30
0.0
 70
    64
  0
VERTEX
  5
11F5
  8
0
 10
158.937886
 20
87.37868
 30
0.0
 70
    64
  0
VERTEX
  5
11F6
  8
0
 10
156.816566
 20
89.5
 30
2.0
 70
    64
  0
VERTEX
  5
11F7
  8
0
 10
156.816566
 20
89.5
 30
2.0
 70
    64
  0
VERTEX
  5
11F8
  8
0
 10
158.937886
 20
87.37868
 30
2.0
 70
    64
  0
VERTEX
  5
11F9
  8
0
 10
158.937886
 20
91.62132
 30
2.0
 70
    64
  0
VERTEX
  5
11FA
  8
0
 10
158.937886
 20
91.62132
 30
2.0
 70
    64
  0
VERTEX
  5
11FB
  8
0
 10
161.059206
 20
89.5
 30
2.0
 70
    64
  0
SEQEND
  5
11FC
  8
0
  0
POLYLINE
  5
11FD
  8
0
 66
     1
 10
0.0
 20
0.0
 30
0.0
 70
    16
 71
     6
 72
     3
  0
VERTEX
  5
11FE
  8
0
 10
139.138896
 20
87.37868
 30
2.0
 70
    64
  0
VERTEX
  5
11FF
  8
0
 10
139.138896
 20
87.37868
 30
0.0
 70
    64
  0
VERTEX
  5
1200
  8
0
 10
139.138896
 20
87.37868
 30
0.0
 70
    64
  0
VERTEX
  5
1201
  8
0
 10
141.260216
 20
89.5
 30
2.0
 70
    64
  0
VERTEX
  5
1202
  8
0
 10
141.260216
 20
89.5
 30
0.0
 70
    64
  0
VERTEX
  5
1203
  8
0
 10
141.260216
 20
89.5
 30
0.0
 70
    64
  0
VERTEX
  5
1204
  8
0
 10
139.138896
 20
91.62132
 30
2.0
 70
    64
  0
VERTEX
  5
1205
  8
0
 10
139.138896
 20
91.62132
 30
0.0
 70
    64
  0
VERTEX
  5
1206
  8
0
 10
141.260216
 20
89.5
 30
0.0
 70
    64
  0
VERTEX
  5
1207
  8
0
 10
137.017576
 20
89.5
 30
2.0
 70
    64
  0
VERTEX
  5
1208
  8
0
 10
137.017576
 20
89.5
 30
0.0
 70
    64
  0
VERTEX
  5
1209
  8
0
 10
139.138896
 20
87.37868
 30
0.0
 70
    64
  0
VERTEX
  5
120A
  8
0
 10
137.017576
 20
89.5
 30
2.0
 70
    64
  0
VERTEX
  5
120B
  8
0
 10
137.017576
 20
89.5
 30
2.0
 70
    64
  0
VERTEX
  5
120C
  8
0
 10
139.138896
 20
87.37868
 30
2.0
 70
    64
  0
VERTEX
  5
120D
  8
0
 10
139.138896
 20
91.62132
 30
2.0
 70
    64
  0
VERTEX
  5
120E
  8
0
 10
139.138896
 20
91.62132
 30
2.0
 70
    64
  0
VERTEX
  5
120F
  8
0
 10
141.260216
 20
89.5
 30
2.0
 70
    64
  0
SEQEND
  5
1210
  8
0
  0
POLYLINE
  5
1211
  8
0
 66
     1
 10
0.0
 20
0.0
 30
0.0
 70
    16
 71
     6
 72
     3
  0
VERTEX
  5
1212
  8
0
 10
149.038391
 20
87.37868
 30
2.0
 70
    64
  0
VERTEX
  5
1213
  8
0
 10
149.038391
 20
87.37868
 30
0.0
 70
    64
  0
VERTEX
  5
1214
  8
0
 10
149.038391
 20
87.37868
 30
0.0
 70
    64
  0
VERTEX
  5
1215
  8
0
 10
151.159711
 20
89.5
 30
2.0
 70
    64
  0
VERTEX
  5
1216
  8
0
 10
151.159711
 20
89.5
 30
0.0
 70
    64
  0
VERTEX
  5
1217
  8
0
 10
151.159711
 20
89.5
 30
0.0
 70
    64
  0
VERTEX
  5
1218
  8
0
 10
149.038391
 20
91.62132
 30
2.0
 70
    64
  0
VERTEX
  5
1219
  8
0
 10
149.038391
 20
91.62132
 30
0.0
 70
    64
  0
VERTEX
  5
121A
  8
0
 10
151.159711
 20
89.5
 30
0.0
 70
    64
  0
VERTEX
  5
121B
  8
0
 10
146.917071
 20
89.5
 30
2.0
 70
    64
  0
VERTEX
  5
121C
  8
0
 10
146.917071
 20
89.5
 30
0.0
 70
    64
  0
VERTEX
  5
121D
  8
0
 10
149.038391
 20
87.37868
 30
0.0
 70
    64
  0
VERTEX
  5
121E
  8
0
 10
146.917071
 20
89.5
 30
2.0
 70
    64
  0
VERTEX
  5
121F
  8
0
 10
146.917071
 20
89.5
 30
2.0
 70
    64
  0
VERTEX
  5
1220
  8
0
 10
149.038391
 20
87.37868
 30
2.0
 70
    64
  0
VERTEX
  5
1221
  8
0
 10
149.038391
 20
91.62132
 30
2.0
 70
    64
  0
VERTEX
  5
1222
  8
0
 10
149.038391
 20
91.62132
 30
2.0
 70
    64
  0
VERTEX
  5
1223
  8
0
 10
151.159711
 20
89.5
 30
2.0
 70
    64
  0
SEQEND
  5
1224
  8
0
  0
POLYLINE
  5
1225
  8
0
 66
     1
 10
0.0
 20
0.0
 30
0.0
 70
    16
 71
     6
 72
     3
  0
VERTEX
  5
1226
  8
0
 10
168.837381
 20
87.37868
 30
2.0
 70
    64
  0
VERTEX
  5
1227
  8
0
 10
168.837381
 20
87.37868
 30
0.0
 70
    64
  0
VERTEX
  5
1228
  8
0
 10
168.837381
 20
87.37868
 30
0.0
 70
    64
  0
VERTEX
  5
1229
  8
0
 10
170.958701
 20
89.5
 30
2.0
 70
    64
  0
VERTEX
  5
122A
  8
0
 10
170.958701
 20
89.5
 30
0.0
 70
    64
  0
VERTEX
  5
122B
  8
0
 10
170.958701
 20
89.5
 30
0.0
 70
    64
  0
VERTEX
  5
122C
  8
0
 10
168.837381
 20
91.62132
 30
2.0
 70
    64
  0
VERTEX
  5
122D
  8
0
 10
168.837381
 20
91.62132
 30
0.0
 70
    64
  0
VERTEX
  5
122E
  8
0
 10
170.958701
 20
89.5
 30
0.0
 70
    64
  0
VERTEX
  5
122F
  8
0
 10
166.716061
 20
89.5
 30
2.0
 70
    64
  0
VERTEX
  5
1230
  8
0
 10
166.716061
 20
89.5
 30
0.0
 70
    64
  0
VERTEX
  5
1231
  8
0
 10
168.837381
 20
87.37868
 30
0.0
 70
    64
  0
VERTEX
  5
1232
  8
0
 10
166.716061
 20
89.5
 30
2.0
 70
    64
  0
VERTEX
  5
1233
  8
0
 10
166.716061
 20
89.5
 30
2.0
 70
    64
  0
VERTEX
  5
1234
  8
0
 10
168.837381
 20
87.37868
 30
2.0
 70
    64
  0
VERTEX
  5
1235
  8
0
 10
168.837381
 20
91.62132
 30
2.0
 70
    64
  0
VERTEX
  5
1236
  8
0
 10
168.837381
 20
91.62132
 30
2.0
 70
    64
  0
VERTEX
  5
1237
  8
0
 10
170.958701
 20
89.5
 30
2.0
 70
    64
  0
SEQEND
  5
1238
  8
0
  0
POLYLINE
  5
1239
  8
0
 66
     1
 10
0.0
 20
0.0
 30
0.0
 70
    16
 71
     6
 72
     3
  0
VERTEX
  5
123A
  8
0
 10
87.37868
 20
129.239401
 30
2.0
 70
    64
  0
VERTEX
  5
123B
  8
0
 10
87.37868
 20
129.239401
 30
0.0
 70
    64
  0
VERTEX
  5
123C
  8
0
 10
87.37868
 20
129.239401
 30
0.0
 70
    64
  0
VERTEX
  5
123D
  8
0
 10
89.5
 20
131.360721
 30
2.0
 70
    64
  0
VERTEX
  5
123E
  8
0
 10
89.5
 20
131.360721
 30
0.0
 70
    64
  0
VERTEX
  5
123F
  8
0
 10
89.5
 20
131.360721
 30
0.0
 70
    64
  0
VERTEX
  5
1240
  8
0
 10
91.62132
 20
129.239401
 30
2.0
 70
    64
  0
VERTEX
  5
1241
  8
0
 10
91.62132
 20
129.239401
 30
0.0
 70
    64
  0
VERTEX
  5
1242
  8
0
 10
89.5
 20
131.360721
 30
0.0
 70
    64
  0
VERTEX
  5
1243
  8
0
 10
89.5
 20
127.118081
 30
2.0
 70
    64
  0
VERTEX
  5
1244
  8
0
 10
89.5
 20
127.118081
 30
0.0
 70
    64
  0
VERTEX
  5
1245
  8
0
 10
87.37868
 20
129.239401
 30
0.0
 70
    64
  0
VERTEX
  5
1246
  8
0
 10
89.5
 20
127.118081
 30
2.0
 70
    64
  0
VERTEX
  5
1247
  8
0
 10
89.5
 20
127.118081
 30
2.0
 70
    64
  0
VERTEX
  5
1248
  8
0
 10
87.37868
 20
129.239401
 30
2.0
 70
    64
  0
VERTEX
  5
1249
  8
0
 10
91.62132
 20
129.239401
 30
2.0
 70
    64
  0
VERTEX
  5
124A
  8
0
 10
91.62132
 20
129.239401
 30
2.0
 70
    64
  0
VERTEX
  5
124B
  8
0
 10
89.5
 20
131.360721
 30
2.0
 70
    64
  0
SEQEND
  5
124C
  8
0
  0
POLYLINE
  5
124D
  8
0
 66
     1
 10
0.0
 20
0.0
 30
0.0
 70
    16
 71
     6
 72
     3
  0
VERTEX
  5
124E
  8
0
 10
87.37868
 20
139.138896
 30
2.0
 70
    64
  0
VERTEX
  5
124F
  8
0
 10
87.37868
 20
139.138896
 30
0.0
 70
    64
  0
VERTEX
  5
1250
  8
0
 10
87.37868
 20
139.138896
 30
0.0
 70
    64
  0
VERTEX
  5
1251
  8
0
 10
89.5
 20
141.260216
 30
2.0
 70
    64
  0
VERTEX
  5
1252
  8
0
 10
89.5
 20
141.260216
 30
0.0
 70
    64
  0
VERTEX
  5
1253
  8
0
 10
89.5
 20
141.260216
 30
0.0
 70
    64
  0
VERTEX
  5
1254
  8
0
 10
91.62132
 20
139.138896
 30
2.0
 70
    64
  0
VERTEX
  5
1255
  8
0
 10
91.62132
 20
139.138896
 30
0.0
 70
    64
  0
VERTEX
  5
1256
  8
0
 10
89.5
 20
141.260216
 30
0.0
 70
    64
  0
VERTEX
  5
1257
  8
0
 10
89.5
 20
137.017576
 30
2.0
 70
    64
  0
VERTEX
  5
1258
  8
0
 10
89.5
 20
137.017576
 30
0.0
 70
    64
  0
VERTEX
  5
1259
  8
0
 10
87.37868
 20
139.138896
 30
0.0
 70
    64
  0
VERTEX
  5
125A
  8
0
 10
89.5
 20
137.017576
 30
2.0
 70
    64
  0
VERTEX
  5
125B
  8
0
 10
89.5
 20
137.017576
 30
2.0
 70
    64
  0
VERTEX
  5
125C
  8
0
 10
87.37868
 20
139.138896
 30
2.0
 70
    64
  0
VERTEX
  5
125D
  8
0
 10
91.62132
 20
139.138896
 30
2.0
 70
    64
  0
VERTEX
  5
125E
  8
0
 10
91.62132
 20
139.138896
 30
2.0
 70
    64
  0
VERTEX
  5
125F
  8
0
 10
89.5
 20
141.260216
 30
2.0
 70
    64
  0
SEQEND
  5
1260
  8
0
  0
POLYLINE
  5
1261
  8
0
 66
     1
 10
0.0
 20
0.0
 30
0.0
 70
    16
 71
     6
 72
     3
  0
VERTEX
  5
1262
  8
0
 10
87.37868
 20
149.038391
 30
2.0
 70
    64
  0
VERTEX
  5
1263
  8
0
 10
87.37868
 20
149.038391
 30
0.0
 70
    64
  0
VERTEX
  5
1264
  8
0
 10
87.37868
 20
149.038391
 30
0.0
 70
    64
  0
VERTEX
  5
1265
  8
0
 10
89.5
 20
151.159711
 30
2.0
 70
    64
  0
VERTEX
  5
1266
  8
0
 10
89.5
 20
151.159711
 30
0.0
 70
    64
  0
VERTEX
  5
1267
  8
0
 10
89.5
 20
151.159711
 30
0.0
 70
    64
  0
VERTEX
  5
1268
  8
0
 10
91.62132
 20
149.038391
 30
2.0
 70
    64
  0
VERTEX
  5
1269
  8
0
 10
91.62132
 20
149.038391
 30
0.0
 70
    64
  0
VERTEX
  5
126A
  8
0
 10
89.5
 20
151.159711
 30
0.0
 70
    64
  0
VERTEX
  5
126B
  8
0
 10
89.5
 20
146.917071
 30
2.0
 70
    64
  0
VERTEX
  5
126C
  8
0
 10
89.5
 20
146.917071
 30
0.0
 70
    64
  0
VERTEX
  5
126D
  8
0
 10
87.37868
 20
149.038391
 30
0.0
 70
    64
  0
VERTEX
  5
126E
  8
0
 10
89.5
 20
146.917071
 30
2.0
 70
    64
  0
VERTEX
  5
126F
  8
0
 10
89.5
 20
146.917071
 30
2.0
 70
    64
  0
VERTEX
  5
1270
  8
0
 10
87.37868
 20
149.038391
 30
2.0
 70
    64
  0
VERTEX
  5
1271
  8
0
 10
91.62132
 20
149.038391
 30
2.0
 70
    64
  0
VERTEX
  5
1272
  8
0
 10
91.62132
 20
149.038391
 30
2.0
 70
    64
  0
VERTEX
  5
1273
  8
0
 10
89.5
 20
151.159711
 30
2.0
 70
    64
  0
SEQEND
  5
1274
  8
0
  0
POLYLINE
  5
1275
  8
0
 66
     1
 10
0.0
 20
0.0
 30
0.0
 70
    16
 71
     6
 72
     3
  0
VERTEX
  5
1276
  8
0
 10
87.37868
 20
158.937886
 30
2.0
 70
    64
  0
VERTEX
  5
1277
  8
0
 10
87.37868
 20
158.937886
 30
0.0
 70
    64
  0
VERTEX
  5
1278
  8
0
 10
87.37868
 20
158.937886
 30
0.0
 70
    64
  0
VERTEX
  5
1279
  8
0
 10
89.5
 20
161.059206
 30
2.0
 70
    64
  0
VERTEX
  5
127A
  8
0
 10
89.5
 20
161.059206
 30
0.0
 70
    64
  0
VERTEX
  5
127B
  8
0
 10
89.5
 20
161.059206
 30
0.0
 70
    64
  0
VERTEX
  5
127C
  8
0
 10
91.62132
 20
158.937886
 30
2.0
 70
    64
  0
VERTEX
  5
127D
  8
0
 10
91.62132
 20
158.937886
 30
0.0
 70
    64
  0
VERTEX
  5
127E
  8
0
 10
89.5
 20
161.059206
 30
0.0
 70
    64
  0
VERTEX
  5
127F
  8
0
 10
89.5
 20
156.816566
 30
2.0
 70
    64
  0
VERTEX
  5
1280
  8
0
 10
89.5
 20
156.816566
 30
0.0
 70
    64
  0
VERTEX
  5
1281
  8
0
 10
87.37868
 20
158.937886
 30
0.0
 70
    64
  0
VERTEX
  5
1282
  8
0
 10
89.5
 20
156.816566
 30
2.0
 70
    64
  0
VERTEX
  5
1283
  8
0
 10
89.5
 20
156.816566
 30
2.0
 70
    64
  0
VERTEX
  5
1284
  8
0
 10
87.37868
 20
158.937886
 30
2.0
 70
    64
  0
VERTEX
  5
1285
  8
0
 10
91.62132
 20
158.937886
 30
2.0
 70
    64
  0
VERTEX
  5
1286
  8
0
 10
91.62132
 20
158.937886
 30
2.0
 70
    64
  0
VERTEX
  5
1287
  8
0
 10
89.5
 20
161.059206
 30
2.0
 70
    64
  0
SEQEND
  5
1288
  8
0
  0
POLYLINE
  5
1289
  8
0
 66
     1
 10
0.0
 20
0.0
 30
0.0
 70
    16
 71
     6
 72
     3
  0
VERTEX
  5
128A
  8
0
 10
87.37868
 20
168.837381
 30
2.0
 70
    64
  0
VERTEX
  5
128B
  8
0
 10
87.37868
 20
168.837381
 30
0.0
 70
    64
  0
VERTEX
  5
128C
  8
0
 10
87.37868
 20
168.837381
 30
0.0
 70
    64
  0
VERTEX
  5
128D
  8
0
 10
89.5
 20
170.958701
 30
2.0
 70
    64
  0
VERTEX
  5
128E
  8
0
 10
89.5
 20
170.958701
 30
0.0
 70
    64
  0
VERTEX
  5
128F
  8
0
 10
89.5
 20
170.958701
 30
0.0
 70
    64
  0
VERTEX
  5
1290
  8
0
 10
91.62132
 20
168.837381
 30
2.0
 70
    64
  0
VERTEX
  5
1291
  8
0
 10
91.62132
 20
168.837381
 30
0.0
 70
    64
  0
VERTEX
  5
1292
  8
0
 10
89.5
 20
170.958701
 30
0.0
 70
    64
  0
VERTEX
  5
1293
  8
0
 10
89.5
 20
166.716061
 30
2.0
 70
    64
  0
VERTEX
  5
1294
  8
0
 10
89.5
 20
166.716061
 30
0.0
 70
    64
  0
VERTEX
  5
1295
  8
0
 10
87.37868
 20
168.837381
 30
0.0
 70
    64
  0
VERTEX
  5
1296
  8
0
 10
89.5
 20
166.716061
 30
2.0
 70
    64
  0
VERTEX
  5
1297
  8
0
 10
89.5
 20
166.716061
 30
2.0
 70
    64
  0
VERTEX
  5
1298
  8
0
 10
87.37868
 20
168.837381
 30
2.0
 70
    64
  0
VERTEX
  5
1299
  8
0
 10
91.62132
 20
168.837381
 30
2.0
 70
    64
  0
VERTEX
  5
129A
  8
0
 10
91.62132
 20
168.837381
 30
2.0
 70
    64
  0
VERTEX
  5
129B
  8
0
 10
89.5
 20
170.958701
 30
2.0
 70
    64
  0
SEQEND
  5
129C
  8
0
  0
POLYLINE
  5
129D
  8
0
 66
     1
 10
0.0
 20
0.0
 30
0.0
 70
    16
 71
     6
 72
     3
  0
VERTEX
  5
129E
  8
0
 10
79.727826
 20
117.774098
 30
2.0
 70
    64
  0
VERTEX
  5
129F
  8
0
 10
79.727826
 20
117.774098
 30
0.0
 70
    64
  0
VERTEX
  5
12A0
  8
0
 10
79.727826
 20
117.774098
 30
0.0
 70
    64
  0
VERTEX
  5
12A1
  8
0
 10
81.227826
 20
120.372174
 30
2.0
 70
    64
  0
VERTEX
  5
12A2
  8
0
 10
81.227826
 20
120.372174
 30
0.0
 70
    64
  0
VERTEX
  5
12A3
  8
0
 10
81.227826
 20
120.372174
 30
0.0
 70
    64
  0
VERTEX
  5
12A4
  8
0
 10
83.825902
 20
118.872174
 30
2.0
 70
    64
  0
VERTEX
  5
12A5
  8
0
 10
83.825902
 20
118.872174
 30
0.0
 70
    64
  0
VERTEX
  5
12A6
  8
0
 10
81.227826
 20
120.372174
 30
0.0
 70
    64
  0
VERTEX
  5
12A7
  8
0
 10
82.325902
 20
116.274098
 30
2.0
 70
    64
  0
VERTEX
  5
12A8
  8
0
 10
82.325902
 20
116.274098
 30
0.0
 70
    64
  0
VERTEX
  5
12A9
  8
0
 10
79.727826
 20
117.774098
 30
0.0
 70
    64
  0
VERTEX
  5
12AA
  8
0
 10
82.325902
 20
116.274098
 30
2.0
 70
    64
  0
VERTEX
  5
12AB
  8
0
 10
82.325902
 20
116.274098
 30
2.0
 70
    64
  0
VERTEX
  5
12AC
  8
0
 10
79.727826
 20
117.774098
 30
2.0
 70
    64
  0
VERTEX
  5
12AD
  8
0
 10
83.825902
 20
118.872174
 30
2.0
 70
    64
  0
VERTEX
  5
12AE
  8
0
 10
83.825902
 20
118.872174
 30
2.0
 70
    64
  0
VERTEX
  5
12AF
  8
0
 10
81.227826
 20
120.372174
 30
2.0
 70
    64
  0
SEQEND
  5
12B0
  8
0
  0
POLYLINE
  5
12B1
  8
0
 66
     1
 10
0.0
 20
0.0
 30
0.0
 70
    16
 71
     6
 72
     3
  0
VERTEX
  5
12B2
  8
0
 10
69.690004
 20
86.38808
 30
2.0
 70
    64
  0
VERTEX
  5
12B3
  8
0
 10
69.690004
 20
86.38808
 30
0.0
 70
    64
  0
VERTEX
  5
12B4
  8
0
 10
69.690004
 20
86.38808
 30
0.0
 70
    64
  0
VERTEX
  5
12B5
  8
0
 10
68.190004
 20
83.790004
 30
2.0
 70
    64
  0
VERTEX
  5
12B6
  8
0
 10
68.190004
 20
83.790004
 30
0.0
 70
    64
  0
VERTEX
  5
12B7
  8
0
 10
68.190004
 20
83.790004
 30
0.0
 70
    64
  0
VERTEX
  5
12B8
  8
0
 10
70.78808
 20
82.290004
 30
2.0
 70
    64
  0
VERTEX
  5
12B9
  8
0
 10
70.78808
 20
82.290004
 30
0.0
 70
    64
  0
VERTEX
  5
12BA
  8
0
 10
68.190004
 20
83.790004
 30
0.0
 70
    64
  0
VERTEX
  5
12BB
  8
0
 10
72.28808
 20
84.88808
 30
2.0
 70
    64
  0
VERTEX
  5
12BC
  8
0
 10
72.28808
 20
84.88808
 30
0.0
 70
    64
  0
VERTEX
  5
12BD
  8
0
 10
69.690004
 20
86.38808
 30
0.0
 70
    64
  0
VERTEX
  5
12BE
  8
0
 10
72.28808
 20
84.88808
 30
2.0
 70
    64
  0
VERTEX
  5
12BF
  8
0
 10
72.28808
 20
84.88808
 30
2.0
 70
    64
  0
VERTEX
  5
12C0
  8
0
 10
69.690004
 20
86.38808
 30
2.0
 70
    64
  0
VERTEX
  5
12C1
  8
0
 10
70.78808
 20
82.290004
 30
2.0
 70
    64
  0
VERTEX
  5
12C2
  8
0
 10
70.78808
 20
82.290004
 30
2.0
 70
    64
  0
VERTEX
  5
12C3
  8
0
 10
68.190004
 20
83.790004
 30
2.0
 70
    64
  0
SEQEND
  5
12C4
  8
0
  0
POLYLINE
  5
12C5
  8
0
 66
     1
 10
0.0
 20
0.0
 30
0.0
 70
    16
 71
     6
 72
     3
  0
VERTEX
  5
12C6
  8
0
 10
12.316937
 20
71.015013
 30
2.0
 70
    64
  0
VERTEX
  5
12C7
  8
0
 10
12.316937
 20
71.015013
 30
0.0
 70
    64
  0
VERTEX
  5
12C8
  8
0
 10
12.316937
 20
71.015013
 30
0.0
 70
    64
  0
VERTEX
  5
12C9
  8
0
 10
10.816937
 20
68.416937
 30
2.0
 70
    64
  0
VERTEX
  5
12CA
  8
0
 10
10.816937
 20
68.416937
 30
0.0
 70
    64
  0
VERTEX
  5
12CB
  8
0
 10
10.816937
 20
68.416937
 30
0.0
 70
    64
  0
VERTEX
  5
12CC
  8
0
 10
13.415013
 20
66.916937
 30
2.0
 70
    64
  0
VERTEX
  5
12CD
  8
0
 10
13.415013
 20
66.916937
 30
0.0
 70
    64
  0
VERTEX
  5
12CE
  8
0
 10
10.816937
 20
68.416937
 30
0.0
 70
    64
  0
VERTEX
  5
12CF
  8
0
 10
14.915013
 20
69.515013
 30
2.0
 70
    64
  0
VERTEX
  5
12D0
  8
0
 10
14.915013
 20
69.515013
 30
0.0
 70
    64
  0
VERTEX
  5
12D1
  8
0
 10
12.316937
 20
71.015013
 30
0.0
 70
    64
  0
VERTEX
  5
12D2
  8
0
 10
14.915013
 20
69.515013
 30
2.0
 70
    64
  0
VERTEX
  5
12D3
  8
0
 10
14.915013
 20
69.515013
 30
2.0
 70
    64
  0
VERTEX
  5
12D4
  8
0
 10
12.316937
 20
71.015013
 30
2.0
 70
    64
  0
VERTEX
  5
12D5
  8
0
 10
13.415013
 20
66.916937
 30
2.0
 70
    64
  0
VERTEX
  5
12D6
  8
0
 10
13.415013
 20
66.916937
 30
2.0
 70
    64
  0
VERTEX
  5
12D7
  8
0
 10
10.816937
 20
68.416937
 30
2.0
 70
    64
  0
SEQEND
  5
12D8
  8
0
  0
POLYLINE
  5
12D9
  8
0
 66
     1
 10
0.0
 20
0.0
 30
0.0
 70
    16
 71
     6
 72
     3
  0
VERTEX
  5
12DA
  8
0
 10
31.441292
 20
76.139369
 30
2.0
 70
    64
  0
VERTEX
  5
12DB
  8
0
 10
31.441292
 20
76.139369
 30
0.0
 70
    64
  0
VERTEX
  5
12DC
  8
0
 10
31.441292
 20
76.139369
 30
0.0
 70
    64
  0
VERTEX
  5
12DD
  8
0
 10
29.941292
 20
73.541292
 30
2.0
 70
    64
  0
VERTEX
  5
12DE
  8
0
 10
29.941292
 20
73.541292
 30
0.0
 70
    64
  0
VERTEX
  5
12DF
  8
0
 10
29.941292
 20
73.541292
 30
0.0
 70
    64
  0
VERTEX
  5
12E0
  8
0
 10
32.539369
 20
72.041292
 30
2.0
 70
    64
  0
VERTEX
  5
12E1
  8
0
 10
32.539369
 20
72.041292
 30
0.0
 70
    64
  0
VERTEX
  5
12E2
  8
0
 10
29.941292
 20
73.541292
 30
0.0
 70
    64
  0
VERTEX
  5
12E3
  8
0
 10
34.039369
 20
74.639369
 30
2.0
 70
    64
  0
VERTEX
  5
12E4
  8
0
 10
34.039369
 20
74.639369
 30
0.0
 70
    64
  0
VERTEX
  5
12E5
  8
0
 10
31.441292
 20
76.139369
 30
0.0
 70
    64
  0
VERTEX
  5
12E6
  8
0
 10
34.039369
 20
74.639369
 30
2.0
 70
    64
  0
VERTEX
  5
12E7
  8
0
 10
34.039369
 20
74.639369
 30
2.0
 70
    64
  0
VERTEX
  5
12E8
  8
0
 10
31.441292
 20
76.139369
 30
2.0
 70
    64
  0
VERTEX
  5
12E9
  8
0
 10
32.539369
 20
72.041292
 30
2.0
 70
    64
  0
VERTEX
  5
12EA
  8
0
 10
32.539369
 20
72.041292
 30
2.0
 70
    64
  0
VERTEX
  5
12EB
  8
0
 10
29.941292
 20
73.541292
 30
2.0
 70
    64
  0
SEQEND
  5
12EC
  8
0
  0
POLYLINE
  5
12ED
  8
0
 66
     1
 10
0.0
 20
0.0
 30
0.0
 70
    16
 71
     6
 72
     3
  0
VERTEX
  5
12EE
  8
0
 10
41.00347
 20
78.701546
 30
2.0
 70
    64
  0
VERTEX
  5
12EF
  8
0
 10
41.00347
 20
78.701546
 30
0.0
 70
    64
  0
VERTEX
  5
12F0
  8
0
 10
41.00347
 20
78.701546
 30
0.0
 70
    64
  0
VERTEX
  5
12F1
  8
0
 10
39.50347
 20
76.10347
 30
2.0
 70
    64
  0
VERTEX
  5
12F2
  8
0
 10
39.50347
 20
76.10347
 30
0.0
 70
    64
  0
VERTEX
  5
12F3
  8
0
 10
39.50347
 20
76.10347
 30
0.0
 70
    64
  0
VERTEX
  5
12F4
  8
0
 10
42.101546
 20
74.60347
 30
2.0
 70
    64
  0
VERTEX
  5
12F5
  8
0
 10
42.101546
 20
74.60347
 30
0.0
 70
    64
  0
VERTEX
  5
12F6
  8
0
 10
39.50347
 20
76.10347
 30
0.0
 70
    64
  0
VERTEX
  5
12F7
  8
0
 10
43.601546
 20
77.201546
 30
2.0
 70
    64
  0
VERTEX
  5
12F8
  8
0
 10
43.601546
 20
77.201546
 30
0.0
 70
    64
  0
VERTEX
  5
12F9
  8
0
 10
41.00347
 20
78.701546
 30
0.0
 70
    64
  0
VERTEX
  5
12FA
  8
0
 10
43.601546
 20
77.201546
 30
2.0
 70
    64
  0
VERTEX
  5
12FB
  8
0
 10
43.601546
 20
77.201546
 30
2.0
 70
    64
  0
VERTEX
  5
12FC
  8
0
 10
41.00347
 20
78.701546
 30
2.0
 70
    64
  0
VERTEX
  5
12FD
  8
0
 10
42.101546
 20
74.60347
 30
2.0
 70
    64
  0
VERTEX
  5
12FE
  8
0
 10
42.101546
 20
74.60347
 30
2.0
 70
    64
  0
VERTEX
  5
12FF
  8
0
 10
39.50347
 20
76.10347
 30
2.0
 70
    64
  0
SEQEND
  5
1300
  8
0
  0
POLYLINE
  5
1301
  8
0
 66
     1
 10
0.0
 20
0.0
 30
0.0
 70
    16
 71
     6
 72
     3
  0
VERTEX
  5
1302
  8
0
 10
21.879115
 20
73.577191
 30
2.0
 70
    64
  0
VERTEX
  5
1303
  8
0
 10
21.879115
 20
73.577191
 30
0.0
 70
    64
  0
VERTEX
  5
1304
  8
0
 10
21.879115
 20
73.577191
 30
0.0
 70
    64
  0
VERTEX
  5
1305
  8
0
 10
20.379115
 20
70.979115
 30
2.0
 70
    64
  0
VERTEX
  5
1306
  8
0
 10
20.379115
 20
70.979115
 30
0.0
 70
    64
  0
VERTEX
  5
1307
  8
0
 10
20.379115
 20
70.979115
 30
0.0
 70
    64
  0
VERTEX
  5
1308
  8
0
 10
22.977191
 20
69.479115
 30
2.0
 70
    64
  0
VERTEX
  5
1309
  8
0
 10
22.977191
 20
69.479115
 30
0.0
 70
    64
  0
VERTEX
  5
130A
  8
0
 10
20.379115
 20
70.979115
 30
0.0
 70
    64
  0
VERTEX
  5
130B
  8
0
 10
24.477191
 20
72.077191
 30
2.0
 70
    64
  0
VERTEX
  5
130C
  8
0
 10
24.477191
 20
72.077191
 30
0.0
 70
    64
  0
VERTEX
  5
130D
  8
0
 10
21.879115
 20
73.577191
 30
0.0
 70
    64
  0
VERTEX
  5
130E
  8
0
 10
24.477191
 20
72.077191
 30
2.0
 70
    64
  0
VERTEX
  5
130F
  8
0
 10
24.477191
 20
72.077191
 30
2.0
 70
    64
  0
VERTEX
  5
1310
  8
0
 10
21.879115
 20
73.577191
 30
2.0
 70
    64
  0
VERTEX
  5
1311
  8
0
 10
22.977191
 20
69.479115
 30
2.0
 70
    64
  0
VERTEX
  5
1312
  8
0
 10
22.977191
 20
69.479115
 30
2.0
 70
    64
  0
VERTEX
  5
1313
  8
0
 10
20.379115
 20
70.979115
 30
2.0
 70
    64
  0
SEQEND
  5
1314
  8
0
  0
POLYLINE
  5
1315
  8
0
 66
     1
 10
0.0
 20
0.0
 30
0.0
 70
    16
 71
     6
 72
     3
  0
VERTEX
  5
1316
  8
0
 10
50.565648
 20
81.263724
 30
2.0
 70
    64
  0
VERTEX
  5
1317
  8
0
 10
50.565648
 20
81.263724
 30
0.0
 70
    64
  0
VERTEX
  5
1318
  8
0
 10
50.565648
 20
81.263724
 30
0.0
 70
    64
  0
VERTEX
  5
1319
  8
0
 10
49.065648
 20
78.665648
 30
2.0
 70
    64
  0
VERTEX
  5
131A
  8
0
 10
49.065648
 20
78.665648
 30
0.0
 70
    64
  0
VERTEX
  5
131B
  8
0
 10
49.065648
 20
78.665648
 30
0.0
 70
    64
  0
VERTEX
  5
131C
  8
0
 10
51.663724
 20
77.165648
 30
2.0
 70
    64
  0
VERTEX
  5
131D
  8
0
 10
51.663724
 20
77.165648
 30
0.0
 70
    64
  0
VERTEX
  5
131E
  8
0
 10
49.065648
 20
78.665648
 30
0.0
 70
    64
  0
VERTEX
  5
131F
  8
0
 10
53.163724
 20
79.763724
 30
2.0
 70
    64
  0
VERTEX
  5
1320
  8
0
 10
53.163724
 20
79.763724
 30
0.0
 70
    64
  0
VERTEX
  5
1321
  8
0
 10
50.565648
 20
81.263724
 30
0.0
 70
    64
  0
VERTEX
  5
1322
  8
0
 10
53.163724
 20
79.763724
 30
2.0
 70
    64
  0
VERTEX
  5
1323
  8
0
 10
53.163724
 20
79.763724
 30
2.0
 70
    64
  0
VERTEX
  5
1324
  8
0
 10
50.565648
 20
81.263724
 30
2.0
 70
    64
  0
VERTEX
  5
1325
  8
0
 10
51.663724
 20
77.165648
 30
2.0
 70
    64
  0
VERTEX
  5
1326
  8
0
 10
51.663724
 20
77.165648
 30
2.0
 70
    64
  0
VERTEX
  5
1327
  8
0
 10
49.065648
 20
78.665648
 30
2.0
 70
    64
  0
SEQEND
  5
1328
  8
0
  0
POLYLINE
  5
1329
  8
0
 66
     1
 10
0.0
 20
0.0
 30
0.0
 70
    16
 71
     6
 72
     3
  0
VERTEX
  5
132A
  8
0
 10
60.127826
 20
83.825902
 30
2.0
 70
    64
  0
VERTEX
  5
132B
  8
0
 10
60.127826
 20
83.825902
 30
0.0
 70
    64
  0
VERTEX
  5
132C
  8
0
 10
60.127826
 20
83.825902
 30
0.0
 70
    64
  0
VERTEX
  5
132D
  8
0
 10
58.627826
 20
81.227826
 30
2.0
 70
    64
  0
VERTEX
  5
132E
  8
0
 10
58.627826
 20
81.227826
 30
0.0
 70
    64
  0
VERTEX
  5
132F
  8
0
 10
58.627826
 20
81.227826
 30
0.0
 70
    64
  0
VERTEX
  5
1330
  8
0
 10
61.225902
 20
79.727826
 30
2.0
 70
    64
  0
VERTEX
  5
1331
  8
0
 10
61.225902
 20
79.727826
 30
0.0
 70
    64
  0
VERTEX
  5
1332
  8
0
 10
58.627826
 20
81.227826
 30
0.0
 70
    64
  0
VERTEX
  5
1333
  8
0
 10
62.725902
 20
82.325902
 30
2.0
 70
    64
  0
VERTEX
  5
1334
  8
0
 10
62.725902
 20
82.325902
 30
0.0
 70
    64
  0
VERTEX
  5
1335
  8
0
 10
60.127826
 20
83.825902
 30
0.0
 70
    64
  0
VERTEX
  5
1336
  8
0
 10
62.725902
 20
82.325902
 30
2.0
 70
    64
  0
VERTEX
  5
1337
  8
0
 10
62.725902
 20
82.325902
 30
2.0
 70
    64
  0
VERTEX
  5
1338
  8
0
 10
60.127826
 20
83.825902
 30
2.0
 70
    64
  0
VERTEX
  5
1339
  8
0
 10
61.225902
 20
79.727826
 30
2.0
 70
    64
  0
VERTEX
  5
133A
  8
0
 10
61.225902
 20
79.727826
 30
2.0
 70
    64
  0
VERTEX
  5
133B
  8
0
 10
58.627826
 20
81.227826
 30
2.0
 70
    64
  0
SEQEND
  5
133C
  8
0
  0
POLYLINE
  5
133D
  8
0
 66
     1
 10
0.0
 20
0.0
 30
0.0
 70
    16
 71
     6
 72
     3
  0
VERTEX
  5
133E
  8
0
 10
106.958708
 20
32.539369
 30
2.0
 70
    64
  0
VERTEX
  5
133F
  8
0
 10
106.958708
 20
32.539369
 30
0.0
 70
    64
  0
VERTEX
  5
1340
  8
0
 10
106.958708
 20
32.539369
 30
0.0
 70
    64
  0
VERTEX
  5
1341
  8
0
 10
105.458708
 20
29.941292
 30
2.0
 70
    64
  0
VERTEX
  5
1342
  8
0
 10
105.458708
 20
29.941292
 30
0.0
 70
    64
  0
VERTEX
  5
1343
  8
0
 10
105.458708
 20
29.941292
 30
0.0
 70
    64
  0
VERTEX
  5
1344
  8
0
 10
102.860631
 20
31.441292
 30
2.0
 70
    64
  0
VERTEX
  5
1345
  8
0
 10
102.860631
 20
31.441292
 30
0.0
 70
    64
  0
VERTEX
  5
1346
  8
0
 10
105.458708
 20
29.941292
 30
0.0
 70
    64
  0
VERTEX
  5
1347
  8
0
 10
104.360631
 20
34.039369
 30
2.0
 70
    64
  0
VERTEX
  5
1348
  8
0
 10
104.360631
 20
34.039369
 30
0.0
 70
    64
  0
VERTEX
  5
1349
  8
0
 10
106.958708
 20
32.539369
 30
0.0
 70
    64
  0
VERTEX
  5
134A
  8
0
 10
104.360631
 20
34.039369
 30
2.0
 70
    64
  0
VERTEX
  5
134B
  8
0
 10
104.360631
 20
34.039369
 30
2.0
 70
    64
  0
VERTEX
  5
134C
  8
0
 10
106.958708
 20
32.539369
 30
2.0
 70
    64
  0
VERTEX
  5
134D
  8
0
 10
102.860631
 20
31.441292
 30
2.0
 70
    64
  0
VERTEX
  5
134E
  8
0
 10
102.860631
 20
31.441292
 30
2.0
 70
    64
  0
VERTEX
  5
134F
  8
0
 10
105.458708
 20
29.941292
 30
2.0
 70
    64
  0
SEQEND
  5
1350
  8
0
  0
POLYLINE
  5
1351
  8
0
 66
     1
 10
0.0
 20
0.0
 30
0.0
 70
    16
 71
     6
 72
     3
  0
VERTEX
  5
1352
  8
0
 10
112.083063
 20
13.415013
 30
2.0
 70
    64
  0
VERTEX
  5
1353
  8
0
 10
112.083063
 20
13.415013
 30
0.0
 70
    64
  0
VERTEX
  5
1354
  8
0
 10
112.083063
 20
13.415013
 30
0.0
 70
    64
  0
VERTEX
  5
1355
  8
0
 10
110.583063
 20
10.816937
 30
2.0
 70
    64
  0
VERTEX
  5
1356
  8
0
 10
110.583063
 20
10.816937
 30
0.0
 70
    64
  0
VERTEX
  5
1357
  8
0
 10
110.583063
 20
10.816937
 30
0.0
 70
    64
  0
VERTEX
  5
1358
  8
0
 10
107.984987
 20
12.316937
 30
2.0
 70
    64
  0
VERTEX
  5
1359
  8
0
 10
107.984987
 20
12.316937
 30
0.0
 70
    64
  0
VERTEX
  5
135A
  8
0
 10
110.583063
 20
10.816937
 30
0.0
 70
    64
  0
VERTEX
  5
135B
  8
0
 10
109.484987
 20
14.915013
 30
2.0
 70
    64
  0
VERTEX
  5
135C
  8
0
 10
109.484987
 20
14.915013
 30
0.0
 70
    64
  0
VERTEX
  5
135D
  8
0
 10
112.083063
 20
13.415013
 30
0.0
 70
    64
  0
VERTEX
  5
135E
  8
0
 10
109.484987
 20
14.915013
 30
2.0
 70
    64
  0
VERTEX
  5
135F
  8
0
 10
109.484987
 20
14.915013
 30
2.0
 70
    64
  0
VERTEX
  5
1360
  8
0
 10
112.083063
 20
13.415013
 30
2.0
 70
    64
  0
VERTEX
  5
1361
  8
0
 10
107.984987
 20
12.316937
 30
2.0
 70
    64
  0
VERTEX
  5
1362
  8
0
 10
107.984987
 20
12.316937
 30
2.0
 70
    64
  0
VERTEX
  5
1363
  8
0
 10
110.583063
 20
10.816937
 30
2.0
 70
    64
  0
SEQEND
  5
1364
  8
0
  0
POLYLINE
  5
1365
  8
0
 66
     1
 10
0.0
 20
0.0
 30
0.0
 70
    16
 71
     6
 72
     3
  0
VERTEX
  5
1366
  8
0
 10
109.520885
 20
22.977191
 30
2.0
 70
    64
  0
VERTEX
  5
1367
  8
0
 10
109.520885
 20
22.977191
 30
0.0
 70
    64
  0
VERTEX
  5
1368
  8
0
 10
109.520885
 20
22.977191
 30
0.0
 70
    64
  0
VERTEX
  5
1369
  8
0
 10
108.020885
 20
20.379115
 30
2.0
 70
    64
  0
VERTEX
  5
136A
  8
0
 10
108.020885
 20
20.379115
 30
0.0
 70
    64
  0
VERTEX
  5
136B
  8
0
 10
108.020885
 20
20.379115
 30
0.0
 70
    64
  0
VERTEX
  5
136C
  8
0
 10
105.422809
 20
21.879115
 30
2.0
 70
    64
  0
VERTEX
  5
136D
  8
0
 10
105.422809
 20
21.879115
 30
0.0
 70
    64
  0
VERTEX
  5
136E
  8
0
 10
108.020885
 20
20.379115
 30
0.0
 70
    64
  0
VERTEX
  5
136F
  8
0
 10
106.922809
 20
24.477191
 30
2.0
 70
    64
  0
VERTEX
  5
1370
  8
0
 10
106.922809
 20
24.477191
 30
0.0
 70
    64
  0
VERTEX
  5
1371
  8
0
 10
109.520885
 20
22.977191
 30
0.0
 70
    64
  0
VERTEX
  5
1372
  8
0
 10
106.922809
 20
24.477191
 30
2.0
 70
    64
  0
VERTEX
  5
1373
  8
0
 10
106.922809
 20
24.477191
 30
2.0
 70
    64
  0
VERTEX
  5
1374
  8
0
 10
109.520885
 20
22.977191
 30
2.0
 70
    64
  0
VERTEX
  5
1375
  8
0
 10
105.422809
 20
21.879115
 30
2.0
 70
    64
  0
VERTEX
  5
1376
  8
0
 10
105.422809
 20
21.879115
 30
2.0
 70
    64
  0
VERTEX
  5
1377
  8
0
 10
108.020885
 20
20.379115
 30
2.0
 70
    64
  0
SEQEND
  5
1378
  8
0
  0
POLYLINE
  5
1379
  8
0
 66
     1
 10
0.0
 20
0.0
 30
0.0
 70
    16
 71
     6
 72
     3
  0
VERTEX
  5
137A
  8
0
 10
101.834352
 20
51.663724
 30
2.0
 70
    64
  0
VERTEX
  5
137B
  8
0
 10
101.834352
 20
51.663724
 30
0.0
 70
    64
  0
VERTEX
  5
137C
  8
0
 10
101.834352
 20
51.663724
 30
0.0
 70
    64
  0
VERTEX
  5
137D
  8
0
 10
100.334352
 20
49.065648
 30
2.0
 70
    64
  0
VERTEX
  5
137E
  8
0
 10
100.334352
 20
49.065648
 30
0.0
 70
    64
  0
VERTEX
  5
137F
  8
0
 10
100.334352
 20
49.065648
 30
0.0
 70
    64
  0
VERTEX
  5
1380
  8
0
 10
97.736276
 20
50.565648
 30
2.0
 70
    64
  0
VERTEX
  5
1381
  8
0
 10
97.736276
 20
50.565648
 30
0.0
 70
    64
  0
VERTEX
  5
1382
  8
0
 10
100.334352
 20
49.065648
 30
0.0
 70
    64
  0
VERTEX
  5
1383
  8
0
 10
99.236276
 20
53.163724
 30
2.0
 70
    64
  0
VERTEX
  5
1384
  8
0
 10
99.236276
 20
53.163724
 30
0.0
 70
    64
  0
VERTEX
  5
1385
  8
0
 10
101.834352
 20
51.663724
 30
0.0
 70
    64
  0
VERTEX
  5
1386
  8
0
 10
99.236276
 20
53.163724
 30
2.0
 70
    64
  0
VERTEX
  5
1387
  8
0
 10
99.236276
 20
53.163724
 30
2.0
 70
    64
  0
VERTEX
  5
1388
  8
0
 10
101.834352
 20
51.663724
 30
2.0
 70
    64
  0
VERTEX
  5
1389
  8
0
 10
97.736276
 20
50.565648
 30
2.0
 70
    64
  0
VERTEX
  5
138A
  8
0
 10
97.736276
 20
50.565648
 30
2.0
 70
    64
  0
VERTEX
  5
138B
  8
0
 10
100.334352
 20
49.065648
 30
2.0
 70
    64
  0
SEQEND
  5
138C
  8
0
  0
POLYLINE
  5
138D
  8
0
 66
     1
 10
0.0
 20
0.0
 30
0.0
 70
    16
 71
     6
 72
     3
  0
VERTEX
  5
138E
  8
0
 10
104.39653
 20
42.101546
 30
2.0
 70
    64
  0
VERTEX
  5
138F
  8
0
 10
104.39653
 20
42.101546
 30
0.0
 70
    64
  0
VERTEX
  5
1390
  8
0
 10
104.39653
 20
42.101546
 30
0.0
 70
    64
  0
VERTEX
  5
1391
  8
0
 10
102.89653
 20
39.50347
 30
2.0
 70
    64
  0
VERTEX
  5
1392
  8
0
 10
102.89653
 20
39.50347
 30
0.0
 70
    64
  0
VERTEX
  5
1393
  8
0
 10
102.89653
 20
39.50347
 30
0.0
 70
    64
  0
VERTEX
  5
1394
  8
0
 10
100.298454
 20
41.00347
 30
2.0
 70
    64
  0
VERTEX
  5
1395
  8
0
 10
100.298454
 20
41.00347
 30
0.0
 70
    64
  0
VERTEX
  5
1396
  8
0
 10
102.89653
 20
39.50347
 30
0.0
 70
    64
  0
VERTEX
  5
1397
  8
0
 10
101.798454
 20
43.601546
 30
2.0
 70
    64
  0
VERTEX
  5
1398
  8
0
 10
101.798454
 20
43.601546
 30
0.0
 70
    64
  0
VERTEX
  5
1399
  8
0
 10
104.39653
 20
42.101546
 30
0.0
 70
    64
  0
VERTEX
  5
139A
  8
0
 10
101.798454
 20
43.601546
 30
2.0
 70
    64
  0
VERTEX
  5
139B
  8
0
 10
101.798454
 20
43.601546
 30
2.0
 70
    64
  0
VERTEX
  5
139C
  8
0
 10
104.39653
 20
42.101546
 30
2.0
 70
    64
  0
VERTEX
  5
139D
  8
0
 10
100.298454
 20
41.00347
 30
2.0
 70
    64
  0
VERTEX
  5
139E
  8
0
 10
100.298454
 20
41.00347
 30
2.0
 70
    64
  0
VERTEX
  5
139F
  8
0
 10
102.89653
 20
39.50347
 30
2.0
 70
    64
  0
SEQEND
  5
13A0
  8
0
  0
POLYLINE
  5
13A1
  8
0
 66
     1
 10
0.0
 20
0.0
 30
0.0
 70
    16
 71
     6
 72
     3
  0
VERTEX
  5
13A2
  8
0
 10
99.272174
 20
61.225902
 30
2.0
 70
    64
  0
VERTEX
  5
13A3
  8
0
 10
99.272174
 20
61.225902
 30
0.0
 70
    64
  0
VERTEX
  5
13A4
  8
0
 10
99.272174
 20
61.225902
 30
0.0
 70
    64
  0
VERTEX
  5
13A5
  8
0
 10
97.772174
 20
58.627826
 30
2.0
 70
    64
  0
VERTEX
  5
13A6
  8
0
 10
97.772174
 20
58.627826
 30
0.0
 70
    64
  0
VERTEX
  5
13A7
  8
0
 10
97.772174
 20
58.627826
 30
0.0
 70
    64
  0
VERTEX
  5
13A8
  8
0
 10
95.174098
 20
60.127826
 30
2.0
 70
    64
  0
VERTEX
  5
13A9
  8
0
 10
95.174098
 20
60.127826
 30
0.0
 70
    64
  0
VERTEX
  5
13AA
  8
0
 10
97.772174
 20
58.627826
 30
0.0
 70
    64
  0
VERTEX
  5
13AB
  8
0
 10
96.674098
 20
62.725902
 30
2.0
 70
    64
  0
VERTEX
  5
13AC
  8
0
 10
96.674098
 20
62.725902
 30
0.0
 70
    64
  0
VERTEX
  5
13AD
  8
0
 10
99.272174
 20
61.225902
 30
0.0
 70
    64
  0
VERTEX
  5
13AE
  8
0
 10
96.674098
 20
62.725902
 30
2.0
 70
    64
  0
VERTEX
  5
13AF
  8
0
 10
96.674098
 20
62.725902
 30
2.0
 70
    64
  0
VERTEX
  5
13B0
  8
0
 10
99.272174
 20
61.225902
 30
2.0
 70
    64
  0
VERTEX
  5
13B1
  8
0
 10
95.174098
 20
60.127826
 30
2.0
 70
    64
  0
VERTEX
  5
13B2
  8
0
 10
95.174098
 20
60.127826
 30
2.0
 70
    64
  0
VERTEX
  5
13B3
  8
0
 10
97.772174
 20
58.627826
 30
2.0
 70
    64
  0
SEQEND
  5
13B4
  8
0
  0
POLYLINE
  5
13B5
  8
0
 66
     1
 10
0.0
 20
0.0
 30
0.0
 70
    16
 71
     6
 72
     3
  0
VERTEX
  5
13B6
  8
0
 10
96.709996
 20
70.78808
 30
2.0
 70
    64
  0
VERTEX
  5
13B7
  8
0
 10
96.709996
 20
70.78808
 30
0.0
 70
    64
  0
VERTEX
  5
13B8
  8
0
 10
96.709996
 20
70.78808
 30
0.0
 70
    64
  0
VERTEX
  5
13B9
  8
0
 10
95.209996
 20
68.190004
 30
2.0
 70
    64
  0
VERTEX
  5
13BA
  8
0
 10
95.209996
 20
68.190004
 30
0.0
 70
    64
  0
VERTEX
  5
13BB
  8
0
 10
95.209996
 20
68.190004
 30
0.0
 70
    64
  0
VERTEX
  5
13BC
  8
0
 10
92.61192
 20
69.690004
 30
2.0
 70
    64
  0
VERTEX
  5
13BD
  8
0
 10
92.61192
 20
69.690004
 30
0.0
 70
    64
  0
VERTEX
  5
13BE
  8
0
 10
95.209996
 20
68.190004
 30
0.0
 70
    64
  0
VERTEX
  5
13BF
  8
0
 10
94.11192
 20
72.28808
 30
2.0
 70
    64
  0
VERTEX
  5
13C0
  8
0
 10
94.11192
 20
72.28808
 30
0.0
 70
    64
  0
VERTEX
  5
13C1
  8
0
 10
96.709996
 20
70.78808
 30
0.0
 70
    64
  0
VERTEX
  5
13C2
  8
0
 10
94.11192
 20
72.28808
 30
2.0
 70
    64
  0
VERTEX
  5
13C3
  8
0
 10
94.11192
 20
72.28808
 30
2.0
 70
    64
  0
VERTEX
  5
13C4
  8
0
 10
96.709996
 20
70.78808
 30
2.0
 70
    64
  0
VERTEX
  5
13C5
  8
0
 10
92.61192
 20
69.690004
 30
2.0
 70
    64
  0
VERTEX
  5
13C6
  8
0
 10
92.61192
 20
69.690004
 30
2.0
 70
    64
  0
VERTEX
  5
13C7
  8
0
 10
95.209996
 20
68.190004
 30
2.0
 70
    64
  0
SEQEND
  5
13C8
  8
0
  0
POLYLINE
  5
1419
  8
0
 66
     1
 10
0.0
 20
0.0
 30
0.0
 70
    16
 71
     6
 72
     3
  0
VERTEX
  5
141A
  8
0
 10
82.290004
 20
108.21192
 30
2.0
 70
    64
  0
VERTEX
  5
141B
  8
0
 10
82.290004
 20
108.21192
 30
0.0
 70
    64
  0
VERTEX
  5
141C
  8
0
 10
82.290004
 20
108.21192
 30
0.0
 70
    64
  0
VERTEX
  5
141D
  8
0
 10
83.790004
 20
110.809996
 30
2.0
 70
    64
  0
VERTEX
  5
141E
  8
0
 10
83.790004
 20
110.809996
 30
0.0
 70
    64
  0
VERTEX
  5
141F
  8
0
 10
83.790004
 20
110.809996
 30
0.0
 70
    64
  0
VERTEX
  5
1420
  8
0
 10
86.38808
 20
109.309996
 30
2.0
 70
    64
  0
VERTEX
  5
1421
  8
0
 10
86.38808
 20
109.309996
 30
0.0
 70
    64
  0
VERTEX
  5
1422
  8
0
 10
83.790004
 20
110.809996
 30
0.0
 70
    64
  0
VERTEX
  5
1423
  8
0
 10
84.88808
 20
106.71192
 30
2.0
 70
    64
  0
VERTEX
  5
1424
  8
0
 10
84.88808
 20
106.71192
 30
0.0
 70
    64
  0
VERTEX
  5
1425
  8
0
 10
82.290004
 20
108.21192
 30
0.0
 70
    64
  0
VERTEX
  5
1426
  8
0
 10
84.88808
 20
106.71192
 30
2.0
 70
    64
  0
VERTEX
  5
1427
  8
0
 10
84.88808
 20
106.71192
 30
2.0
 70
    64
  0
VERTEX
  5
1428
  8
0
 10
82.290004
 20
108.21192
 30
2.0
 70
    64
  0
VERTEX
  5
1429
  8
0
 10
86.38808
 20
109.309996
 30
2.0
 70
    64
  0
VERTEX
  5
142A
  8
0
 10
86.38808
 20
109.309996
 30
2.0
 70
    64
  0
VERTEX
  5
142B
  8
0
 10
83.790004
 20
110.809996
 30
2.0
 70
    64
  0
SEQEND
  5
142C
  8
0
  0
POLYLINE
  5
142D
  8
0
 66
     1
 10
0.0
 20
0.0
 30
0.0
 70
    16
 71
     6
 72
     3
  0
VERTEX
  5
142E
  8
0
 10
118.872174
 20
95.174098
 30
2.0
 70
    64
  0
VERTEX
  5
142F
  8
0
 10
118.872174
 20
95.174098
 30
0.0
 70
    64
  0
VERTEX
  5
1430
  8
0
 10
118.872174
 20
95.174098
 30
0.0
 70
    64
  0
VERTEX
  5
1431
  8
0
 10
120.372174
 20
97.772174
 30
2.0
 70
    64
  0
VERTEX
  5
1432
  8
0
 10
120.372174
 20
97.772174
 30
0.0
 70
    64
  0
VERTEX
  5
1433
  8
0
 10
120.372174
 20
97.772174
 30
0.0
 70
    64
  0
VERTEX
  5
1434
  8
0
 10
117.774098
 20
99.272174
 30
2.0
 70
    64
  0
VERTEX
  5
1435
  8
0
 10
117.774098
 20
99.272174
 30
0.0
 70
    64
  0
VERTEX
  5
1436
  8
0
 10
120.372174
 20
97.772174
 30
0.0
 70
    64
  0
VERTEX
  5
1437
  8
0
 10
116.274098
 20
96.674098
 30
2.0
 70
    64
  0
VERTEX
  5
1438
  8
0
 10
116.274098
 20
96.674098
 30
0.0
 70
    64
  0
VERTEX
  5
1439
  8
0
 10
118.872174
 20
95.174098
 30
0.0
 70
    64
  0
VERTEX
  5
143A
  8
0
 10
116.274098
 20
96.674098
 30
2.0
 70
    64
  0
VERTEX
  5
143B
  8
0
 10
116.274098
 20
96.674098
 30
2.0
 70
    64
  0
VERTEX
  5
143C
  8
0
 10
118.872174
 20
95.174098
 30
2.0
 70
    64
  0
VERTEX
  5
143D
  8
0
 10
117.774098
 20
99.272174
 30
2.0
 70
    64
  0
VERTEX
  5
143E
  8
0
 10
117.774098
 20
99.272174
 30
2.0
 70
    64
  0
VERTEX
  5
143F
  8
0
 10
120.372174
 20
97.772174
 30
2.0
 70
    64
  0
SEQEND
  5
1440
  8
0
  0
POLYLINE
  5
1441
  8
0
 66
     1
 10
0.0
 20
0.0
 30
0.0
 70
    16
 71
     6
 72
     3
  0
VERTEX
  5
1442
  8
0
 10
109.309996
 20
92.61192
 30
2.0
 70
    64
  0
VERTEX
  5
1443
  8
0
 10
109.309996
 20
92.61192
 30
0.0
 70
    64
  0
VERTEX
  5
1444
  8
0
 10
109.309996
 20
92.61192
 30
0.0
 70
    64
  0
VERTEX
  5
1445
  8
0
 10
110.809996
 20
95.209996
 30
2.0
 70
    64
  0
VERTEX
  5
1446
  8
0
 10
110.809996
 20
95.209996
 30
0.0
 70
    64
  0
VERTEX
  5
1447
  8
0
 10
110.809996
 20
95.209996
 30
0.0
 70
    64
  0
VERTEX
  5
1448
  8
0
 10
108.21192
 20
96.709996
 30
2.0
 70
    64
  0
VERTEX
  5
1449
  8
0
 10
108.21192
 20
96.709996
 30
0.0
 70
    64
  0
VERTEX
  5
144A
  8
0
 10
110.809996
 20
95.209996
 30
0.0
 70
    64
  0
VERTEX
  5
144B
  8
0
 10
106.71192
 20
94.11192
 30
2.0
 70
    64
  0
VERTEX
  5
144C
  8
0
 10
106.71192
 20
94.11192
 30
0.0
 70
    64
  0
VERTEX
  5
144D
  8
0
 10
109.309996
 20
92.61192
 30
0.0
 70
    64
  0
VERTEX
  5
144E
  8
0
 10
106.71192
 20
94.11192
 30
2.0
 70
    64
  0
VERTEX
  5
144F
  8
0
 10
106.71192
 20
94.11192
 30
2.0
 70
    64
  0
VERTEX
  5
1450
  8
0
 10
109.309996
 20
92.61192
 30
2.0
 70
    64
  0
VERTEX
  5
1451
  8
0
 10
108.21192
 20
96.709996
 30
2.0
 70
    64
  0
VERTEX
  5
1452
  8
0
 10
108.21192
 20
96.709996
 30
2.0
 70
    64
  0
VERTEX
  5
1453
  8
0
 10
110.809996
 20
95.209996
 30
2.0
 70
    64
  0
SEQEND
  5
1454
  8
0
  0
POLYLINE
  5
1455
  8
0
 66
     1
 10
0.0
 20
0.0
 30
0.0
 70
    16
 71
     6
 72
     3
  0
VERTEX
  5
1456
  8
0
 10
128.434352
 20
97.736276
 30
2.0
 70
    64
  0
VERTEX
  5
1457
  8
0
 10
128.434352
 20
97.736276
 30
0.0
 70
    64
  0
VERTEX
  5
1458
  8
0
 10
128.434352
 20
97.736276
 30
0.0
 70
    64
  0
VERTEX
  5
1459
  8
0
 10
129.934352
 20
100.334352
 30
2.0
 70
    64
  0
VERTEX
  5
145A
  8
0
 10
129.934352
 20
100.334352
 30
0.0
 70
    64
  0
VERTEX
  5
145B
  8
0
 10
129.934352
 20
100.334352
 30
0.0
 70
    64
  0
VERTEX
  5
145C
  8
0
 10
127.336276
 20
101.834352
 30
2.0
 70
    64
  0
VERTEX
  5
145D
  8
0
 10
127.336276
 20
101.834352
 30
0.0
 70
    64
  0
VERTEX
  5
145E
  8
0
 10
129.934352
 20
100.334352
 30
0.0
 70
    64
  0
VERTEX
  5
145F
  8
0
 10
125.836276
 20
99.236276
 30
2.0
 70
    64
  0
VERTEX
  5
1460
  8
0
 10
125.836276
 20
99.236276
 30
0.0
 70
    64
  0
VERTEX
  5
1461
  8
0
 10
128.434352
 20
97.736276
 30
0.0
 70
    64
  0
VERTEX
  5
1462
  8
0
 10
125.836276
 20
99.236276
 30
2.0
 70
    64
  0
VERTEX
  5
1463
  8
0
 10
125.836276
 20
99.236276
 30
2.0
 70
    64
  0
VERTEX
  5
1464
  8
0
 10
128.434352
 20
97.736276
 30
2.0
 70
    64
  0
VERTEX
  5
1465
  8
0
 10
127.336276
 20
101.834352
 30
2.0
 70
    64
  0
VERTEX
  5
1466
  8
0
 10
127.336276
 20
101.834352
 30
2.0
 70
    64
  0
VERTEX
  5
1467
  8
0
 10
129.934352
 20
100.334352
 30
2.0
 70
    64
  0
SEQEND
  5
1468
  8
0
  0
POLYLINE
  5
1469
  8
0
 66
     1
 10
0.0
 20
0.0
 30
0.0
 70
    16
 71
     6
 72
     3
  0
VERTEX
  5
146A
  8
0
 10
147.558708
 20
102.860631
 30
2.0
 70
    64
  0
VERTEX
  5
146B
  8
0
 10
147.558708
 20
102.860631
 30
0.0
 70
    64
  0
VERTEX
  5
146C
  8
0
 10
147.558708
 20
102.860631
 30
0.0
 70
    64
  0
VERTEX
  5
146D
  8
0
 10
149.058708
 20
105.458708
 30
2.0
 70
    64
  0
VERTEX
  5
146E
  8
0
 10
149.058708
 20
105.458708
 30
0.0
 70
    64
  0
VERTEX
  5
146F
  8
0
 10
149.058708
 20
105.458708
 30
0.0
 70
    64
  0
VERTEX
  5
1470
  8
0
 10
146.460631
 20
106.958708
 30
2.0
 70
    64
  0
VERTEX
  5
1471
  8
0
 10
146.460631
 20
106.958708
 30
0.0
 70
    64
  0
VERTEX
  5
1472
  8
0
 10
149.058708
 20
105.458708
 30
0.0
 70
    64
  0
VERTEX
  5
1473
  8
0
 10
144.960631
 20
104.360631
 30
2.0
 70
    64
  0
VERTEX
  5
1474
  8
0
 10
144.960631
 20
104.360631
 30
0.0
 70
    64
  0
VERTEX
  5
1475
  8
0
 10
147.558708
 20
102.860631
 30
0.0
 70
    64
  0
VERTEX
  5
1476
  8
0
 10
144.960631
 20
104.360631
 30
2.0
 70
    64
  0
VERTEX
  5
1477
  8
0
 10
144.960631
 20
104.360631
 30
2.0
 70
    64
  0
VERTEX
  5
1478
  8
0
 10
147.558708
 20
102.860631
 30
2.0
 70
    64
  0
VERTEX
  5
1479
  8
0
 10
146.460631
 20
106.958708
 30
2.0
 70
    64
  0
VERTEX
  5
147A
  8
0
 10
146.460631
 20
106.958708
 30
2.0
 70
    64
  0
VERTEX
  5
147B
  8
0
 10
149.058708
 20
105.458708
 30
2.0
 70
    64
  0
SEQEND
  5
147C
  8
0
  0
POLYLINE
  5
147D
  8
0
 66
     1
 10
0.0
 20
0.0
 30
0.0
 70
    16
 71
     6
 72
     3
  0
VERTEX
  5
147E
  8
0
 10
137.99653
 20
100.298454
 30
2.0
 70
    64
  0
VERTEX
  5
147F
  8
0
 10
137.99653
 20
100.298454
 30
0.0
 70
    64
  0
VERTEX
  5
1480
  8
0
 10
137.99653
 20
100.298454
 30
0.0
 70
    64
  0
VERTEX
  5
1481
  8
0
 10
139.49653
 20
102.89653
 30
2.0
 70
    64
  0
VERTEX
  5
1482
  8
0
 10
139.49653
 20
102.89653
 30
0.0
 70
    64
  0
VERTEX
  5
1483
  8
0
 10
139.49653
 20
102.89653
 30
0.0
 70
    64
  0
VERTEX
  5
1484
  8
0
 10
136.898454
 20
104.39653
 30
2.0
 70
    64
  0
VERTEX
  5
1485
  8
0
 10
136.898454
 20
104.39653
 30
0.0
 70
    64
  0
VERTEX
  5
1486
  8
0
 10
139.49653
 20
102.89653
 30
0.0
 70
    64
  0
VERTEX
  5
1487
  8
0
 10
135.398454
 20
101.798454
 30
2.0
 70
    64
  0
VERTEX
  5
1488
  8
0
 10
135.398454
 20
101.798454
 30
0.0
 70
    64
  0
VERTEX
  5
1489
  8
0
 10
137.99653
 20
100.298454
 30
0.0
 70
    64
  0
VERTEX
  5
148A
  8
0
 10
135.398454
 20
101.798454
 30
2.0
 70
    64
  0
VERTEX
  5
148B
  8
0
 10
135.398454
 20
101.798454
 30
2.0
 70
    64
  0
VERTEX
  5
148C
  8
0
 10
137.99653
 20
100.298454
 30
2.0
 70
    64
  0
VERTEX
  5
148D
  8
0
 10
136.898454
 20
104.39653
 30
2.0
 70
    64
  0
VERTEX
  5
148E
  8
0
 10
136.898454
 20
104.39653
 30
2.0
 70
    64
  0
VERTEX
  5
148F
  8
0
 10
139.49653
 20
102.89653
 30
2.0
 70
    64
  0
SEQEND
  5
1490
  8
0
  0
POLYLINE
  5
1491
  8
0
 66
     1
 10
0.0
 20
0.0
 30
0.0
 70
    16
 71
     6
 72
     3
  0
VERTEX
  5
1492
  8
0
 10
157.120885
 20
105.422809
 30
2.0
 70
    64
  0
VERTEX
  5
1493
  8
0
 10
157.120885
 20
105.422809
 30
0.0
 70
    64
  0
VERTEX
  5
1494
  8
0
 10
157.120885
 20
105.422809
 30
0.0
 70
    64
  0
VERTEX
  5
1495
  8
0
 10
158.620885
 20
108.020885
 30
2.0
 70
    64
  0
VERTEX
  5
1496
  8
0
 10
158.620885
 20
108.020885
 30
0.0
 70
    64
  0
VERTEX
  5
1497
  8
0
 10
158.620885
 20
108.020885
 30
0.0
 70
    64
  0
VERTEX
  5
1498
  8
0
 10
156.022809
 20
109.520885
 30
2.0
 70
    64
  0
VERTEX
  5
1499
  8
0
 10
156.022809
 20
109.520885
 30
0.0
 70
    64
  0
VERTEX
  5
149A
  8
0
 10
158.620885
 20
108.020885
 30
0.0
 70
    64
  0
VERTEX
  5
149B
  8
0
 10
154.522809
 20
106.922809
 30
2.0
 70
    64
  0
VERTEX
  5
149C
  8
0
 10
154.522809
 20
106.922809
 30
0.0
 70
    64
  0
VERTEX
  5
149D
  8
0
 10
157.120885
 20
105.422809
 30
0.0
 70
    64
  0
VERTEX
  5
149E
  8
0
 10
154.522809
 20
106.922809
 30
2.0
 70
    64
  0
VERTEX
  5
149F
  8
0
 10
154.522809
 20
106.922809
 30
2.0
 70
    64
  0
VERTEX
  5
14A0
  8
0
 10
157.120885
 20
105.422809
 30
2.0
 70
    64
  0
VERTEX
  5
14A1
  8
0
 10
156.022809
 20
109.520885
 30
2.0
 70
    64
  0
VERTEX
  5
14A2
  8
0
 10
156.022809
 20
109.520885
 30
2.0
 70
    64
  0
VERTEX
  5
14A3
  8
0
 10
158.620885
 20
108.020885
 30
2.0
 70
    64
  0
SEQEND
  5
14A4
  8
0
  0
POLYLINE
  5
14A5
  8
0
 66
     1
 10
0.0
 20
0.0
 30
0.0
 70
    16
 71
     6
 72
     3
  0
VERTEX
  5
14A6
  8
0
 10
166.683063
 20
107.984987
 30
2.0
 70
    64
  0
VERTEX
  5
14A7
  8
0
 10
166.683063
 20
107.984987
 30
0.0
 70
    64
  0
VERTEX
  5
14A8
  8
0
 10
166.683063
 20
107.984987
 30
0.0
 70
    64
  0
VERTEX
  5
14A9
  8
0
 10
168.183063
 20
110.583063
 30
2.0
 70
    64
  0
VERTEX
  5
14AA
  8
0
 10
168.183063
 20
110.583063
 30
0.0
 70
    64
  0
VERTEX
  5
14AB
  8
0
 10
168.183063
 20
110.583063
 30
0.0
 70
    64
  0
VERTEX
  5
14AC
  8
0
 10
165.584987
 20
112.083063
 30
2.0
 70
    64
  0
VERTEX
  5
14AD
  8
0
 10
165.584987
 20
112.083063
 30
0.0
 70
    64
  0
VERTEX
  5
14AE
  8
0
 10
168.183063
 20
110.583063
 30
0.0
 70
    64
  0
VERTEX
  5
14AF
  8
0
 10
164.084987
 20
109.484987
 30
2.0
 70
    64
  0
VERTEX
  5
14B0
  8
0
 10
164.084987
 20
109.484987
 30
0.0
 70
    64
  0
VERTEX
  5
14B1
  8
0
 10
166.683063
 20
107.984987
 30
0.0
 70
    64
  0
VERTEX
  5
14B2
  8
0
 10
164.084987
 20
109.484987
 30
2.0
 70
    64
  0
VERTEX
  5
14B3
  8
0
 10
164.084987
 20
109.484987
 30
2.0
 70
    64
  0
VERTEX
  5
14B4
  8
0
 10
166.683063
 20
107.984987
 30
2.0
 70
    64
  0
VERTEX
  5
14B5
  8
0
 10
165.584987
 20
112.083063
 30
2.0
 70
    64
  0
VERTEX
  5
14B6
  8
0
 10
165.584987
 20
112.083063
 30
2.0
 70
    64
  0
VERTEX
  5
14B7
  8
0
 10
168.183063
 20
110.583063
 30
2.0
 70
    64
  0
SEQEND
  5
14B8
  8
0
  0
POLYLINE
  5
14B9
  8
0
 66
     1
 10
0.0
 20
0.0
 30
0.0
 70
    16
 71
     6
 72
     3
  0
VERTEX
  5
14BA
  8
0
 10
69.479115
 20
156.022809
 30
2.0
 70
    64
  0
VERTEX
  5
14BB
  8
0
 10
69.479115
 20
156.022809
 30
0.0
 70
    64
  0
VERTEX
  5
14BC
  8
0
 10
69.479115
 20
156.022809
 30
0.0
 70
    64
  0
VERTEX
  5
14BD
  8
0
 10
70.979115
 20
158.620885
 30
2.0
 70
    64
  0
VERTEX
  5
14BE
  8
0
 10
70.979115
 20
158.620885
 30
0.0
 70
    64
  0
VERTEX
  5
14BF
  8
0
 10
70.979115
 20
158.620885
 30
0.0
 70
    64
  0
VERTEX
  5
14C0
  8
0
 10
73.577191
 20
157.120885
 30
2.0
 70
    64
  0
VERTEX
  5
14C1
  8
0
 10
73.577191
 20
157.120885
 30
0.0
 70
    64
  0
VERTEX
  5
14C2
  8
0
 10
70.979115
 20
158.620885
 30
0.0
 70
    64
  0
VERTEX
  5
14C3
  8
0
 10
72.077191
 20
154.522809
 30
2.0
 70
    64
  0
VERTEX
  5
14C4
  8
0
 10
72.077191
 20
154.522809
 30
0.0
 70
    64
  0
VERTEX
  5
14C5
  8
0
 10
69.479115
 20
156.022809
 30
0.0
 70
    64
  0
VERTEX
  5
14C6
  8
0
 10
72.077191
 20
154.522809
 30
2.0
 70
    64
  0
VERTEX
  5
14C7
  8
0
 10
72.077191
 20
154.522809
 30
2.0
 70
    64
  0
VERTEX
  5
14C8
  8
0
 10
69.479115
 20
156.022809
 30
2.0
 70
    64
  0
VERTEX
  5
14C9
  8
0
 10
73.577191
 20
157.120885
 30
2.0
 70
    64
  0
VERTEX
  5
14CA
  8
0
 10
73.577191
 20
157.120885
 30
2.0
 70
    64
  0
VERTEX
  5
14CB
  8
0
 10
70.979115
 20
158.620885
 30
2.0
 70
    64
  0
SEQEND
  5
14CC
  8
0
  0
POLYLINE
  5
14CD
  8
0
 66
     1
 10
0.0
 20
0.0
 30
0.0
 70
    16
 71
     6
 72
     3
  0
VERTEX
  5
14CE
  8
0
 10
66.916937
 20
165.584987
 30
2.0
 70
    64
  0
VERTEX
  5
14CF
  8
0
 10
66.916937
 20
165.584987
 30
0.0
 70
    64
  0
VERTEX
  5
14D0
  8
0
 10
66.916937
 20
165.584987
 30
0.0
 70
    64
  0
VERTEX
  5
14D1
  8
0
 10
68.416937
 20
168.183063
 30
2.0
 70
    64
  0
VERTEX
  5
14D2
  8
0
 10
68.416937
 20
168.183063
 30
0.0
 70
    64
  0
VERTEX
  5
14D3
  8
0
 10
68.416937
 20
168.183063
 30
0.0
 70
    64
  0
VERTEX
  5
14D4
  8
0
 10
71.015013
 20
166.683063
 30
2.0
 70
    64
  0
VERTEX
  5
14D5
  8
0
 10
71.015013
 20
166.683063
 30
0.0
 70
    64
  0
VERTEX
  5
14D6
  8
0
 10
68.416937
 20
168.183063
 30
0.0
 70
    64
  0
VERTEX
  5
14D7
  8
0
 10
69.515013
 20
164.084987
 30
2.0
 70
    64
  0
VERTEX
  5
14D8
  8
0
 10
69.515013
 20
164.084987
 30
0.0
 70
    64
  0
VERTEX
  5
14D9
  8
0
 10
66.916937
 20
165.584987
 30
0.0
 70
    64
  0
VERTEX
  5
14DA
  8
0
 10
69.515013
 20
164.084987
 30
2.0
 70
    64
  0
VERTEX
  5
14DB
  8
0
 10
69.515013
 20
164.084987
 30
2.0
 70
    64
  0
VERTEX
  5
14DC
  8
0
 10
66.916937
 20
165.584987
 30
2.0
 70
    64
  0
VERTEX
  5
14DD
  8
0
 10
71.015013
 20
166.683063
 30
2.0
 70
    64
  0
VERTEX
  5
14DE
  8
0
 10
71.015013
 20
166.683063
 30
2.0
 70
    64
  0
VERTEX
  5
14DF
  8
0
 10
68.416937
 20
168.183063
 30
2.0
 70
    64
  0
SEQEND
  5
14E0
  8
0
  0
POLYLINE
  5
14E1
  8
0
 66
     1
 10
0.0
 20
0.0
 30
0.0
 70
    16
 71
     6
 72
     3
  0
VERTEX
  5
14E2
  8
0
 10
77.165648
 20
127.336276
 30
2.0
 70
    64
  0
VERTEX
  5
14E3
  8
0
 10
77.165648
 20
127.336276
 30
0.0
 70
    64
  0
VERTEX
  5
14E4
  8
0
 10
77.165648
 20
127.336276
 30
0.0
 70
    64
  0
VERTEX
  5
14E5
  8
0
 10
78.665648
 20
129.934352
 30
2.0
 70
    64
  0
VERTEX
  5
14E6
  8
0
 10
78.665648
 20
129.934352
 30
0.0
 70
    64
  0
VERTEX
  5
14E7
  8
0
 10
78.665648
 20
129.934352
 30
0.0
 70
    64
  0
VERTEX
  5
14E8
  8
0
 10
81.263724
 20
128.434352
 30
2.0
 70
    64
  0
VERTEX
  5
14E9
  8
0
 10
81.263724
 20
128.434352
 30
0.0
 70
    64
  0
VERTEX
  5
14EA
  8
0
 10
78.665648
 20
129.934352
 30
0.0
 70
    64
  0
VERTEX
  5
14EB
  8
0
 10
79.763724
 20
125.836276
 30
2.0
 70
    64
  0
VERTEX
  5
14EC
  8
0
 10
79.763724
 20
125.836276
 30
0.0
 70
    64
  0
VERTEX
  5
14ED
  8
0
 10
77.165648
 20
127.336276
 30
0.0
 70
    64
  0
VERTEX
  5
14EE
  8
0
 10
79.763724
 20
125.836276
 30
2.0
 70
    64
  0
VERTEX
  5
14EF
  8
0
 10
79.763724
 20
125.836276
 30
2.0
 70
    64
  0
VERTEX
  5
14F0
  8
0
 10
77.165648
 20
127.336276
 30
2.0
 70
    64
  0
VERTEX
  5
14F1
  8
0
 10
81.263724
 20
128.434352
 30
2.0
 70
    64
  0
VERTEX
  5
14F2
  8
0
 10
81.263724
 20
128.434352
 30
2.0
 70
    64
  0
VERTEX
  5
14F3
  8
0
 10
78.665648
 20
129.934352
 30
2.0
 70
    64
  0
SEQEND
  5
14F4
  8
0
  0
POLYLINE
  5
14F5
  8
0
 66
     1
 10
0.0
 20
0.0
 30
0.0
 70
    16
 71
     6
 72
     3
  0
VERTEX
  5
14F6
  8
0
 10
74.60347
 20
136.898454
 30
2.0
 70
    64
  0
VERTEX
  5
14F7
  8
0
 10
74.60347
 20
136.898454
 30
0.0
 70
    64
  0
VERTEX
  5
14F8
  8
0
 10
74.60347
 20
136.898454
 30
0.0
 70
    64
  0
VERTEX
  5
14F9
  8
0
 10
76.10347
 20
139.49653
 30
2.0
 70
    64
  0
VERTEX
  5
14FA
  8
0
 10
76.10347
 20
139.49653
 30
0.0
 70
    64
  0
VERTEX
  5
14FB
  8
0
 10
76.10347
 20
139.49653
 30
0.0
 70
    64
  0
VERTEX
  5
14FC
  8
0
 10
78.701546
 20
137.99653
 30
2.0
 70
    64
  0
VERTEX
  5
14FD
  8
0
 10
78.701546
 20
137.99653
 30
0.0
 70
    64
  0
VERTEX
  5
14FE
  8
0
 10
76.10347
 20
139.49653
 30
0.0
 70
    64
  0
VERTEX
  5
14FF
  8
0
 10
77.201546
 20
135.398454
 30
2.0
 70
    64
  0
VERTEX
  5
1500
  8
0
 10
77.201546
 20
135.398454
 30
0.0
 70
    64
  0
VERTEX
  5
1501
  8
0
 10
74.60347
 20
136.898454
 30
0.0
 70
    64
  0
VERTEX
  5
1502
  8
0
 10
77.201546
 20
135.398454
 30
2.0
 70
    64
  0
VERTEX
  5
1503
  8
0
 10
77.201546
 20
135.398454
 30
2.0
 70
    64
  0
VERTEX
  5
1504
  8
0
 10
74.60347
 20
136.898454
 30
2.0
 70
    64
  0
VERTEX
  5
1505
  8
0
 10
78.701546
 20
137.99653
 30
2.0
 70
    64
  0
VERTEX
  5
1506
  8
0
 10
78.701546
 20
137.99653
 30
2.0
 70
    64
  0
VERTEX
  5
1507
  8
0
 10
76.10347
 20
139.49653
 30
2.0
 70
    64
  0
SEQEND
  5
1508
  8
0
  0
POLYLINE
  5
1509
  8
0
 66
     1
 10
0.0
 20
0.0
 30
0.0
 70
    16
 71
     6
 72
     3
  0
VERTEX
  5
150A
  8
0
 10
72.041292
 20
146.460631
 30
2.0
 70
    64
  0
VERTEX
  5
150B
  8
0
 10
72.041292
 20
146.460631
 30
0.0
 70
    64
  0
VERTEX
  5
150C
  8
0
 10
72.041292
 20
146.460631
 30
0.0
 70
    64
  0
VERTEX
  5
150D
  8
0
 10
73.541292
 20
149.058708
 30
2.0
 70
    64
  0
VERTEX
  5
150E
  8
0
 10
73.541292
 20
149.058708
 30
0.0
 70
    64
  0
VERTEX
  5
150F
  8
0
 10
73.541292
 20
149.058708
 30
0.0
 70
    64
  0
VERTEX
  5
1510
  8
0
 10
76.139369
 20
147.558708
 30
2.0
 70
    64
  0
VERTEX
  5
1511
  8
0
 10
76.139369
 20
147.558708
 30
0.0
 70
    64
  0
VERTEX
  5
1512
  8
0
 10
73.541292
 20
149.058708
 30
0.0
 70
    64
  0
VERTEX
  5
1513
  8
0
 10
74.639369
 20
144.960631
 30
2.0
 70
    64
  0
VERTEX
  5
1514
  8
0
 10
74.639369
 20
144.960631
 30
0.0
 70
    64
  0
VERTEX
  5
1515
  8
0
 10
72.041292
 20
146.460631
 30
0.0
 70
    64
  0
VERTEX
  5
1516
  8
0
 10
74.639369
 20
144.960631
 30
2.0
 70
    64
  0
VERTEX
  5
1517
  8
0
 10
74.639369
 20
144.960631
 30
2.0
 70
    64
  0
VERTEX
  5
1518
  8
0
 10
72.041292
 20
146.460631
 30
2.0
 70
    64
  0
VERTEX
  5
1519
  8
0
 10
76.139369
 20
147.558708
 30
2.0
 70
    64
  0
VERTEX
  5
151A
  8
0
 10
76.139369
 20
147.558708
 30
2.0
 70
    64
  0
VERTEX
  5
151B
  8
0
 10
73.541292
 20
149.058708
 30
2.0
 70
    64
  0
SEQEND
  5
151C
  8
0
  0
ENDSEC
  0
EOF
