  0
SECTION
  2
HEADER
  9
$ACADVER
  1
AC1015
  9
$ACADMAINTVER
 70
    20
  9
$DWGCODEPAGE
  3
ANSI_932
  9
$INSBASE
 10
0.0
 20
0.0
 30
0.0
  9
$EXTMIN
 10
0.0011825913702049
 20
-0.18344321356101
 30
0.0
  9
$EXTMAX
 10
0.3593227211206624
 20
0.0554136817664257
 30
0.0
  9
$LIMMIN
 10
0.0
 20
0.0
  9
$LIMMAX
 10
12.0
 20
9.0
  9
$ORTHOMODE
 70
     0
  9
$REGENMODE
 70
     1
  9
$FILLMODE
 70
     1
  9
$QTEXTMODE
 70
     0
  9
$MIRRTEXT
 70
     1
  9
$LTSCALE
 40
1.0
  9
$ATTMODE
 70
     1
  9
$TEXTSIZE
 40
0.2
  9
$TRACEWID
 40
0.05
  9
$TEXTSTYLE
  7
Standard
  9
$CLAYER
  8
0
  9
$CELTYPE
  6
ByBlock
  9
$CECOLOR
 62
   256
  9
$CELTSCALE
 40
1.0
  9
$DISPSILH
 70
     0
  9
$DIMSCALE
 40
1.0
  9
$DIMASZ
 40
0.18
  9
$DIMEXO
 40
0.0625
  9
$DIMDLI
 40
0.38
  9
$DIMRND
 40
0.0
  9
$DIMDLE
 40
0.0
  9
$DIMEXE
 40
0.18
  9
$DIMTP
 40
0.0
  9
$DIMTM
 40
0.0
  9
$DIMTXT
 40
0.18
  9
$DIMCEN
 40
0.09
  9
$DIMTSZ
 40
0.0
  9
$DIMTOL
 70
     0
  9
$DIMLIM
 70
     0
  9
$DIMTIH
 70
     1
  9
$DIMTOH
 70
     1
  9
$DIMSE1
 70
     0
  9
$DIMSE2
 70
     0
  9
$DIMTAD
 70
     0
  9
$DIMZIN
 70
     0
  9
$DIMBLK
  1

  9
$DIMASO
 70
     1
  9
$DIMSHO
 70
     1
  9
$DIMPOST
  1

  9
$DIMAPOST
  1

  9
$DIMALT
 70
     0
  9
$DIMALTD
 70
     2
  9
$DIMALTF
 40
25.4
  9
$DIMLFAC
 40
1.0
  9
$DIMTOFL
 70
     0
  9
$DIMTVP
 40
0.0
  9
$DIMTIX
 70
     0
  9
$DIMSOXD
 70
     0
  9
$DIMSAH
 70
     0
  9
$DIMBLK1
  1

  9
$DIMBLK2
  1

  9
$DIMSTYLE
  2
Standard
  9
$DIMCLRD
 70
     0
  9
$DIMCLRE
 70
     0
  9
$DIMCLRT
 70
     0
  9
$DIMTFAC
 40
1.0
  9
$DIMGAP
 40
0.09
  9
$DIMJUST
 70
     0
  9
$DIMSD1
 70
     0
  9
$DIMSD2
 70
     0
  9
$DIMTOLJ
 70
     1
  9
$DIMTZIN
 70
     0
  9
$DIMALTZ
 70
     0
  9
$DIMALTTZ
 70
     0
  9
$DIMUPT
 70
     0
  9
$DIMDEC
 70
     4
  9
$DIMTDEC
 70
     4
  9
$DIMALTU
 70
     2
  9
$DIMALTTD
 70
     2
  9
$DIMTXSTY
  7
Standard
  9
$DIMAUNIT
 70
     0
  9
$DIMADEC
 70
     0
  9
$DIMALTRND
 40
0.0
  9
$DIMAZIN
 70
     0
  9
$DIMDSEP
 70
    46
  9
$DIMATFIT
 70
     3
  9
$DIMFRAC
 70
     0
  9
$DIMLDRBLK
  1

  9
$DIMLUNIT
 70
     2
  9
$DIMLWD
 70
    -2
  9
$DIMLWE
 70
    -2
  9
$DIMTMOVE
 70
     0
  9
$LUNITS
 70
     2
  9
$LUPREC
 70
     4
  9
$SKETCHINC
 40
0.1
  9
$FILLETRAD
 40
0.5
  9
$AUNITS
 70
     0
  9
$AUPREC
 70
     0
  9
$MENU
  1
.
  9
$ELEVATION
 40
0.0
  9
$PELEVATION
 40
0.0
  9
$THICKNESS
 40
0.0
  9
$LIMCHECK
 70
     0
  9
$CHAMFERA
 40
0.5
  9
$CHAMFERB
 40
0.5
  9
$CHAMFERC
 40
1.0
  9
$CHAMFERD
 40
0.0
  9
$SKPOLY
 70
     0
  9
$TDCREATE
 40
2456793.907723808
  9
$TDUCREATE
 40
2456793.532723808
  9
$TDUPDATE
 40
2457020.640194421
  9
$TDUUPDATE
 40
2457020.265194421
  9
$TDINDWG
 40
0.0011936227
  9
$TDUSRTIMER
 40
0.0011936227
  9
$USRTIMER
 70
     1
  9
$ANGBASE
 50
0.0
  9
$ANGDIR
 70
     0
  9
$PDMODE
 70
     0
  9
$PDSIZE
 40
0.0
  9
$PLINEWID
 40
0.0
  9
$SPLFRAME
 70
     0
  9
$SPLINETYPE
 70
     6
  9
$SPLINESEGS
 70
     8
  9
$HANDSEED
  5
462
  9
$SURFTAB1
 70
     6
  9
$SURFTAB2
 70
     6
  9
$SURFTYPE
 70
     6
  9
$SURFU
 70
     6
  9
$SURFV
 70
     6
  9
$UCSBASE
  2

  9
$UCSNAME
  2

  9
$UCSORG
 10
0.0
 20
0.0
 30
0.0
  9
$UCSXDIR
 10
1.0
 20
0.0
 30
0.0
  9
$UCSYDIR
 10
0.0
 20
1.0
 30
0.0
  9
$UCSORTHOREF
  2

  9
$UCSORTHOVIEW
 70
     0
  9
$UCSORGTOP
 10
0.0
 20
0.0
 30
0.0
  9
$UCSORGBOTTOM
 10
0.0
 20
0.0
 30
0.0
  9
$UCSORGLEFT
 10
0.0
 20
0.0
 30
0.0
  9
$UCSORGRIGHT
 10
0.0
 20
0.0
 30
0.0
  9
$UCSORGFRONT
 10
0.0
 20
0.0
 30
0.0
  9
$UCSORGBACK
 10
0.0
 20
0.0
 30
0.0
  9
$PUCSBASE
  2

  9
$PUCSNAME
  2

  9
$PUCSORG
 10
0.0
 20
0.0
 30
0.0
  9
$PUCSXDIR
 10
1.0
 20
0.0
 30
0.0
  9
$PUCSYDIR
 10
0.0
 20
1.0
 30
0.0
  9
$PUCSORTHOREF
  2

  9
$PUCSORTHOVIEW
 70
     0
  9
$PUCSORGTOP
 10
0.0
 20
0.0
 30
0.0
  9
$PUCSORGBOTTOM
 10
0.0
 20
0.0
 30
0.0
  9
$PUCSORGLEFT
 10
0.0
 20
0.0
 30
0.0
  9
$PUCSORGRIGHT
 10
0.0
 20
0.0
 30
0.0
  9
$PUCSORGFRONT
 10
0.0
 20
0.0
 30
0.0
  9
$PUCSORGBACK
 10
0.0
 20
0.0
 30
0.0
  9
$USERI1
 70
     0
  9
$USERI2
 70
     0
  9
$USERI3
 70
     0
  9
$USERI4
 70
     0
  9
$USERI5
 70
     0
  9
$USERR1
 40
0.0
  9
$USERR2
 40
0.0
  9
$USERR3
 40
0.0
  9
$USERR4
 40
0.0
  9
$USERR5
 40
0.0
  9
$WORLDVIEW
 70
     1
  9
$SHADEDGE
 70
     3
  9
$SHADEDIF
 70
    70
  9
$TILEMODE
 70
     1
  9
$MAXACTVP
 70
    64
  9
$PINSBASE
 10
0.0
 20
0.0
 30
0.0
  9
$PLIMCHECK
 70
     0
  9
$PEXTMIN
 10
1.000000000000000E+20
 20
1.000000000000000E+20
 30
1.000000000000000E+20
  9
$PEXTMAX
 10
-1.000000000000000E+20
 20
-1.000000000000000E+20
 30
-1.000000000000000E+20
  9
$PLIMMIN
 10
0.0
 20
0.0
  9
$PLIMMAX
 10
12.0
 20
9.0
  9
$UNITMODE
 70
     0
  9
$VISRETAIN
 70
     1
  9
$PLINEGEN
 70
     0
  9
$PSLTSCALE
 70
     1
  9
$TREEDEPTH
 70
  3020
  9
$CMLSTYLE
  2
Standard
  9
$CMLJUST
 70
     0
  9
$CMLSCALE
 40
1.0
  9
$PROXYGRAPHICS
 70
     1
  9
$MEASUREMENT
 70
     0
  9
$CELWEIGHT
370
    -1
  9
$ENDCAPS
280
     0
  9
$JOINSTYLE
280
     0
  9
$LWDISPLAY
290
     0
  9
$INSUNITS
 70
     0
  9
$HYPERLINKBASE
  1

  9
$STYLESHEET
  1

  9
$XEDIT
290
     1
  9
$CEPSNTYPE
380
     0
  9
$PSTYLEMODE
290
     1
  9
$FINGERPRINTGUID
  2
{2203105F-7461-4646-AA93-6BD38218BD6D}
  9
$VERSIONGUID
  2
{2D0AD0B1-9402-4A5C-A40F-DA6DF7414F76}
  9
$EXTNAMES
290
     1
  9
$PSVPSCALE
 40
0.0
  9
$OLESTARTUP
290
     0
  0
ENDSEC
  0
SECTION
  2
CLASSES
  0
CLASS
  1
ACDBDICTIONARYWDFLT
  2
AcDbDictionaryWithDefault
  3
ObjectDBX Classes
 90
        0
280
     0
281
     0
  0
CLASS
  1
MATERIAL
  2
AcDbMaterial
  3
ObjectDBX Classes
 90
     1153
280
     0
281
     0
  0
CLASS
  1
VISUALSTYLE
  2
AcDbVisualStyle
  3
ObjectDBX Classes
 90
     4095
280
     0
281
     0
  0
CLASS
  1
TABLESTYLE
  2
AcDbTableStyle
  3
ObjectDBX Classes
 90
     4095
280
     0
281
     0
  0
CLASS
  1
SCALE
  2
AcDbScale
  3
ObjectDBX Classes
 90
     1153
280
     0
281
     0
  0
CLASS
  1
MLEADERSTYLE
  2
AcDbMLeaderStyle
  3
ACDB_MLEADERSTYLE_CLASS
 90
     4095
280
     0
281
     0
  0
CLASS
  1
ACDBSECTIONVIEWSTYLE
  2
AcDbSectionViewStyle
  3
ObjectDBX Classes
 90
     1025
280
     0
281
     0
  0
CLASS
  1
ACDBDETAILVIEWSTYLE
  2
AcDbDetailViewStyle
  3
ObjectDBX Classes
 90
     1025
280
     0
281
     0
  0
CLASS
  1
ACME_DOCUMENT
  2
AcMeDbDoc
  3
AcMeServices
 90
     1024
280
     0
281
     0
  0
CLASS
  1
AMGSETTINGSOBJ
  2
AmgSettingsObj
  3
"AcadM|Product Description: AutoCAD Mechanical|Company: Autodesk, Inc."
 90
     1024
280
     0
281
     0
  0
CLASS
  1
ACMESCOPE
  2
AcMeScope
  3
AcMeServices
 90
     1024
280
     0
281
     0
  0
CLASS
  1
ACMECOMMANDHISTORY
  2
AcMeCommandHistory
  3
AcMeServices
 90
     1024
280
     0
281
     0
  0
CLASS
  1
ACIMSYSVARMAN
  2
AcImSysVarManager
  3
AcMeServices
 90
     1024
280
     0
281
     0
  0
CLASS
  1
ACIMINTSYSVAR
  2
AcImIntSysVar
  3
AcMeServices
 90
     1024
280
     0
281
     0
  0
CLASS
  1
ACMESTATEMGR
  2
AcMeStateMgr
  3
AcMeServices
 90
     1024
280
     0
281
     0
  0
CLASS
  1
ACDBENTITYCACHE
  2
AcMeEntityCache
  3
AcMeServices
 90
     1024
280
     0
281
     0
  0
CLASS
  1
ACGREFMASTER
  2
AcGrefMaster
  3
AcAttribServices
 90
     1024
280
     0
281
     0
  0
CLASS
  1
ACME_DATABASE
  2
AcMeDbDatabase
  3
AcMeServices
 90
     1024
280
     0
281
     0
  0
CLASS
  1
ACRFINSADJUSTERMGR
  2
AcRfInsAdjusterMgr
  3
AcMeServices
 90
     1024
280
     0
281
     0
  0
CLASS
  1
ACGREFACADMASTER
  2
AcGrefacadMaster
  3
AcGrefServices
 90
     1024
280
     0
281
     0
  0
CLASS
  1
AMDTMENUSTATEMGR
  2
AmdtMenuStateMgr
  3
McadcomServices
 90
     1024
280
     0
281
     0
  0
CLASS
  1
AMDTMCOMMENUSTATE
  2
AmdtMcomMenuState
  3
McadcomServices
 90
     1024
280
     0
281
     0
  0
CLASS
  1
AMIMASTER
  2
AmiMaster
  3
AmiServices
 90
     1024
280
     0
281
     0
  0
CLASS
  1
MAPIAMMOUDLE
  2
MApiAmModule
  3
MApiAmServices
 90
     1024
280
     0
281
     0
  0
CLASS
  1
ACIMSTRSYSVAR
  2
AcImStrSysVar
  3
AcMeServices
 90
     1024
280
     0
281
     0
  0
CLASS
  1
AMDTAMMENUSTATE
  2
AmdtAmMenuState
  3
DesignerAssemblies
 90
     1024
280
     0
281
     0
  0
CLASS
  1
ACAMPROJECT
  2
AcAmProject
  3
DesignerAssemblies
 90
     1024
280
     0
281
     0
  0
CLASS
  1
ACAMGRCOMPDEF
  2
AcAmGrCompDef
  3
DesignerAssemblies
 90
     1024
280
     0
281
     0
  0
CLASS
  1
ACAMCOMPDEF
  2
AcAmCompDef
  3
DesignerAssemblies
 90
     1024
280
     0
281
     0
  0
CLASS
  1
ACAMCOMPDEFMGR
  2
AcAmCompDefMgr
  3
DesignerAssemblies
 90
     1024
280
     0
281
     0
  0
CLASS
  1
AMCONTEXTMGR
  2
AcAmContextMgr
  3
DesignerAssemblies
 90
     1024
280
     0
281
     0
  0
CLASS
  1
ACAMCONTEXTMODELER
  2
AcAmContextModeler
  3
DesignerAssemblies
 90
     1024
280
     0
281
     0
  0
CLASS
  1
ACMDATADICTIONARY
  2
AcmDataDictionary
  3
"AcmSymBB|Product Description: AutoCAD Mechanical|Company: Autodesk, Inc."
 90
     1024
280
     0
281
     0
  0
CLASS
  1
ACAMGRCOMPDEFSET
  2
AcAmGrCompDefSet
  3
DesignerAssemblies
 90
     1024
280
     0
281
     0
  0
CLASS
  1
AMDTBROWSERDBTAB
  2
AmdtBrowserDbTab
  3
McadcomServices
 90
     1024
280
     0
281
     0
  0
CLASS
  1
CBROWSERAPPOBJECT
  2
CBrowserAppObject
  3
McadcomServices
 90
     1024
280
     0
281
     0
  0
CLASS
  1
DM_PLACEHOLDER
  2
AcDmSelsetPlaceholder
  3
McadcomServices
 90
     1024
280
     0
281
     0
  0
CLASS
  1
ACMSTANDARDANSI
  2
AcmStandardANSI
  3
"Amdt_StdImp|Product Description: AutoCAD Mechanical|Company: Autodesk, Inc."
 90
     1024
280
     0
281
     0
  0
CLASS
  1
ACMSURFSTANDARDANSI
  2
AcmSurfTextStdANSI
  3
"Amdt_StdImp|Product Description: AutoCAD Mechanical|Company: Autodesk, Inc."
 90
     1024
280
     0
281
     0
  0
CLASS
  1
ACMFCFSTANDARDANSI
  2
AcmFCFStdANSI
  3
"Amdt_StdImp|Product Description: AutoCAD Mechanical|Company: Autodesk, Inc."
 90
     1024
280
     0
281
     0
  0
CLASS
  1
ACMWELDSTANDARDANSI
  2
AcmWeldingStdANSI
  3
"Amdt_StdImp|Product Description: AutoCAD Mechanical|Company: Autodesk, Inc."
 90
     1024
280
     0
281
     0
  0
CLASS
  1
ACMIDSTANDARDANSI
  2
AcmIdStdANSI
  3
"Amdt_StdImp|Product Description: AutoCAD Mechanical|Company: Autodesk, Inc."
 90
     1024
280
     0
281
     0
  0
CLASS
  1
ACMDATUMSTANDARDANSI
  2
AcmDatumStdANSI
  3
"Amdt_StdImp|Product Description: AutoCAD Mechanical|Company: Autodesk, Inc."
 90
     1024
280
     0
281
     0
  0
CLASS
  1
ACMBOMSTANDARDANSI
  2
AcmBOMStdANSI
  3
"Amdt_StdImp|Product Description: AutoCAD Mechanical|Company: Autodesk, Inc."
 90
     1024
280
     0
281
     0
  0
CLASS
  1
ACMDETAILSTANDARDANSI
  2
AmdtDetailSymStdANSI
  3
"Amdt_StdImp|Product Description: AutoCAD Mechanical|Company: Autodesk, Inc."
 90
     1024
280
     0
281
     0
  0
CLASS
  1
ACMSECTIONSTANDARDANSI
  2
AmdtSectionSymStdANSI
  3
"Amdt_StdImp|Product Description: AutoCAD Mechanical|Company: Autodesk, Inc."
 90
     1024
280
     0
281
     0
  0
CLASS
  1
ACMCENTERLINESTANDARDANSI
  2
AmdtCenterLineStdANSI
  3
"Amdt_StdImp|Product Description: AutoCAD Mechanical|Company: Autodesk, Inc."
 90
     1024
280
     0
281
     0
  0
CLASS
  1
ACMTHREADLINESTANDARDANSI
  2
AmdtThreadLineStdANSI
  3
"Amdt_StdImp|Product Description: AutoCAD Mechanical|Company: Autodesk, Inc."
 90
     1024
280
     0
281
     0
  0
CLASS
  1
ACMNOTESTANDARDANSI
  2
AmdtNoteStdANSI
  3
"Amdt_StdImp|Product Description: AutoCAD Mechanical|Company: Autodesk, Inc."
 90
     1024
280
     0
281
     0
  0
CLASS
  1
ACMTAPERSTANDARDANSI
  2
AcmTaperStdANSI
  3
"Amdt_StdImp|Product Description: AutoCAD Mechanical|Company: Autodesk, Inc."
 90
     1024
280
     0
281
     0
  0
CLASS
  1
ACMANOOTATIONVIEWSTANDARDANSI
  2
AmdtAnViewStdANSI
  3
"Amdt_StdImp|Product Description: AutoCAD Mechanical|Company: Autodesk, Inc."
 90
     1024
280
     0
281
     0
  0
CLASS
  1
ACAMGLAYSTD
  2
AcAmgLayStd
  3
"AmgLay|Product Description: AutoCAD Mechanical|Company: Autodesk, Inc."
 90
     1024
280
     0
281
     0
  0
CLASS
  1
ACAMGDIMSTD
  2
AcAmgDimStd
  3
"AmgDim|Product Description: AutoCAD Mechanical|Company: Autodesk, Inc."
 90
     1024
280
     0
281
     0
  0
CLASS
  1
AMGOBJPROPCFG
  2
AmgObjPropCfg
  3
"AmgLay|Product Description: AutoCAD Mechanical|Company: Autodesk, Inc."
 90
     1024
280
     0
281
     0
  0
CLASS
  1
ACAMGHOLECHARTSTDANSI
  2
AcAmgHoleChartStdANSI
  3
AmgDim|Product Description: AutoCAD Mechanical|Company: Autodesk, Inc.
 90
     1024
280
     0
281
     0
  0
CLASS
  1
ACAMGTITLESTD
  2
AcAmgTitleStd
  3
"AmgTitle|Product Description: AutoCAD Mechanical|Company: Autodesk, Inc."
 90
     1024
280
     0
281
     0
  0
CLASS
  1
AMDTNOTETEMPLATEDB
  2
AmdtNoteTemplateDB
  3
AcmSymBB|Product Description: AutoCAD Mechanical|Company: Autodesk, Inc.
 90
     1024
280
     0
281
     0
  0
CLASS
  1
ACAMGFILTERDAT
  2
AcAmgFilterDat
  3
"AcadM|Product Description: AutoCAD Mechanical|Company: Autodesk, Inc."
 90
     1024
280
     0
281
     0
  0
CLASS
  1
CAMSSTRUCTBTNSTATE
  2
StructBtnState
  3
DesignerAssemblies
 90
     1024
280
     0
281
     0
  0
CLASS
  1
DICTIONARYVAR
  2
AcDbDictionaryVar
  3
ObjectDBX Classes
 90
        0
280
     0
281
     0
  0
CLASS
  1
SORTENTSTABLE
  2
AcDbSortentsTable
  3
ObjectDBX Classes
 90
        0
280
     0
281
     0
  0
CLASS
  1
CELLSTYLEMAP
  2
AcDbCellStyleMap
  3
ObjectDBX Classes
 90
     1152
280
     0
281
     0
  0
CLASS
  1
ACDBPLACEHOLDER
  2
AcDbPlaceHolder
  3
ObjectDBX Classes
 90
        0
280
     0
281
     0
  0
CLASS
  1
LAYOUT
  2
AcDbLayout
  3
ObjectDBX Classes
 90
        0
280
     0
281
     0
  0
ENDSEC
  0
SECTION
  2
TABLES
  0
TABLE
  2
VPORT
  5
8
330
0
100
AcDbSymbolTable
 70
     1
  0
VPORT
  5
A0
330
8
100
AcDbSymbolTableRecord
100
AcDbViewportTableRecord
  2
*Active
 70
     0
 10
0.0
 20
0.0
 11
1.0
 21
1.0
 12
0.418540174858594
 22
-0.0884369835916562
 13
0.0
 23
0.0
 14
0.5
 24
0.5
 15
0.5
 25
0.5
 16
0.0
 26
0.0
 36
1.0
 17
0.0
 27
0.0
 37
0.0
 40
0.8222583178272355
 41
1.681623931623931
 42
50.0
 43
0.0
 44
0.0
 50
0.0
 51
0.0
 71
     0
 72
   100
 73
     1
 74
     3
 75
     0
 76
     0
 77
     0
 78
     0
281
     0
 65
     1
110
0.0
120
0.0
130
0.0
111
1.0
121
0.0
131
0.0
112
0.0
122
1.0
132
0.0
 79
     0
146
0.0
1001
ACAD_NAV_VCDISPLAY
1070
     3
  0
ENDTAB
  0
TABLE
  2
LTYPE
  5
5
330
0
100
AcDbSymbolTable
 70
     8
  0
LTYPE
  5
14
330
5
100
AcDbSymbolTableRecord
100
AcDbLinetypeTableRecord
  2
ByBlock
 70
     0
  3

 72
    65
 73
     0
 40
0.0
  0
LTYPE
  5
15
330
5
100
AcDbSymbolTableRecord
100
AcDbLinetypeTableRecord
  2
ByLayer
 70
     0
  3

 72
    65
 73
     0
 40
0.0
  0
LTYPE
  5
16
330
5
100
AcDbSymbolTableRecord
100
AcDbLinetypeTableRecord
  2
Continuous
 70
     0
  3
Solid line
 72
    65
 73
     0
 40
0.0
  0
LTYPE
  5
F0
330
5
100
AcDbSymbolTableRecord
100
AcDbLinetypeTableRecord
  2
PHANTOM2
 70
     0
  3
Phantom (.5x) ___ _ _ ___ _ _ ___ _ _ ___ _ _
 72
    65
 73
     6
 40
1.25
 49
0.625
 74
     0
 49
-0.125
 74
     0
 49
0.125
 74
     0
 49
-0.125
 74
     0
 49
0.125
 74
     0
 49
-0.125
 74
     0
  0
LTYPE
  5
105
330
5
100
AcDbSymbolTableRecord
100
AcDbLinetypeTableRecord
  2
HIDDEN
 70
     0
  3
Hidden __ __ __ __ __ __ __ __ __ __ __ __ __ _
 72
    65
 73
     2
 40
0.375
 49
0.25
 74
     0
 49
-0.125
 74
     0
  0
LTYPE
  5
106
330
5
100
AcDbSymbolTableRecord
100
AcDbLinetypeTableRecord
  2
CENTER
 70
     0
  3
Center ____ _ ____ _ ____ _ ____ _ ____ _ ____
 72
    65
 73
     4
 40
2.0
 49
1.25
 74
     0
 49
-0.25
 74
     0
 49
0.25
 74
     0
 49
-0.25
 74
     0
  0
LTYPE
  5
140
330
5
100
AcDbSymbolTableRecord
100
AcDbLinetypeTableRecord
  2
CENTER2
 70
     0
  3
Center (.5x) ___ _ ___ _ ___ _ ___ _ ___ _ ___
 72
    65
 73
     4
 40
1.125
 49
0.75
 74
     0
 49
-0.125
 74
     0
 49
0.125
 74
     0
 49
-0.125
 74
     0
  0
LTYPE
  5
141
330
5
100
AcDbSymbolTableRecord
100
AcDbLinetypeTableRecord
  2
HIDDEN2
 70
     0
  3
Hidden (.5x) _ _ _ _ _ _ _ _ _ _ _ _ _ _ _ _ _
 72
    65
 73
     2
 40
0.1875
 49
0.125
 74
     0
 49
-0.0625
 74
     0
  0
LTYPE
  5
14F
330
5
100
AcDbSymbolTableRecord
100
AcDbLinetypeTableRecord
  2
ACANSTGB
 70
     0
  3
__ . . __ . .
 72
    65
 73
     6
 40
0.35433070866
 49
0.15748031496
 74
     0
 49
-0.03937007874
 74
     0
 49
0.03937007874
 74
     0
 49
-0.03937007874
 74
     0
 49
0.03937007874
 74
     0
 49
-0.03937007874
 74
     0
  0
LTYPE
  5
150
330
5
100
AcDbSymbolTableRecord
100
AcDbLinetypeTableRecord
  2
ACANSTGL
 70
     0
  3
_ _ _ _ _
 72
    65
 73
     2
 40
0.11811023622
 49
0.07874015748
 74
     0
 49
-0.03937007874
 74
     0
  0
ENDTAB
  0
TABLE
  2
LAYER
  5
2
102
{ACAD_XDICTIONARY
360
294
102
}
330
0
100
AcDbSymbolTable
 70
     2
  0
LAYER
  5
10
102
{ACAD_XDICTIONARY
360
28F
102
}
330
2
100
AcDbSymbolTableRecord
100
AcDbLayerTableRecord
  2
0
 70
     0
 62
     7
  6
Continuous
370
    -3
390
F
  0
LAYER
  5
3FF
330
2
100
AcDbSymbolTableRecord
100
AcDbLayerTableRecord
  2
AM_CL
 70
     0
 62
     1
  6
Continuous
370
    15
390
F
1001
AcAecLayerStandard
1000

1000

  0
ENDTAB
  0
TABLE
  2
STYLE
  5
3
330
0
100
AcDbSymbolTable
 70
     3
  0
STYLE
  5
11
330
3
100
AcDbSymbolTableRecord
100
AcDbTextStyleTableRecord
  2
Standard
 70
     0
 40
0.0
 41
1.0
 50
0.0
 71
     0
 42
0.2
  3
txt
  4

  0
STYLE
  5
14D
330
3
100
AcDbSymbolTableRecord
100
AcDbTextStyleTableRecord
  2
ACANSTS
 70
     0
 40
1.0
 41
1.0
 50
0.0
 71
     0
 42
0.2
  3
romans.shx
  4
extfont.shx
  0
STYLE
  5
14E
330
3
100
AcDbSymbolTableRecord
100
AcDbTextStyleTableRecord
  2
ACANSGDT
 70
     0
 40
0.0
 41
1.0
 50
0.0
 71
     0
 42
0.2
  3
amgdt.shx
  4

  0
ENDTAB
  0
TABLE
  2
VIEW
  5
6
330
0
100
AcDbSymbolTable
 70
     1
  0
ENDTAB
  0
TABLE
  2
UCS
  5
7
330
0
100
AcDbSymbolTable
 70
     0
  0
ENDTAB
  0
TABLE
  2
APPID
  5
9
330
0
100
AcDbSymbolTable
 70
    14
  0
APPID
  5
12
330
9
100
AcDbSymbolTableRecord
100
AcDbRegAppTableRecord
  2
ACAD
 70
     0
  0
APPID
  5
FE
330
9
100
AcDbSymbolTableRecord
100
AcDbRegAppTableRecord
  2
MCAD_NO_VIS
 70
     0
  0
APPID
  5
FF
330
9
100
AcDbSymbolTableRecord
100
AcDbRegAppTableRecord
  2
ACAD_TEMP_GRAPHIC
 70
     0
  0
APPID
  5
10B
330
9
100
AcDbSymbolTableRecord
100
AcDbRegAppTableRecord
  2
ACATTRIBSERVICES
 70
     0
  0
APPID
  5
123
330
9
100
AcDbSymbolTableRecord
100
AcDbRegAppTableRecord
  2
DESIGNERASSEMBLIES
 70
     0
  0
APPID
  5
13D
330
9
100
AcDbSymbolTableRecord
100
AcDbRegAppTableRecord
  2
ACAD_DSTYLE_DIMJAG
 70
     0
  0
APPID
  5
13E
330
9
100
AcDbSymbolTableRecord
100
AcDbRegAppTableRecord
  2
ACAD_DSTYLE_DIMBREAK
 70
     0
  0
APPID
  5
158
330
9
100
AcDbSymbolTableRecord
100
AcDbRegAppTableRecord
  2
ACAD_NAV_VCDISPLAY
 70
     0
  0
APPID
  5
400
330
9
100
AcDbSymbolTableRecord
100
AcDbRegAppTableRecord
  2
AcAecLayerStandard
 70
     0
  0
APPID
  5
45B
330
9
100
AcDbSymbolTableRecord
100
AcDbRegAppTableRecord
  2
ACAD_MLEADERVER
 70
     0
  0
APPID
  5
45E
330
9
100
AcDbSymbolTableRecord
100
AcDbRegAppTableRecord
  2
ACAD_DSTYLE_DIMARC_LENGTH_SYMBOL
 70
     0
  0
APPID
  5
45F
330
9
100
AcDbSymbolTableRecord
100
AcDbRegAppTableRecord
  2
ACAD_DSTYLE_DIM_LINETYPE
 70
     0
  0
APPID
  5
460
330
9
100
AcDbSymbolTableRecord
100
AcDbRegAppTableRecord
  2
ACAD_DSTYLE_DIM_EXT1_LINETYPE
 70
     0
  0
APPID
  5
461
330
9
100
AcDbSymbolTableRecord
100
AcDbRegAppTableRecord
  2
ACAD_DSTYLE_DIM_EXT2_LINETYPE
 70
     0
  0
ENDTAB
  0
TABLE
  2
DIMSTYLE
  5
A
330
0
100
AcDbSymbolTable
 70
     7
100
AcDbDimStyleTable
 71
     0
  0
DIMSTYLE
105
21
330
A
100
AcDbSymbolTableRecord
100
AcDbDimStyleTableRecord
  2
Standard
 70
     0
340
11
  0
DIMSTYLE
105
13C
102
{ACAD_REACTORS
330
12C
102
}
330
A
100
AcDbSymbolTableRecord
100
AcDbDimStyleTableRecord
  2
AM_ANSI
 70
     0
  4
mm
 41
0.12
 42
0.05
 43
0.5
 44
0.1
 47
0.1
 48
0.1
 78
     7
 79
     2
140
0.12
141
0.0
146
0.71
147
0.06
176
   256
177
   256
178
     2
274
     4
284
     7
340
11
371
    -1
372
    -1
1001
ACAD_DSTYLE_DIMJAG
1070
   388
1040
1.5
1001
ACAD_DSTYLE_DIMBREAK
1070
   391
1040
0.125
1001
ACAD_DSTYLE_DIMARC_LENGTH_SYMBOL
1070
   379
1070
     1
1001
ACAD_DSTYLE_DIM_LINETYPE
1070
   380
1005
14
1001
ACAD_DSTYLE_DIM_EXT1_LINETYPE
1070
   381
1005
14
1001
ACAD_DSTYLE_DIM_EXT2_LINETYPE
1070
   382
1005
14
  0
DIMSTYLE
105
142
330
A
100
AcDbSymbolTableRecord
100
AcDbDimStyleTableRecord
  2
AM_ANSI$3
 70
     0
  4
mm
 41
0.12
 42
0.05
 43
0.5
 44
0.1
 47
0.1
 48
0.1
 78
     7
 79
     2
140
0.12
141
0.0
146
0.71
147
0.06
176
   256
177
   256
178
     2
274
     4
284
     7
288
     1
289
     0
340
11
371
    -1
372
    -1
1001
ACAD_DSTYLE_DIMBREAK
1070
   391
1040
0.125
1001
ACAD_DSTYLE_DIMJAG
1070
   388
1040
1.5
1001
ACAD_DSTYLE_DIMARC_LENGTH_SYMBOL
1070
   379
1070
     1
1001
ACAD_DSTYLE_DIM_LINETYPE
1070
   380
1005
14
1001
ACAD_DSTYLE_DIM_EXT1_LINETYPE
1070
   381
1005
14
1001
ACAD_DSTYLE_DIM_EXT2_LINETYPE
1070
   382
1005
14
  0
DIMSTYLE
105
143
330
A
100
AcDbSymbolTableRecord
100
AcDbDimStyleTableRecord
  2
AM_ANSI$4
 70
     0
  4
mm
 41
0.12
 42
0.05
 43
0.5
 44
0.1
 47
0.1
 48
0.1
 78
     7
 79
     2
140
0.12
141
0.0
146
0.71
147
0.06
176
   256
177
   256
178
     2
274
     4
284
     7
288
     1
289
     0
340
11
371
    -1
372
    -1
1001
ACAD_DSTYLE_DIMBREAK
1070
   391
1040
0.125
1001
ACAD_DSTYLE_DIMJAG
1070
   388
1040
1.5
1001
ACAD_DSTYLE_DIMARC_LENGTH_SYMBOL
1070
   379
1070
     1
1001
ACAD_DSTYLE_DIM_LINETYPE
1070
   380
1005
14
1001
ACAD_DSTYLE_DIM_EXT1_LINETYPE
1070
   381
1005
14
1001
ACAD_DSTYLE_DIM_EXT2_LINETYPE
1070
   382
1005
14
  0
DIMSTYLE
105
144
330
A
100
AcDbSymbolTableRecord
100
AcDbDimStyleTableRecord
  2
AM_ANSI$7
 70
     0
  4
mm
 41
0.12
 42
0.05
 43
0.5
 44
0.1
 47
0.1
 48
0.1
 78
     7
 79
     2
140
0.12
141
0.0
146
0.71
147
0.06
176
   256
177
   256
178
     2
274
     4
284
     7
340
11
371
    -1
372
    -1
1001
ACAD_DSTYLE_DIMBREAK
1070
   391
1040
0.125
1001
ACAD_DSTYLE_DIMJAG
1070
   388
1040
1.5
1001
ACAD_DSTYLE_DIMARC_LENGTH_SYMBOL
1070
   379
1070
     1
1001
ACAD_DSTYLE_DIM_LINETYPE
1070
   380
1005
14
1001
ACAD_DSTYLE_DIM_EXT1_LINETYPE
1070
   381
1005
14
1001
ACAD_DSTYLE_DIM_EXT2_LINETYPE
1070
   382
1005
14
  0
DIMSTYLE
105
145
330
A
100
AcDbSymbolTableRecord
100
AcDbDimStyleTableRecord
  2
AM_ANSI$SF
 70
     0
  4
mm
 41
0.12
 42
0.05
 43
0.5
 44
0.1
 47
0.1
 48
0.1
 75
     1
 76
     1
 78
     7
 79
     2
140
0.12
141
0.0
146
0.71
147
0.06
176
   256
177
   256
178
     2
274
     4
284
     7
340
11
371
    -1
372
    -1
1001
ACAD_DSTYLE_DIMBREAK
1070
   391
1040
0.125
1001
ACAD_DSTYLE_DIMJAG
1070
   388
1040
1.5
1001
ACAD_DSTYLE_DIMARC_LENGTH_SYMBOL
1070
   379
1070
     1
1001
ACAD_DSTYLE_DIM_LINETYPE
1070
   380
1005
14
1001
ACAD_DSTYLE_DIM_EXT1_LINETYPE
1070
   381
1005
14
1001
ACAD_DSTYLE_DIM_EXT2_LINETYPE
1070
   382
1005
14
  0
DIMSTYLE
105
14A
330
A
100
AcDbSymbolTableRecord
100
AcDbDimStyleTableRecord
  2
AM_ANSI$SH
 70
     0
  4
mm
 41
0.12
 42
0.05
 43
0.5
 44
0.1
 47
0.1
 48
0.1
 75
     1
 76
     1
 78
     7
 79
     2
140
0.12
141
0.0
146
0.71
147
0.06
173
     1
176
   256
177
   256
178
     2
274
     4
284
     7
340
11
343
146
371
    -1
372
    -1
1001
ACAD_DSTYLE_DIMBREAK
1070
   391
1040
0.125
1001
ACAD_DSTYLE_DIMJAG
1070
   388
1040
1.5
1001
ACAD_DSTYLE_DIMARC_LENGTH_SYMBOL
1070
   379
1070
     1
1001
ACAD_DSTYLE_DIM_LINETYPE
1070
   380
1005
14
1001
ACAD_DSTYLE_DIM_EXT1_LINETYPE
1070
   381
1005
14
1001
ACAD_DSTYLE_DIM_EXT2_LINETYPE
1070
   382
1005
14
  0
ENDTAB
  0
TABLE
  2
BLOCK_RECORD
  5
1
330
0
100
AcDbSymbolTable
 70
     3
  0
BLOCK_RECORD
  5
1D
102
{ACAD_XDICTIONARY
360
402
102
}
330
1
100
AcDbSymbolTableRecord
100
AcDbBlockTableRecord
  2
*Model_Space
340
1E
  0
BLOCK_RECORD
  5
1B
330
1
100
AcDbSymbolTableRecord
100
AcDbBlockTableRecord
  2
*Paper_Space
340
1C
  0
BLOCK_RECORD
  5
146
330
1
100
AcDbSymbolTableRecord
100
AcDbBlockTableRecord
  2
GENAXEH
340
0
  0
ENDTAB
  0
ENDSEC
  0
SECTION
  2
BLOCKS
  0
BLOCK
  5
A1
330
1D
100
AcDbEntity
  8
0
100
AcDbBlockBegin
  2
*Model_Space
 70
     0
 10
0.0
 20
0.0
 30
0.0
  3
*Model_Space
  1

  0
ENDBLK
  5
A2
330
1D
100
AcDbEntity
  8
0
100
AcDbBlockEnd
  0
BLOCK
  5
A3
330
1B
100
AcDbEntity
 67
     1
  8
0
100
AcDbBlockBegin
  2
*Paper_Space
 70
     0
 10
0.0
 20
0.0
 30
0.0
  3
*Paper_Space
  1

  0
ENDBLK
  5
A4
330
1B
100
AcDbEntity
 67
     1
  8
0
100
AcDbBlockEnd
  0
BLOCK
  5
148
330
146
100
AcDbEntity
  8
0
100
AcDbBlockBegin
  2
GENAXEH
 70
     0
 10
0.0
 20
0.0
 30
0.0
  3
GENAXEH
  1

  0
LINE
  5
147
330
146
100
AcDbEntity
  8
0
100
AcDbLine
 10
-1.0
 20
0.0
 30
0.0
 11
1.0
 21
0.0
 31
0.0
  0
ENDBLK
  5
149
330
146
100
AcDbEntity
  8
0
100
AcDbBlockEnd
  0
ENDSEC
  0
SECTION
  2
ENTITIES
  0
LINE
  5
22
330
1D
100
AcDbEntity
  8
0
  6
Continuous
100
AcDbLine
 10
0.0933055913702049
 20
0.0433706817664256
 30
0.0
 11
0.0959425913702049
 21
0.0433706817664256
 31
0.0
  0
LINE
  5
23
330
1D
100
AcDbEntity
  8
0
  6
Continuous
100
AcDbLine
 10
0.0834125913702049
 20
0.0433706817664256
 30
0.0
 11
0.0890575913702049
 21
0.0433706817664256
 31
0.0
  0
LINE
  5
24
330
1D
100
AcDbEntity
  8
0
  6
Continuous
100
AcDbLine
 10
0.0766525913702049
 20
0.0433706817664256
 30
0.0
 11
0.0834125913702049
 21
0.0433706817664256
 31
0.0
  0
LINE
  5
25
330
1D
100
AcDbEntity
  8
0
  6
Continuous
100
AcDbLine
 10
0.0691165913702049
 20
0.0433706817664256
 30
0.0
 11
0.0766525913702049
 21
0.0433706817664256
 31
0.0
  0
LINE
  5
26
330
1D
100
AcDbEntity
  8
0
  6
Continuous
100
AcDbLine
 10
0.0611825913702049
 20
0.0433706817664256
 30
0.0
 11
0.0691165913702049
 21
0.0433706817664256
 31
0.0
  0
LINE
  5
27
330
1D
100
AcDbEntity
  8
0
  6
Continuous
100
AcDbLine
 10
0.0255285913702049
 20
0.0433706817664257
 30
0.0
 11
0.0264225913702049
 21
0.0433706817664257
 31
0.0
  0
LINE
  5
28
330
1D
100
AcDbEntity
  8
0
  6
Continuous
100
AcDbLine
 10
0.0024215913702049
 20
0.0434126817664257
 30
0.0
 11
0.0255285913702049
 21
0.0433706817664257
 31
0.0
  0
LINE
  5
29
330
1D
100
AcDbEntity
  8
0
  6
Continuous
100
AcDbLine
 10
0.0264225913702049
 20
0.0433706817664257
 30
0.0
 11
0.0290595913702049
 21
0.0433706817664257
 31
0.0
  0
LINE
  5
2A
330
1D
100
AcDbEntity
  8
0
  6
Continuous
100
AcDbLine
 10
0.0290595913702049
 20
0.0433706817664257
 30
0.0
 11
0.0333075913702049
 21
0.0433706817664256
 31
0.0
  0
LINE
  5
2B
330
1D
100
AcDbEntity
  8
0
  6
Continuous
100
AcDbLine
 10
0.0011825913702049
 20
0.0540736817664256
 30
0.0
 11
0.0011825913702049
 21
0.0447536817664257
 31
0.0
  0
LINE
  5
2C
330
1D
100
AcDbEntity
  8
0
  6
Continuous
100
AcDbLine
 10
0.0457125913702049
 20
0.0433706817664256
 30
0.0
 11
0.0532485913702049
 21
0.0433706817664256
 31
0.0
  0
LINE
  5
2D
330
1D
100
AcDbEntity
  8
0
  6
Continuous
100
AcDbLine
 10
0.1211825913702049
 20
0.0447536817664256
 30
0.0
 11
0.1211825913702049
 21
0.0540736817664256
 31
0.0
  0
LINE
  5
2E
330
1D
100
AcDbEntity
  8
0
  6
Continuous
100
AcDbLine
 10
0.0532485913702049
 20
0.0433706817664256
 30
0.0
 11
0.0611825913702049
 21
0.0433706817664256
 31
0.0
  0
LINE
  5
2F
330
1D
100
AcDbEntity
  8
0
  6
Continuous
100
AcDbLine
 10
0.0333075913702049
 20
0.0433706817664256
 30
0.0
 11
0.0389525913702049
 21
0.0433706817664256
 31
0.0
  0
LINE
  5
30
330
1D
100
AcDbEntity
  8
0
  6
Continuous
100
AcDbLine
 10
0.0890575913702049
 20
0.0433706817664256
 30
0.0
 11
0.0933055913702049
 21
0.0433706817664256
 31
0.0
  0
LINE
  5
31
330
1D
100
AcDbEntity
  8
0
  6
Continuous
100
AcDbLine
 10
0.0389525913702049
 20
0.0433706817664256
 30
0.0
 11
0.0457125913702049
 21
0.0433706817664256
 31
0.0
  0
LINE
  5
32
330
1D
100
AcDbEntity
  8
0
  6
Continuous
100
AcDbLine
 10
0.0959425913702049
 20
0.0433706817664256
 30
0.0
 11
0.0968365913702049
 21
0.0433706817664256
 31
0.0
  0
LINE
  5
33
330
1D
100
AcDbEntity
  8
0
  6
Continuous
100
AcDbLine
 10
0.0761315913702049
 20
0.0433706817664256
 30
0.0
 11
0.0826635913702049
 21
0.0433706817664256
 31
0.0
  0
LINE
  5
34
330
1D
100
AcDbEntity
  8
0
  6
Continuous
100
AcDbLine
 10
0.0301405913702049
 20
0.0433706817664257
 30
0.0
 11
0.0342455913702049
 21
0.0433706817664256
 31
0.0
  0
LINE
  5
35
330
1D
100
AcDbEntity
  8
0
  6
Continuous
100
AcDbLine
 10
0.0688495913702049
 20
0.0433706817664256
 30
0.0
 11
0.0761315913702049
 21
0.0433706817664256
 31
0.0
  0
LINE
  5
36
330
1D
100
AcDbEntity
  8
0
  6
Continuous
100
AcDbLine
 10
0.0255285913702049
 20
0.0433706817664257
 30
0.0
 11
0.0264225913702049
 21
0.0433706817664257
 31
0.0
  0
LINE
  5
37
330
1D
100
AcDbEntity
  8
0
  6
Continuous
100
AcDbLine
 10
0.0275925913702049
 20
0.0433706817664257
 30
0.0
 11
0.0301405913702049
 21
0.0433706817664257
 31
0.0
  0
LINE
  5
38
330
1D
100
AcDbEntity
  8
0
  6
Continuous
100
AcDbLine
 10
0.0611825913702049
 20
0.0433706817664256
 30
0.0
 11
0.0688495913702049
 21
0.0433706817664256
 31
0.0
  0
LINE
  5
39
330
1D
100
AcDbEntity
  8
0
  6
Continuous
100
AcDbLine
 10
0.0922245913702049
 20
0.0433706817664256
 30
0.0
 11
0.0947725913702049
 21
0.0433706817664256
 31
0.0
  0
LINE
  5
3A
330
1D
100
AcDbEntity
  8
0
  6
Continuous
100
AcDbLine
 10
0.0267285913702049
 20
0.0433706817664257
 30
0.0
 11
0.0275925913702049
 21
0.0433706817664257
 31
0.0
  0
LINE
  5
3B
330
1D
100
AcDbEntity
  8
0
  6
Continuous
100
AcDbLine
 10
0.1061035913702049
 20
0.0554136817664256
 30
0.0
 11
0.0611825913702049
 21
0.0554136817664256
 31
0.0
  0
LINE
  5
3C
330
1D
100
AcDbEntity
  8
0
  6
Continuous
100
AcDbLine
 10
0.1202835913702049
 20
0.0434136817664256
 30
0.0
 11
0.1209195913702049
 21
0.0437066817664256
 31
0.0
  0
LINE
  5
3D
330
1D
100
AcDbEntity
  8
0
  6
Continuous
100
AcDbLine
 10
0.1209195913702049
 20
0.0437066817664256
 30
0.0
 11
0.1211825913702049
 21
0.0444136817664256
 31
0.0
  0
LINE
  5
3E
330
1D
100
AcDbEntity
  8
0
  6
Continuous
100
AcDbLine
 10
0.1208895913702049
 20
0.0551206817664256
 30
0.0
 11
0.1201825913702049
 21
0.0554136817664256
 31
0.0
  0
LINE
  5
3F
330
1D
100
AcDbEntity
  8
0
  6
Continuous
100
AcDbLine
 10
0.1201825913702049
 20
0.0554136817664256
 30
0.0
 11
0.1194855913702049
 21
0.0554136817664256
 31
0.0
  0
LINE
  5
40
330
1D
100
AcDbEntity
  8
0
  6
Continuous
100
AcDbLine
 10
0.1211825913702049
 20
0.0544136817664256
 30
0.0
 11
0.1208895913702049
 21
0.0551206817664256
 31
0.0
  0
LINE
  5
41
330
1D
100
AcDbEntity
  8
0
  6
Continuous
100
AcDbLine
 10
0.1194855913702049
 20
0.0554136817664256
 30
0.0
 11
0.1174985913702049
 21
0.0554136817664256
 31
0.0
  0
LINE
  5
42
330
1D
100
AcDbEntity
  8
0
  6
Continuous
100
AcDbLine
 10
0.1174985913702049
 20
0.0554136817664256
 30
0.0
 11
0.1144045913702049
 21
0.0554136817664256
 31
0.0
  0
LINE
  5
43
330
1D
100
AcDbEntity
  8
0
  6
Continuous
100
AcDbLine
 10
0.1144045913702049
 20
0.0554136817664256
 30
0.0
 11
0.1105045913702049
 21
0.0554136817664256
 31
0.0
  0
LINE
  5
44
330
1D
100
AcDbEntity
  8
0
  6
Continuous
100
AcDbLine
 10
0.1105045913702049
 20
0.0554136817664256
 30
0.0
 11
0.1061035913702049
 21
0.0554136817664256
 31
0.0
  0
LINE
  5
45
330
1D
100
AcDbEntity
  8
0
  6
Continuous
100
AcDbLine
 10
0.0021825913702049
 20
0.0554136817664257
 30
0.0
 11
0.0014755913702049
 21
0.0551206817664257
 31
0.0
  0
LINE
  5
46
330
1D
100
AcDbEntity
  8
0
  6
Continuous
100
AcDbLine
 10
0.0028795913702049
 20
0.0554136817664257
 30
0.0
 11
0.0021825913702049
 21
0.0554136817664257
 31
0.0
  0
LINE
  5
47
330
1D
100
AcDbEntity
  8
0
  6
Continuous
100
AcDbLine
 10
0.0014755913702049
 20
0.0551206817664257
 30
0.0
 11
0.0011825913702049
 21
0.0544136817664257
 31
0.0
  0
LINE
  5
48
330
1D
100
AcDbEntity
  8
0
  6
Continuous
100
AcDbLine
 10
0.0014455913702049
 20
0.0437066817664257
 30
0.0
 11
0.0020815913702049
 21
0.0434136817664257
 31
0.0
  0
LINE
  5
49
330
1D
100
AcDbEntity
  8
0
  6
Continuous
100
AcDbLine
 10
0.0011825913702049
 20
0.0444136817664257
 30
0.0
 11
0.0014455913702049
 21
0.0437066817664257
 31
0.0
  0
LINE
  5
4A
330
1D
100
AcDbEntity
  8
0
  6
Continuous
100
AcDbLine
 10
0.0048665913702049
 20
0.0554136817664257
 30
0.0
 11
0.0028795913702049
 21
0.0554136817664257
 31
0.0
  0
LINE
  5
4B
330
1D
100
AcDbEntity
  8
0
  6
Continuous
100
AcDbLine
 10
0.0079605913702049
 20
0.0554136817664257
 30
0.0
 11
0.0048665913702049
 21
0.0554136817664257
 31
0.0
  0
LINE
  5
4C
330
1D
100
AcDbEntity
  8
0
  6
Continuous
100
AcDbLine
 10
0.0118605913702049
 20
0.0554136817664257
 30
0.0
 11
0.0079605913702049
 21
0.0554136817664257
 31
0.0
  0
LINE
  5
4D
330
1D
100
AcDbEntity
  8
0
  6
Continuous
100
AcDbLine
 10
0.0162615913702049
 20
0.0554136817664256
 30
0.0
 11
0.0118605913702049
 21
0.0554136817664257
 31
0.0
  0
LINE
  5
4E
330
1D
100
AcDbEntity
  8
0
  6
Continuous
100
AcDbLine
 10
0.0611825913702049
 20
0.0554136817664256
 30
0.0
 11
0.0162615913702049
 21
0.0554136817664256
 31
0.0
  0
LINE
  5
4F
330
1D
100
AcDbEntity
  8
0
  6
Continuous
100
AcDbLine
 10
0.1211825913702049
 20
0.0444136817664256
 30
0.0
 11
0.1211825913702049
 21
0.0447536817664256
 31
0.0
  0
LINE
  5
50
330
1D
100
AcDbEntity
  8
0
  6
Continuous
100
AcDbLine
 10
0.1211825913702049
 20
0.0540736817664256
 30
0.0
 11
0.1211825913702049
 21
0.0544136817664256
 31
0.0
  0
LINE
  5
51
330
1D
100
AcDbEntity
  8
0
  6
Continuous
100
AcDbLine
 10
0.0011825913702049
 20
0.0544136817664257
 30
0.0
 11
0.0011825913702049
 21
0.0540736817664256
 31
0.0
  0
LINE
  5
52
330
1D
100
AcDbEntity
  8
0
  6
Continuous
100
AcDbLine
 10
0.0011825913702049
 20
0.0447536817664257
 30
0.0
 11
0.0011825913702049
 21
0.0444136817664257
 31
0.0
  0
LINE
  5
53
330
1D
100
AcDbEntity
  8
0
  6
Continuous
100
AcDbLine
 10
0.0968365913702049
 20
0.0433706817664256
 30
0.0
 11
0.1199435913702049
 21
0.0434126817664256
 31
0.0
  0
LINE
  5
54
330
1D
100
AcDbEntity
  8
0
  6
Continuous
100
AcDbLine
 10
0.0959425913702049
 20
0.0433706817664256
 30
0.0
 11
0.0968365913702049
 21
0.0433706817664256
 31
0.0
  0
LINE
  5
55
330
1D
100
AcDbEntity
  8
0
  6
Continuous
100
AcDbLine
 10
0.0600235913702049
 20
0.0183366817664256
 30
0.0
 11
0.0611895913702049
 21
0.0181836817664256
 31
0.0
  0
LINE
  5
56
330
1D
100
AcDbEntity
  8
0
  6
Continuous
100
AcDbLine
 10
0.0589385913702049
 20
0.0187866817664256
 30
0.0
 11
0.0600235913702049
 21
0.0183366817664256
 31
0.0
  0
LINE
  5
57
330
1D
100
AcDbEntity
  8
0
  6
Continuous
100
AcDbLine
 10
0.0580055913702049
 20
0.0195026817664256
 30
0.0
 11
0.0589385913702049
 21
0.0187866817664256
 31
0.0
  0
LINE
  5
58
330
1D
100
AcDbEntity
  8
0
  6
Continuous
100
AcDbLine
 10
0.0572905913702049
 20
0.0204346817664256
 30
0.0
 11
0.0580055913702049
 21
0.0195026817664256
 31
0.0
  0
LINE
  5
59
330
1D
100
AcDbEntity
  8
0
  6
Continuous
100
AcDbLine
 10
0.0568405913702049
 20
0.0215206817664256
 30
0.0
 11
0.0572905913702049
 21
0.0204346817664256
 31
0.0
  0
LINE
  5
5A
330
1D
100
AcDbEntity
  8
0
  6
Continuous
100
AcDbLine
 10
0.0566875913702049
 20
0.0226856817664256
 30
0.0
 11
0.0568405913702049
 21
0.0215206817664256
 31
0.0
  0
LINE
  5
5B
330
1D
100
AcDbEntity
  8
0
  6
Continuous
100
AcDbLine
 10
0.0568405913702049
 20
0.0238506817664256
 30
0.0
 11
0.0566875913702049
 21
0.0226856817664256
 31
0.0
  0
LINE
  5
5C
330
1D
100
AcDbEntity
  8
0
  6
Continuous
100
AcDbLine
 10
0.0572905913702049
 20
0.0249366817664256
 30
0.0
 11
0.0568405913702049
 21
0.0238506817664256
 31
0.0
  0
LINE
  5
5D
330
1D
100
AcDbEntity
  8
0
  6
Continuous
100
AcDbLine
 10
0.0580055913702049
 20
0.0258686817664256
 30
0.0
 11
0.0572905913702049
 21
0.0249366817664256
 31
0.0
  0
LINE
  5
5E
330
1D
100
AcDbEntity
  8
0
  6
Continuous
100
AcDbLine
 10
0.0589385913702049
 20
0.0265846817664256
 30
0.0
 11
0.0580055913702049
 21
0.0258686817664256
 31
0.0
  0
LINE
  5
5F
330
1D
100
AcDbEntity
  8
0
  6
Continuous
100
AcDbLine
 10
0.0600235913702049
 20
0.0270346817664256
 30
0.0
 11
0.0589385913702049
 21
0.0265846817664256
 31
0.0
  0
LINE
  5
60
330
1D
100
AcDbEntity
  8
0
  6
Continuous
100
AcDbLine
 10
0.0611895913702049
 20
0.0271876817664256
 30
0.0
 11
0.0600235913702049
 21
0.0270346817664256
 31
0.0
  0
LINE
  5
61
330
1D
100
AcDbEntity
  8
0
  6
Continuous
100
AcDbLine
 10
0.0623545913702049
 20
0.0270346817664256
 30
0.0
 11
0.0611895913702049
 21
0.0271876817664256
 31
0.0
  0
LINE
  5
62
330
1D
100
AcDbEntity
  8
0
  6
Continuous
100
AcDbLine
 10
0.0634405913702049
 20
0.0265846817664256
 30
0.0
 11
0.0623545913702049
 21
0.0270346817664256
 31
0.0
  0
LINE
  5
63
330
1D
100
AcDbEntity
  8
0
  6
Continuous
100
AcDbLine
 10
0.0643725913702049
 20
0.0258686817664256
 30
0.0
 11
0.0634405913702049
 21
0.0265846817664256
 31
0.0
  0
LINE
  5
64
330
1D
100
AcDbEntity
  8
0
  6
Continuous
100
AcDbLine
 10
0.0650875913702049
 20
0.0249366817664256
 30
0.0
 11
0.0643725913702049
 21
0.0258686817664256
 31
0.0
  0
LINE
  5
65
330
1D
100
AcDbEntity
  8
0
  6
Continuous
100
AcDbLine
 10
0.0655375913702049
 20
0.0238506817664256
 30
0.0
 11
0.0650875913702049
 21
0.0249366817664256
 31
0.0
  0
LINE
  5
66
330
1D
100
AcDbEntity
  8
0
  6
Continuous
100
AcDbLine
 10
0.0656915913702049
 20
0.0226856817664256
 30
0.0
 11
0.0655375913702049
 21
0.0238506817664256
 31
0.0
  0
LINE
  5
67
330
1D
100
AcDbEntity
  8
0
  6
Continuous
100
AcDbLine
 10
0.0655375913702049
 20
0.0215206817664256
 30
0.0
 11
0.0656915913702049
 21
0.0226856817664256
 31
0.0
  0
LINE
  5
68
330
1D
100
AcDbEntity
  8
0
  6
Continuous
100
AcDbLine
 10
0.0650875913702049
 20
0.0204346817664256
 30
0.0
 11
0.0655375913702049
 21
0.0215206817664256
 31
0.0
  0
LINE
  5
69
330
1D
100
AcDbEntity
  8
0
  6
Continuous
100
AcDbLine
 10
0.0643725913702049
 20
0.0195026817664256
 30
0.0
 11
0.0650875913702049
 21
0.0204346817664256
 31
0.0
  0
LINE
  5
6A
330
1D
100
AcDbEntity
  8
0
  6
Continuous
100
AcDbLine
 10
0.0634405913702049
 20
0.0187866817664256
 30
0.0
 11
0.0643725913702049
 21
0.0195026817664256
 31
0.0
  0
LINE
  5
6B
330
1D
100
AcDbEntity
  8
0
  6
Continuous
100
AcDbLine
 10
0.0623545913702049
 20
0.0183366817664256
 30
0.0
 11
0.0634405913702049
 21
0.0187866817664256
 31
0.0
  0
LINE
  5
6C
330
1D
100
AcDbEntity
  8
0
  6
Continuous
100
AcDbLine
 10
0.0611895913702049
 20
0.0181836817664256
 30
0.0
 11
0.0623545913702049
 21
0.0183366817664256
 31
0.0
  0
LINE
  5
6D
330
1D
100
AcDbEntity
  8
0
  6
Continuous
100
AcDbLine
 10
0.0853425913702049
 20
-0.0026633182335744
 30
0.0
 11
0.0853425913702049
 21
-0.0025883182335744
 31
0.0
  0
LINE
  5
6E
330
1D
100
AcDbEntity
  8
0
  6
Continuous
100
AcDbLine
 10
0.0762435913702049
 20
0.0334816817664256
 30
0.0
 11
0.0716605913702049
 21
0.0334816817664256
 31
0.0
  0
LINE
  5
6F
330
1D
100
AcDbEntity
  8
0
  6
Continuous
100
AcDbLine
 10
0.0370075913702049
 20
-0.0025883182335744
 30
0.0
 11
0.0370075913702049
 21
-0.0026633182335744
 31
0.0
  0
LINE
  5
70
330
1D
100
AcDbEntity
  8
0
  6
Continuous
100
AcDbLine
 10
0.0506885913702049
 20
0.0334816817664256
 30
0.0
 11
0.0461065913702049
 21
0.0334816817664256
 31
0.0
  0
LINE
  5
71
330
1D
100
AcDbEntity
  8
0
  6
Continuous
100
AcDbLine
 10
0.0713225913702049
 20
-0.0035863182335744
 30
0.0
 11
0.0757575913702049
 21
-0.0035863182335744
 31
0.0
  0
LINE
  5
72
330
1D
100
AcDbEntity
  8
0
  6
Continuous
100
AcDbLine
 10
0.0465925913702049
 20
-0.0035863182335744
 30
0.0
 11
0.0510265913702049
 21
-0.0035863182335744
 31
0.0
  0
LINE
  5
73
330
1D
100
AcDbEntity
  8
0
  6
Continuous
100
AcDbLine
 10
0.0849645913702049
 20
-0.0034023182335744
 30
0.0
 11
0.0852485913702049
 21
-0.0030803182335744
 31
0.0
  0
LINE
  5
74
330
1D
100
AcDbEntity
  8
0
  6
Continuous
100
AcDbLine
 10
0.0852485913702049
 20
-0.0030803182335744
 30
0.0
 11
0.0853425913702049
 21
-0.0026633182335744
 31
0.0
  0
LINE
  5
75
330
1D
100
AcDbEntity
  8
0
  6
Continuous
100
AcDbLine
 10
0.0371015913702049
 20
-0.0030803182335744
 30
0.0
 11
0.0373855913702049
 21
-0.0034023182335744
 31
0.0
  0
LINE
  5
76
330
1D
100
AcDbEntity
  8
0
  6
Continuous
100
AcDbLine
 10
0.0370075913702049
 20
-0.0026633182335744
 30
0.0
 11
0.0371015913702049
 21
-0.0030803182335744
 31
0.0
  0
LINE
  5
77
330
1D
100
AcDbEntity
  8
0
  6
Continuous
100
AcDbLine
 10
0.0665525913702049
 20
0.0334816817664256
 30
0.0
 11
0.0611745913702049
 21
0.0334816817664256
 31
0.0
  0
LINE
  5
78
330
1D
100
AcDbEntity
  8
0
  6
Continuous
100
AcDbLine
 10
0.0422795913702049
 20
0.0334816817664256
 30
0.0
 11
0.0394005913702049
 21
0.0334816817664256
 31
0.0
  0
LINE
  5
79
330
1D
100
AcDbEntity
  8
0
  6
Continuous
100
AcDbLine
 10
0.0611745913702049
 20
0.0334816817664256
 30
0.0
 11
0.0557975913702049
 21
0.0334816817664256
 31
0.0
  0
LINE
  5
7A
330
1D
100
AcDbEntity
  8
0
  6
Continuous
100
AcDbLine
 10
0.0800705913702049
 20
0.0334816817664256
 30
0.0
 11
0.0762435913702049
 21
0.0334816817664256
 31
0.0
  0
LINE
  5
7B
330
1D
100
AcDbEntity
  8
0
  6
Continuous
100
AcDbLine
 10
0.0394005913702049
 20
0.0334816817664256
 30
0.0
 11
0.0376135913702049
 21
0.0334816817664256
 31
0.0
  0
LINE
  5
7C
330
1D
100
AcDbEntity
  8
0
  6
Continuous
100
AcDbLine
 10
0.0853425913702049
 20
0.0332136817664256
 30
0.0
 11
0.0853425913702049
 21
0.0334816817664256
 31
0.0
  0
LINE
  5
7D
330
1D
100
AcDbEntity
  8
0
  6
Continuous
100
AcDbLine
 10
0.0853425913702049
 20
0.0334816817664256
 30
0.0
 11
0.0847365913702049
 21
0.0334816817664256
 31
0.0
  0
LINE
  5
7E
330
1D
100
AcDbEntity
  8
0
  6
Continuous
100
AcDbLine
 10
0.0557975913702049
 20
0.0334816817664256
 30
0.0
 11
0.0506885913702049
 21
0.0334816817664256
 31
0.0
  0
LINE
  5
7F
330
1D
100
AcDbEntity
  8
0
  6
Continuous
100
AcDbLine
 10
0.0370075913702049
 20
0.0334816817664256
 30
0.0
 11
0.0370075913702049
 21
0.0332136817664256
 31
0.0
  0
LINE
  5
80
330
1D
100
AcDbEntity
  8
0
  6
Continuous
100
AcDbLine
 10
0.0376135913702049
 20
0.0334816817664256
 30
0.0
 11
0.0370075913702049
 21
0.0334816817664256
 31
0.0
  0
LINE
  5
81
330
1D
100
AcDbEntity
  8
0
  6
Continuous
100
AcDbLine
 10
0.0716605913702049
 20
0.0334816817664256
 30
0.0
 11
0.0665525913702049
 21
0.0334816817664256
 31
0.0
  0
LINE
  5
82
330
1D
100
AcDbEntity
  8
0
  6
Continuous
100
AcDbLine
 10
0.0847365913702049
 20
0.0334816817664256
 30
0.0
 11
0.0829495913702049
 21
0.0334816817664256
 31
0.0
  0
LINE
  5
83
330
1D
100
AcDbEntity
  8
0
  6
Continuous
100
AcDbLine
 10
0.0461065913702049
 20
0.0334816817664256
 30
0.0
 11
0.0422795913702049
 21
0.0334816817664256
 31
0.0
  0
LINE
  5
84
330
1D
100
AcDbEntity
  8
0
  6
Continuous
100
AcDbLine
 10
0.0829495913702049
 20
0.0334816817664256
 30
0.0
 11
0.0800705913702049
 21
0.0334816817664256
 31
0.0
  0
LINE
  5
85
330
1D
100
AcDbEntity
  8
0
  6
Continuous
100
AcDbLine
 10
0.0853425913702049
 20
-0.0025883182335744
 30
0.0
 11
0.0853425913702049
 21
0.0332136817664256
 31
0.0
  0
LINE
  5
86
330
1D
100
AcDbEntity
  8
0
  6
Continuous
100
AcDbLine
 10
0.0370075913702049
 20
0.0332136817664256
 30
0.0
 11
0.0370075913702049
 21
-0.0025883182335744
 31
0.0
  0
LINE
  5
87
330
1D
100
AcDbEntity
  8
0
  6
Continuous
100
AcDbLine
 10
0.0845635913702049
 20
-0.0035863182335744
 30
0.0
 11
0.0849645913702049
 21
-0.0034023182335744
 31
0.0
  0
LINE
  5
88
330
1D
100
AcDbEntity
  8
0
  6
Continuous
100
AcDbLine
 10
0.0822475913702049
 20
-0.0035863182335744
 30
0.0
 11
0.0839775913702049
 21
-0.0035863182335744
 31
0.0
  0
LINE
  5
89
330
1D
100
AcDbEntity
  8
0
  6
Continuous
100
AcDbLine
 10
0.0794605913702049
 20
-0.0035863182335744
 30
0.0
 11
0.0822475913702049
 21
-0.0035863182335744
 31
0.0
  0
LINE
  5
8A
330
1D
100
AcDbEntity
  8
0
  6
Continuous
100
AcDbLine
 10
0.0663795913702049
 20
-0.0035863182335744
 30
0.0
 11
0.0713225913702049
 21
-0.0035863182335744
 31
0.0
  0
LINE
  5
8B
330
1D
100
AcDbEntity
  8
0
  6
Continuous
100
AcDbLine
 10
0.0611745913702049
 20
-0.0035863182335744
 30
0.0
 11
0.0663795913702049
 21
-0.0035863182335744
 31
0.0
  0
LINE
  5
8C
330
1D
100
AcDbEntity
  8
0
  6
Continuous
100
AcDbLine
 10
0.0559705913702049
 20
-0.0035863182335744
 30
0.0
 11
0.0611745913702049
 21
-0.0035863182335744
 31
0.0
  0
LINE
  5
8D
330
1D
100
AcDbEntity
  8
0
  6
Continuous
100
AcDbLine
 10
0.0510265913702049
 20
-0.0035863182335744
 30
0.0
 11
0.0559705913702049
 21
-0.0035863182335744
 31
0.0
  0
LINE
  5
8E
330
1D
100
AcDbEntity
  8
0
  6
Continuous
100
AcDbLine
 10
0.0401025913702049
 20
-0.0035863182335744
 30
0.0
 11
0.0428885913702049
 21
-0.0035863182335744
 31
0.0
  0
LINE
  5
8F
330
1D
100
AcDbEntity
  8
0
  6
Continuous
100
AcDbLine
 10
0.0383725913702049
 20
-0.0035863182335744
 30
0.0
 11
0.0401025913702049
 21
-0.0035863182335744
 31
0.0
  0
LINE
  5
90
330
1D
100
AcDbEntity
  8
0
  6
Continuous
100
AcDbLine
 10
0.0373855913702049
 20
-0.0034023182335744
 30
0.0
 11
0.0377865913702049
 21
-0.0035863182335744
 31
0.0
  0
LINE
  5
91
330
1D
100
AcDbEntity
  8
0
  6
Continuous
100
AcDbLine
 10
0.0611745913702049
 20
0.0350016817664256
 30
0.0
 11
0.0665845913702049
 21
0.0350016817664256
 31
0.0
  0
LINE
  5
92
330
1D
100
AcDbEntity
  8
0
  6
Continuous
100
AcDbLine
 10
0.0830785913702049
 20
0.0350016817664256
 30
0.0
 11
0.0848765913702049
 21
0.0350016817664256
 31
0.0
  0
LINE
  5
93
330
1D
100
AcDbEntity
  8
0
  6
Continuous
100
AcDbLine
 10
0.0854855913702049
 20
0.0350016817664256
 30
0.0
 11
0.0854855913702049
 21
0.0353166817664256
 31
0.0
  0
LINE
  5
94
330
1D
100
AcDbEntity
  8
0
  6
Continuous
100
AcDbLine
 10
0.0848765913702049
 20
0.0350016817664256
 30
0.0
 11
0.0854855913702049
 21
0.0350016817664256
 31
0.0
  0
LINE
  5
95
330
1D
100
AcDbEntity
  8
0
  6
Continuous
100
AcDbLine
 10
0.0421675913702049
 20
0.0350016817664257
 30
0.0
 11
0.0460175913702049
 21
0.0350016817664257
 31
0.0
  0
LINE
  5
96
330
1D
100
AcDbEntity
  8
0
  6
Continuous
100
AcDbLine
 10
0.0368645913702049
 20
0.0353166817664257
 30
0.0
 11
0.0368645913702049
 21
0.0350016817664257
 31
0.0
  0
LINE
  5
97
330
1D
100
AcDbEntity
  8
0
  6
Continuous
100
AcDbLine
 10
0.0368645913702049
 20
0.0350016817664257
 30
0.0
 11
0.0374735913702049
 21
0.0350016817664257
 31
0.0
  0
LINE
  5
98
330
1D
100
AcDbEntity
  8
0
  6
Continuous
100
AcDbLine
 10
0.0717235913702049
 20
0.0350016817664256
 30
0.0
 11
0.0763325913702049
 21
0.0350016817664256
 31
0.0
  0
LINE
  5
99
330
1D
100
AcDbEntity
  8
0
  6
Continuous
100
AcDbLine
 10
0.0557655913702049
 20
0.0350016817664256
 30
0.0
 11
0.0611745913702049
 21
0.0350016817664256
 31
0.0
  0
LINE
  5
9A
330
1D
100
AcDbEntity
  8
0
  6
Continuous
100
AcDbLine
 10
0.0368645913702049
 20
0.0433706817664256
 30
0.0
 11
0.0368645913702049
 21
0.0353166817664257
 31
0.0
  0
LINE
  5
9B
330
1D
100
AcDbEntity
  8
0
  6
Continuous
100
AcDbLine
 10
0.0854855913702049
 20
0.0353166817664256
 30
0.0
 11
0.0854855913702049
 21
0.0433706817664256
 31
0.0
  0
LINE
  5
9C
330
1D
100
AcDbEntity
  8
0
  6
Continuous
100
AcDbLine
 10
0.0665845913702049
 20
0.0350016817664256
 30
0.0
 11
0.0717235913702049
 21
0.0350016817664256
 31
0.0
  0
LINE
  5
9D
330
1D
100
AcDbEntity
  8
0
  6
Continuous
100
AcDbLine
 10
0.0460175913702049
 20
0.0350016817664257
 30
0.0
 11
0.0506265913702049
 21
0.0350016817664256
 31
0.0
  0
LINE
  5
9E
330
1D
100
AcDbEntity
  8
0
  6
Continuous
100
AcDbLine
 10
0.0506265913702049
 20
0.0350016817664256
 30
0.0
 11
0.0557655913702049
 21
0.0350016817664256
 31
0.0
  0
LINE
  5
9F
330
1D
100
AcDbEntity
  8
0
  6
Continuous
100
AcDbLine
 10
0.0374735913702049
 20
0.0350016817664257
 30
0.0
 11
0.0392715913702049
 21
0.0350016817664257
 31
0.0
  0
LINE
  5
1FB
330
1D
100
AcDbEntity
  8
0
  6
Continuous
100
AcDbLine
 10
0.2453853727730944
 20
0.0433706817664256
 30
0.0
 11
0.2480223727730944
 21
0.0433706817664256
 31
0.0
  0
LINE
  5
1FC
330
1D
100
AcDbEntity
  8
0
  6
Continuous
100
AcDbLine
 10
0.2287323727730945
 20
0.0433706817664256
 30
0.0
 11
0.2354923727730945
 21
0.0433706817664256
 31
0.0
  0
LINE
  5
1FD
330
1D
100
AcDbEntity
  8
0
  6
Continuous
100
AcDbLine
 10
0.2211963727730945
 20
0.0433706817664256
 30
0.0
 11
0.2287323727730945
 21
0.0433706817664256
 31
0.0
  0
LINE
  5
1FE
330
1D
100
AcDbEntity
  8
0
  6
Continuous
100
AcDbLine
 10
0.2732623727730945
 20
0.0447536817664256
 30
0.0
 11
0.2732623727730945
 21
0.0540736817664256
 31
0.0
  0
LINE
  5
1FF
330
1D
100
AcDbEntity
  8
0
  6
Continuous
100
AcDbLine
 10
0.2489163727730944
 20
0.0433706817664256
 30
0.0
 11
0.2720233727730945
 21
0.0434126817664256
 31
0.0
  0
LINE
  5
200
330
1D
100
AcDbEntity
  8
0
  6
Continuous
100
AcDbLine
 10
0.2480223727730944
 20
0.0433706817664256
 30
0.0
 11
0.2489163727730944
 21
0.0433706817664256
 31
0.0
  0
LINE
  5
201
330
1D
100
AcDbEntity
  8
0
  6
Continuous
100
AcDbLine
 10
0.1977923727730945
 20
0.0433706817664256
 30
0.0
 11
0.2053283727730944
 21
0.0433706817664256
 31
0.0
  0
LINE
  5
202
330
1D
100
AcDbEntity
  8
0
  6
Continuous
100
AcDbLine
 10
0.1853873727730945
 20
0.0433706817664256
 30
0.0
 11
0.1910323727730945
 21
0.0433706817664256
 31
0.0
  0
LINE
  5
203
330
1D
100
AcDbEntity
  8
0
  6
Continuous
100
AcDbLine
 10
0.1811393727730944
 20
0.0433706817664256
 30
0.0
 11
0.1853873727730945
 21
0.0433706817664256
 31
0.0
  0
LINE
  5
204
330
1D
100
AcDbEntity
  8
0
  6
Continuous
100
AcDbLine
 10
0.1785023727730944
 20
0.0433706817664256
 30
0.0
 11
0.1811393727730944
 21
0.0433706817664256
 31
0.0
  0
LINE
  5
205
330
1D
100
AcDbEntity
  8
0
  6
Continuous
100
AcDbLine
 10
0.1776083727730945
 20
0.0433706817664256
 30
0.0
 11
0.1785023727730944
 21
0.0433706817664256
 31
0.0
  0
LINE
  5
206
330
1D
100
AcDbEntity
  8
0
  6
Continuous
100
AcDbLine
 10
0.1545013727730944
 20
0.0434126817664256
 30
0.0
 11
0.1776083727730945
 21
0.0433706817664256
 31
0.0
  0
LINE
  5
207
330
1D
100
AcDbEntity
  8
0
  6
Continuous
100
AcDbLine
 10
0.2411373727730944
 20
0.0433706817664256
 30
0.0
 11
0.2453853727730944
 21
0.0433706817664256
 31
0.0
  0
LINE
  5
208
330
1D
100
AcDbEntity
  8
0
  6
Continuous
100
AcDbLine
 10
0.2354923727730945
 20
0.0433706817664256
 30
0.0
 11
0.2411373727730944
 21
0.0433706817664256
 31
0.0
  0
LINE
  5
209
330
1D
100
AcDbEntity
  8
0
  6
Continuous
100
AcDbLine
 10
0.1532623727730944
 20
0.0540736817664256
 30
0.0
 11
0.1532623727730944
 21
0.0447536817664256
 31
0.0
  0
LINE
  5
20A
330
1D
100
AcDbEntity
  8
0
  6
Continuous
100
AcDbLine
 10
0.1910323727730945
 20
0.0433706817664256
 30
0.0
 11
0.1977923727730945
 21
0.0433706817664256
 31
0.0
  0
LINE
  5
20B
330
1D
100
AcDbEntity
  8
0
  6
Continuous
100
AcDbLine
 10
0.2132623727730944
 20
0.0433706817664256
 30
0.0
 11
0.2211963727730945
 21
0.0433706817664256
 31
0.0
  0
LINE
  5
20C
330
1D
100
AcDbEntity
  8
0
  6
Continuous
100
AcDbLine
 10
0.2132623727730944
 20
0.0433706817664256
 30
0.0
 11
0.2209293727730945
 21
0.0433706817664256
 31
0.0
  0
LINE
  5
20D
330
1D
100
AcDbEntity
  8
0
  6
Continuous
100
AcDbLine
 10
0.1822203727730944
 20
0.0433706817664256
 30
0.0
 11
0.1863253727730945
 21
0.0433706817664256
 31
0.0
  0
LINE
  5
20E
330
1D
100
AcDbEntity
  8
0
  6
Continuous
100
AcDbLine
 10
0.2209293727730945
 20
0.0433706817664256
 30
0.0
 11
0.2282113727730945
 21
0.0433706817664256
 31
0.0
  0
LINE
  5
20F
330
1D
100
AcDbEntity
  8
0
  6
Continuous
100
AcDbLine
 10
0.1796723727730944
 20
0.0433706817664256
 30
0.0
 11
0.1822203727730944
 21
0.0433706817664256
 31
0.0
  0
LINE
  5
210
330
1D
100
AcDbEntity
  8
0
  6
Continuous
100
AcDbLine
 10
0.2443043727730945
 20
0.0433706817664256
 30
0.0
 11
0.2468523727730945
 21
0.0433706817664256
 31
0.0
  0
LINE
  5
211
330
1D
100
AcDbEntity
  8
0
  6
Continuous
100
AcDbLine
 10
0.2480223727730944
 20
0.0433706817664256
 30
0.0
 11
0.2489163727730944
 21
0.0433706817664256
 31
0.0
  0
LINE
  5
212
330
1D
100
AcDbEntity
  8
0
  6
Continuous
100
AcDbLine
 10
0.1788083727730945
 20
0.0433706817664256
 30
0.0
 11
0.1796723727730944
 21
0.0433706817664256
 31
0.0
  0
LINE
  5
213
330
1D
100
AcDbEntity
  8
0
  6
Continuous
100
AcDbLine
 10
0.1776083727730945
 20
0.0433706817664256
 30
0.0
 11
0.1785023727730944
 21
0.0433706817664256
 31
0.0
  0
LINE
  5
214
330
1D
100
AcDbEntity
  8
0
  6
Continuous
100
AcDbLine
 10
0.2282113727730945
 20
0.0433706817664256
 30
0.0
 11
0.2347433727730944
 21
0.0433706817664256
 31
0.0
  0
LINE
  5
215
330
1D
100
AcDbEntity
  8
0
  6
Continuous
100
AcDbLine
 10
0.1683413727730945
 20
0.0554136817664256
 30
0.0
 11
0.1639403727730945
 21
0.0554136817664256
 31
0.0
  0
LINE
  5
216
330
1D
100
AcDbEntity
  8
0
  6
Continuous
100
AcDbLine
 10
0.1639403727730945
 20
0.0554136817664256
 30
0.0
 11
0.1600403727730945
 21
0.0554136817664256
 31
0.0
  0
LINE
  5
217
330
1D
100
AcDbEntity
  8
0
  6
Continuous
100
AcDbLine
 10
0.1600403727730945
 20
0.0554136817664256
 30
0.0
 11
0.1569463727730944
 21
0.0554136817664256
 31
0.0
  0
LINE
  5
218
330
1D
100
AcDbEntity
  8
0
  6
Continuous
100
AcDbLine
 10
0.1569463727730944
 20
0.0554136817664256
 30
0.0
 11
0.1549593727730945
 21
0.0554136817664256
 31
0.0
  0
LINE
  5
219
330
1D
100
AcDbEntity
  8
0
  6
Continuous
100
AcDbLine
 10
0.1535253727730945
 20
0.0437066817664256
 30
0.0
 11
0.1541613727730944
 21
0.0434136817664256
 31
0.0
  0
LINE
  5
21A
330
1D
100
AcDbEntity
  8
0
  6
Continuous
100
AcDbLine
 10
0.1532623727730944
 20
0.0444136817664256
 30
0.0
 11
0.1535253727730945
 21
0.0437066817664256
 31
0.0
  0
LINE
  5
21B
330
1D
100
AcDbEntity
  8
0
  6
Continuous
100
AcDbLine
 10
0.1542623727730945
 20
0.0554136817664256
 30
0.0
 11
0.1535553727730945
 21
0.0551206817664256
 31
0.0
  0
LINE
  5
21C
330
1D
100
AcDbEntity
  8
0
  6
Continuous
100
AcDbLine
 10
0.1549593727730945
 20
0.0554136817664256
 30
0.0
 11
0.1542623727730945
 21
0.0554136817664256
 31
0.0
  0
LINE
  5
21D
330
1D
100
AcDbEntity
  8
0
  6
Continuous
100
AcDbLine
 10
0.1535553727730945
 20
0.0551206817664256
 30
0.0
 11
0.1532623727730944
 21
0.0544136817664256
 31
0.0
  0
LINE
  5
21E
330
1D
100
AcDbEntity
  8
0
  6
Continuous
100
AcDbLine
 10
0.2625843727730944
 20
0.0554136817664256
 30
0.0
 11
0.2581833727730944
 21
0.0554136817664256
 31
0.0
  0
LINE
  5
21F
330
1D
100
AcDbEntity
  8
0
  6
Continuous
100
AcDbLine
 10
0.2664843727730944
 20
0.0554136817664256
 30
0.0
 11
0.2625843727730944
 21
0.0554136817664256
 31
0.0
  0
LINE
  5
220
330
1D
100
AcDbEntity
  8
0
  6
Continuous
100
AcDbLine
 10
0.2695783727730945
 20
0.0554136817664256
 30
0.0
 11
0.2664843727730944
 21
0.0554136817664256
 31
0.0
  0
LINE
  5
221
330
1D
100
AcDbEntity
  8
0
  6
Continuous
100
AcDbLine
 10
0.2715653727730944
 20
0.0554136817664256
 30
0.0
 11
0.2695783727730945
 21
0.0554136817664256
 31
0.0
  0
LINE
  5
222
330
1D
100
AcDbEntity
  8
0
  6
Continuous
100
AcDbLine
 10
0.2729693727730944
 20
0.0551206817664256
 30
0.0
 11
0.2722623727730944
 21
0.0554136817664256
 31
0.0
  0
LINE
  5
223
330
1D
100
AcDbEntity
  8
0
  6
Continuous
100
AcDbLine
 10
0.2722623727730944
 20
0.0554136817664256
 30
0.0
 11
0.2715653727730944
 21
0.0554136817664256
 31
0.0
  0
LINE
  5
224
330
1D
100
AcDbEntity
  8
0
  6
Continuous
100
AcDbLine
 10
0.2732623727730945
 20
0.0544136817664256
 30
0.0
 11
0.2729693727730944
 21
0.0551206817664256
 31
0.0
  0
LINE
  5
225
330
1D
100
AcDbEntity
  8
0
  6
Continuous
100
AcDbLine
 10
0.2723633727730945
 20
0.0434136817664256
 30
0.0
 11
0.2729993727730944
 21
0.0437066817664256
 31
0.0
  0
LINE
  5
226
330
1D
100
AcDbEntity
  8
0
  6
Continuous
100
AcDbLine
 10
0.2729993727730944
 20
0.0437066817664256
 30
0.0
 11
0.2732623727730945
 21
0.0444136817664256
 31
0.0
  0
LINE
  5
227
330
1D
100
AcDbEntity
  8
0
  6
Continuous
100
AcDbLine
 10
0.2132623727730944
 20
0.0554136817664256
 30
0.0
 11
0.1683413727730945
 21
0.0554136817664256
 31
0.0
  0
LINE
  5
228
330
1D
100
AcDbEntity
  8
0
  6
Continuous
100
AcDbLine
 10
0.2581833727730944
 20
0.0554136817664256
 30
0.0
 11
0.2132623727730944
 21
0.0554136817664256
 31
0.0
  0
LINE
  5
229
330
1D
100
AcDbEntity
  8
0
  6
Continuous
100
AcDbLine
 10
0.1532623727730944
 20
0.0447536817664256
 30
0.0
 11
0.1532623727730944
 21
0.0444136817664256
 31
0.0
  0
LINE
  5
22A
330
1D
100
AcDbEntity
  8
0
  6
Continuous
100
AcDbLine
 10
0.1532623727730944
 20
0.0544136817664256
 30
0.0
 11
0.1532623727730944
 21
0.0540736817664256
 31
0.0
  0
LINE
  5
22B
330
1D
100
AcDbEntity
  8
0
  6
Continuous
100
AcDbLine
 10
0.2732623727730945
 20
0.0540736817664256
 30
0.0
 11
0.2732623727730945
 21
0.0544136817664256
 31
0.0
  0
LINE
  5
22C
330
1D
100
AcDbEntity
  8
0
  6
Continuous
100
AcDbLine
 10
0.2732623727730945
 20
0.0444136817664256
 30
0.0
 11
0.2732623727730945
 21
0.0447536817664256
 31
0.0
  0
LINE
  5
22D
330
1D
100
AcDbEntity
  8
0
  6
Continuous
100
AcDbLine
 10
0.2053283727730944
 20
0.0433706817664256
 30
0.0
 11
0.2132623727730944
 21
0.0433706817664256
 31
0.0
  0
LINE
  5
22E
330
1D
100
AcDbEntity
  8
0
  6
Continuous
100
AcDbLine
 10
0.1869703727730945
 20
0.0181836817664256
 30
0.0
 11
0.1870243727730945
 21
0.0181836817664256
 31
0.0
  0
LINE
  5
22F
330
1D
100
AcDbEntity
  8
0
  6
Continuous
100
AcDbLine
 10
0.1870243727730945
 20
0.0271876817664256
 30
0.0
 11
0.1869703727730945
 21
0.0271876817664256
 31
0.0
  0
LINE
  5
230
330
1D
100
AcDbEntity
  8
0
  6
Continuous
100
AcDbLine
 10
0.1869703727730945
 20
0.0271876817664256
 30
0.0
 11
0.1867453727730944
 21
0.0271266817664256
 31
0.0
  0
LINE
  5
231
330
1D
100
AcDbEntity
  8
0
  6
Continuous
100
AcDbLine
 10
0.1867453727730944
 20
0.0271266817664256
 30
0.0
 11
0.1865803727730945
 21
0.0269606817664256
 31
0.0
  0
LINE
  5
232
330
1D
100
AcDbEntity
  8
0
  6
Continuous
100
AcDbLine
 10
0.1865203727730945
 20
0.0267336817664256
 30
0.0
 11
0.1865203727730945
 21
0.0265956817664256
 31
0.0
  0
LINE
  5
233
330
1D
100
AcDbEntity
  8
0
  6
Continuous
100
AcDbLine
 10
0.1865803727730945
 20
0.0269606817664256
 30
0.0
 11
0.1865203727730945
 21
0.0267336817664256
 31
0.0
  0
LINE
  5
234
330
1D
100
AcDbEntity
  8
0
  6
Continuous
100
AcDbLine
 10
0.1865203727730945
 20
0.0265956817664256
 30
0.0
 11
0.1865203727730945
 21
0.0261916817664256
 31
0.0
  0
LINE
  5
235
330
1D
100
AcDbEntity
  8
0
  6
Continuous
100
AcDbLine
 10
0.1865203727730945
 20
0.0261916817664256
 30
0.0
 11
0.1865203727730945
 21
0.0255476817664256
 31
0.0
  0
LINE
  5
236
330
1D
100
AcDbEntity
  8
0
  6
Continuous
100
AcDbLine
 10
0.1865203727730945
 20
0.0255476817664256
 30
0.0
 11
0.1865203727730945
 21
0.0247096817664256
 31
0.0
  0
LINE
  5
237
330
1D
100
AcDbEntity
  8
0
  6
Continuous
100
AcDbLine
 10
0.1865203727730945
 20
0.0247096817664256
 30
0.0
 11
0.1865203727730945
 21
0.0237336817664256
 31
0.0
  0
LINE
  5
238
330
1D
100
AcDbEntity
  8
0
  6
Continuous
100
AcDbLine
 10
0.1865203727730945
 20
0.0237336817664256
 30
0.0
 11
0.1865203727730945
 21
0.0226856817664256
 31
0.0
  0
LINE
  5
239
330
1D
100
AcDbEntity
  8
0
  6
Continuous
100
AcDbLine
 10
0.1865203727730945
 20
0.0226856817664256
 30
0.0
 11
0.1865203727730945
 21
0.0216376817664256
 31
0.0
  0
LINE
  5
23A
330
1D
100
AcDbEntity
  8
0
  6
Continuous
100
AcDbLine
 10
0.1865203727730945
 20
0.0216376817664256
 30
0.0
 11
0.1865203727730945
 21
0.0206616817664256
 31
0.0
  0
LINE
  5
23B
330
1D
100
AcDbEntity
  8
0
  6
Continuous
100
AcDbLine
 10
0.1865203727730945
 20
0.0206616817664256
 30
0.0
 11
0.1865203727730945
 21
0.0198236817664256
 31
0.0
  0
LINE
  5
23C
330
1D
100
AcDbEntity
  8
0
  6
Continuous
100
AcDbLine
 10
0.1865203727730945
 20
0.0198236817664256
 30
0.0
 11
0.1865203727730945
 21
0.0191796817664256
 31
0.0
  0
LINE
  5
23D
330
1D
100
AcDbEntity
  8
0
  6
Continuous
100
AcDbLine
 10
0.1865203727730945
 20
0.0191796817664256
 30
0.0
 11
0.1865203727730945
 21
0.0187756817664256
 31
0.0
  0
LINE
  5
23E
330
1D
100
AcDbEntity
  8
0
  6
Continuous
100
AcDbLine
 10
0.1867453727730944
 20
0.0182446817664256
 30
0.0
 11
0.1869703727730945
 21
0.0181836817664256
 31
0.0
  0
LINE
  5
23F
330
1D
100
AcDbEntity
  8
0
  6
Continuous
100
AcDbLine
 10
0.1865803727730945
 20
0.0184106817664256
 30
0.0
 11
0.1867453727730944
 21
0.0182446817664256
 31
0.0
  0
LINE
  5
240
330
1D
100
AcDbEntity
  8
0
  6
Continuous
100
AcDbLine
 10
0.1865203727730945
 20
0.0186376817664256
 30
0.0
 11
0.1865803727730945
 21
0.0184106817664256
 31
0.0
  0
LINE
  5
241
330
1D
100
AcDbEntity
  8
0
  6
Continuous
100
AcDbLine
 10
0.1865203727730945
 20
0.0187756817664256
 30
0.0
 11
0.1865203727730945
 21
0.0186376817664256
 31
0.0
  0
LINE
  5
242
330
1D
100
AcDbEntity
  8
0
  6
Continuous
100
AcDbLine
 10
0.1870243727730945
 20
0.0181836817664256
 30
0.0
 11
0.1890943727730945
 21
0.0181836817664256
 31
0.0
  0
LINE
  5
243
330
1D
100
AcDbEntity
  8
0
  6
Continuous
100
AcDbLine
 10
0.1890963727730945
 20
0.0271876817664256
 30
0.0
 11
0.1870243727730945
 21
0.0271876817664256
 31
0.0
  0
LINE
  5
244
330
1D
100
AcDbEntity
  8
0
  6
Continuous
100
AcDbLine
 10
0.1890943727730945
 20
-0.0025883182335744
 30
0.0
 11
0.1890943727730945
 21
-0.0026633182335744
 31
0.0
  0
LINE
  5
245
330
1D
100
AcDbEntity
  8
0
  6
Continuous
100
AcDbLine
 10
0.2374303727730945
 20
-0.0026633182335744
 30
0.0
 11
0.2374303727730945
 21
-0.0025883182335744
 31
0.0
  0
LINE
  5
246
330
1D
100
AcDbEntity
  8
0
  6
Continuous
100
AcDbLine
 10
0.2083603727730944
 20
0.0334816817664256
 30
0.0
 11
0.2132623727730944
 21
0.0334816817664256
 31
0.0
  0
LINE
  5
247
330
1D
100
AcDbEntity
  8
0
  6
Continuous
100
AcDbLine
 10
0.1921903727730945
 20
-0.0035863182335744
 30
0.0
 11
0.1949763727730944
 21
-0.0035863182335744
 31
0.0
  0
LINE
  5
248
330
1D
100
AcDbEntity
  8
0
  6
Continuous
100
AcDbLine
 10
0.2269983727730945
 20
0.0334816817664256
 30
0.0
 11
0.2304863727730945
 21
0.0334816817664256
 31
0.0
  0
LINE
  5
249
330
1D
100
AcDbEntity
  8
0
  6
Continuous
100
AcDbLine
 10
0.1917843727730945
 20
0.0334816817664256
 30
0.0
 11
0.1934133727730944
 21
0.0334816817664256
 31
0.0
  0
LINE
  5
24A
330
1D
100
AcDbEntity
  8
0
  6
Continuous
100
AcDbLine
 10
0.2037033727730945
 20
0.0334816817664256
 30
0.0
 11
0.2083603727730944
 21
0.0334816817664256
 31
0.0
  0
LINE
  5
24B
330
1D
100
AcDbEntity
  8
0
  6
Continuous
100
AcDbLine
 10
0.2331113727730945
 20
0.0334816817664256
 30
0.0
 11
0.2347403727730945
 21
0.0334816817664256
 31
0.0
  0
LINE
  5
24C
330
1D
100
AcDbEntity
  8
0
  6
Continuous
100
AcDbLine
 10
0.1912323727730944
 20
0.0334816817664256
 30
0.0
 11
0.1917843727730945
 21
0.0334816817664256
 31
0.0
  0
LINE
  5
24D
330
1D
100
AcDbEntity
  8
0
  6
Continuous
100
AcDbLine
 10
0.2304863727730945
 20
0.0334816817664256
 30
0.0
 11
0.2331113727730945
 21
0.0334816817664256
 31
0.0
  0
LINE
  5
24E
330
1D
100
AcDbEntity
  8
0
  6
Continuous
100
AcDbLine
 10
0.2370513727730945
 20
-0.0034023182335744
 30
0.0
 11
0.2373353727730945
 21
-0.0030803182335744
 31
0.0
  0
LINE
  5
24F
330
1D
100
AcDbEntity
  8
0
  6
Continuous
100
AcDbLine
 10
0.2373353727730945
 20
-0.0030803182335744
 30
0.0
 11
0.2374303727730945
 21
-0.0026633182335744
 31
0.0
  0
LINE
  5
250
330
1D
100
AcDbEntity
  8
0
  6
Continuous
100
AcDbLine
 10
0.1891893727730944
 20
-0.0030803182335744
 30
0.0
 11
0.1894733727730944
 21
-0.0034023182335744
 31
0.0
  0
LINE
  5
251
330
1D
100
AcDbEntity
  8
0
  6
Continuous
100
AcDbLine
 10
0.1890943727730945
 20
-0.0026633182335744
 30
0.0
 11
0.1891893727730944
 21
-0.0030803182335744
 31
0.0
  0
LINE
  5
252
330
1D
100
AcDbEntity
  8
0
  6
Continuous
100
AcDbLine
 10
0.1890943727730945
 20
0.0334816817664256
 30
0.0
 11
0.1890943727730945
 21
0.0332136817664256
 31
0.0
  0
LINE
  5
253
330
1D
100
AcDbEntity
  8
0
  6
Continuous
100
AcDbLine
 10
0.1897003727730945
 20
0.0334816817664256
 30
0.0
 11
0.1890943727730945
 21
0.0334816817664256
 31
0.0
  0
LINE
  5
254
330
1D
100
AcDbEntity
  8
0
  6
Continuous
100
AcDbLine
 10
0.2350363727730945
 20
0.0334816817664256
 30
0.0
 11
0.2321573727730945
 21
0.0334816817664256
 31
0.0
  0
LINE
  5
255
330
1D
100
AcDbEntity
  8
0
  6
Continuous
100
AcDbLine
 10
0.1981943727730945
 20
0.0334816817664256
 30
0.0
 11
0.1943673727730945
 21
0.0334816817664256
 31
0.0
  0
LINE
  5
256
330
1D
100
AcDbEntity
  8
0
  6
Continuous
100
AcDbLine
 10
0.2186403727730944
 20
0.0334816817664256
 30
0.0
 11
0.2132623727730944
 21
0.0334816817664256
 31
0.0
  0
LINE
  5
257
330
1D
100
AcDbEntity
  8
0
  6
Continuous
100
AcDbLine
 10
0.2132623727730944
 20
0.0334816817664256
 30
0.0
 11
0.2078843727730945
 21
0.0334816817664256
 31
0.0
  0
LINE
  5
258
330
1D
100
AcDbEntity
  8
0
  6
Continuous
100
AcDbLine
 10
0.2321573727730945
 20
0.0334816817664256
 30
0.0
 11
0.2283303727730944
 21
0.0334816817664256
 31
0.0
  0
LINE
  5
259
330
1D
100
AcDbEntity
  8
0
  6
Continuous
100
AcDbLine
 10
0.1934133727730944
 20
0.0334816817664256
 30
0.0
 11
0.1919173727730944
 21
0.0334816817664256
 31
0.0
  0
LINE
  5
25A
330
1D
100
AcDbEntity
  8
0
  6
Continuous
100
AcDbLine
 10
0.2374303727730945
 20
0.0332136817664256
 30
0.0
 11
0.2374303727730945
 21
0.0334816817664256
 31
0.0
  0
LINE
  5
25B
330
1D
100
AcDbEntity
  8
0
  6
Continuous
100
AcDbLine
 10
0.2374303727730945
 20
0.0334816817664256
 30
0.0
 11
0.2368243727730944
 21
0.0334816817664256
 31
0.0
  0
LINE
  5
25C
330
1D
100
AcDbEntity
  8
0
  6
Continuous
100
AcDbLine
 10
0.1914883727730945
 20
0.0334816817664256
 30
0.0
 11
0.1897003727730945
 21
0.0334816817664256
 31
0.0
  0
LINE
  5
25D
330
1D
100
AcDbEntity
  8
0
  6
Continuous
100
AcDbLine
 10
0.2078843727730945
 20
0.0334816817664256
 30
0.0
 11
0.2027763727730945
 21
0.0334816817664256
 31
0.0
  0
LINE
  5
25E
330
1D
100
AcDbEntity
  8
0
  6
Continuous
100
AcDbLine
 10
0.2283303727730944
 20
0.0334816817664256
 30
0.0
 11
0.2237483727730944
 21
0.0334816817664256
 31
0.0
  0
LINE
  5
25F
330
1D
100
AcDbEntity
  8
0
  6
Continuous
100
AcDbLine
 10
0.2027763727730945
 20
0.0334816817664256
 30
0.0
 11
0.1981943727730945
 21
0.0334816817664256
 31
0.0
  0
LINE
  5
260
330
1D
100
AcDbEntity
  8
0
  6
Continuous
100
AcDbLine
 10
0.2237483727730944
 20
0.0334816817664256
 30
0.0
 11
0.2186403727730944
 21
0.0334816817664256
 31
0.0
  0
LINE
  5
261
330
1D
100
AcDbEntity
  8
0
  6
Continuous
100
AcDbLine
 10
0.2368243727730944
 20
0.0334816817664256
 30
0.0
 11
0.2350363727730945
 21
0.0334816817664256
 31
0.0
  0
LINE
  5
262
330
1D
100
AcDbEntity
  8
0
  6
Continuous
100
AcDbLine
 10
0.2029833727730945
 20
0.0334816817664256
 30
0.0
 11
0.2037033727730945
 21
0.0334816817664256
 31
0.0
  0
LINE
  5
263
330
1D
100
AcDbEntity
  8
0
  6
Continuous
100
AcDbLine
 10
0.1919173727730944
 20
0.0334816817664256
 30
0.0
 11
0.1914883727730945
 21
0.0334816817664256
 31
0.0
  0
LINE
  5
264
330
1D
100
AcDbEntity
  8
0
  6
Continuous
100
AcDbLine
 10
0.2374303727730945
 20
-0.0025883182335744
 30
0.0
 11
0.2374303727730945
 21
0.0332136817664256
 31
0.0
  0
LINE
  5
265
330
1D
100
AcDbEntity
  8
0
  6
Continuous
100
AcDbLine
 10
0.1890943727730945
 20
0.0332136817664256
 30
0.0
 11
0.1890943727730945
 21
0.0271876817664256
 31
0.0
  0
LINE
  5
266
330
1D
100
AcDbEntity
  8
0
  6
Continuous
100
AcDbLine
 10
0.1890943727730945
 20
0.0181836817664256
 30
0.0
 11
0.1890943727730945
 21
-0.0025883182335744
 31
0.0
  0
LINE
  5
267
330
1D
100
AcDbEntity
  8
0
  6
Continuous
100
AcDbLine
 10
0.2366513727730944
 20
-0.0035863182335744
 30
0.0
 11
0.2370513727730945
 21
-0.0034023182335744
 31
0.0
  0
LINE
  5
268
330
1D
100
AcDbEntity
  8
0
  6
Continuous
100
AcDbLine
 10
0.2315483727730944
 20
-0.0035863182335744
 30
0.0
 11
0.2343343727730945
 21
-0.0035863182335744
 31
0.0
  0
LINE
  5
269
330
1D
100
AcDbEntity
  8
0
  6
Continuous
100
AcDbLine
 10
0.2278443727730944
 20
-0.0035863182335744
 30
0.0
 11
0.2315483727730944
 21
-0.0035863182335744
 31
0.0
  0
LINE
  5
26A
330
1D
100
AcDbEntity
  8
0
  6
Continuous
100
AcDbLine
 10
0.2234103727730945
 20
-0.0035863182335744
 30
0.0
 11
0.2278443727730944
 21
-0.0035863182335744
 31
0.0
  0
LINE
  5
26B
330
1D
100
AcDbEntity
  8
0
  6
Continuous
100
AcDbLine
 10
0.2184663727730944
 20
-0.0035863182335744
 30
0.0
 11
0.2234103727730945
 21
-0.0035863182335744
 31
0.0
  0
LINE
  5
26C
330
1D
100
AcDbEntity
  8
0
  6
Continuous
100
AcDbLine
 10
0.2132623727730944
 20
-0.0035863182335744
 30
0.0
 11
0.2184663727730944
 21
-0.0035863182335744
 31
0.0
  0
LINE
  5
26D
330
1D
100
AcDbEntity
  8
0
  6
Continuous
100
AcDbLine
 10
0.2080573727730944
 20
-0.0035863182335744
 30
0.0
 11
0.2132623727730944
 21
-0.0035863182335744
 31
0.0
  0
LINE
  5
26E
330
1D
100
AcDbEntity
  8
0
  6
Continuous
100
AcDbLine
 10
0.2031143727730944
 20
-0.0035863182335744
 30
0.0
 11
0.2080573727730944
 21
-0.0035863182335744
 31
0.0
  0
LINE
  5
26F
330
1D
100
AcDbEntity
  8
0
  6
Continuous
100
AcDbLine
 10
0.1986793727730944
 20
-0.0035863182335744
 30
0.0
 11
0.2031143727730944
 21
-0.0035863182335744
 31
0.0
  0
LINE
  5
270
330
1D
100
AcDbEntity
  8
0
  6
Continuous
100
AcDbLine
 10
0.1949763727730944
 20
-0.0035863182335744
 30
0.0
 11
0.1986793727730944
 21
-0.0035863182335744
 31
0.0
  0
LINE
  5
271
330
1D
100
AcDbEntity
  8
0
  6
Continuous
100
AcDbLine
 10
0.1904603727730945
 20
-0.0035863182335744
 30
0.0
 11
0.1921903727730945
 21
-0.0035863182335744
 31
0.0
  0
LINE
  5
272
330
1D
100
AcDbEntity
  8
0
  6
Continuous
100
AcDbLine
 10
0.1894733727730944
 20
-0.0034023182335744
 30
0.0
 11
0.1898733727730945
 21
-0.0035863182335744
 31
0.0
  0
LINE
  5
273
330
1D
100
AcDbEntity
  8
0
  6
Continuous
100
AcDbLine
 10
0.1898733727730945
 20
-0.0035863182335744
 30
0.0
 11
0.1904603727730945
 21
-0.0035863182335744
 31
0.0
  0
LINE
  5
274
330
1D
100
AcDbEntity
  8
0
  6
Continuous
100
AcDbLine
 10
0.1889513727730945
 20
0.0353166817664256
 30
0.0
 11
0.1889513727730945
 21
0.0350016817664256
 31
0.0
  0
LINE
  5
275
330
1D
100
AcDbEntity
  8
0
  6
Continuous
100
AcDbLine
 10
0.1889513727730945
 20
0.0350016817664256
 30
0.0
 11
0.1895613727730945
 21
0.0350016817664256
 31
0.0
  0
LINE
  5
276
330
1D
100
AcDbEntity
  8
0
  6
Continuous
100
AcDbLine
 10
0.2375733727730945
 20
0.0350016817664256
 30
0.0
 11
0.2375733727730945
 21
0.0353166817664256
 31
0.0
  0
LINE
  5
277
330
1D
100
AcDbEntity
  8
0
  6
Continuous
100
AcDbLine
 10
0.2369633727730945
 20
0.0350016817664256
 30
0.0
 11
0.2375733727730945
 21
0.0350016817664256
 31
0.0
  0
LINE
  5
278
330
1D
100
AcDbEntity
  8
0
  6
Continuous
100
AcDbLine
 10
0.2027143727730944
 20
0.0350016817664256
 30
0.0
 11
0.2078523727730944
 21
0.0350016817664256
 31
0.0
  0
LINE
  5
279
330
1D
100
AcDbEntity
  8
0
  6
Continuous
100
AcDbLine
 10
0.2078523727730944
 20
0.0350016817664256
 30
0.0
 11
0.2132623727730944
 21
0.0350016817664256
 31
0.0
  0
LINE
  5
27A
330
1D
100
AcDbEntity
  8
0
  6
Continuous
100
AcDbLine
 10
0.2132623727730944
 20
0.0350016817664256
 30
0.0
 11
0.2186723727730945
 21
0.0350016817664256
 31
0.0
  0
LINE
  5
27B
330
1D
100
AcDbEntity
  8
0
  6
Continuous
100
AcDbLine
 10
0.1913593727730944
 20
0.0350016817664256
 30
0.0
 11
0.1942553727730945
 21
0.0350016817664256
 31
0.0
  0
LINE
  5
27C
330
1D
100
AcDbEntity
  8
0
  6
Continuous
100
AcDbLine
 10
0.2186723727730945
 20
0.0350016817664256
 30
0.0
 11
0.2238103727730945
 21
0.0350016817664256
 31
0.0
  0
LINE
  5
27D
330
1D
100
AcDbEntity
  8
0
  6
Continuous
100
AcDbLine
 10
0.1889513727730945
 20
0.0433706817664256
 30
0.0
 11
0.1889513727730945
 21
0.0353166817664256
 31
0.0
  0
LINE
  5
27E
330
1D
100
AcDbEntity
  8
0
  6
Continuous
100
AcDbLine
 10
0.2375733727730945
 20
0.0353166817664256
 30
0.0
 11
0.2375733727730945
 21
0.0433706817664256
 31
0.0
  0
LINE
  5
27F
330
1D
100
AcDbEntity
  8
0
  6
Continuous
100
AcDbLine
 10
0.1942553727730945
 20
0.0350016817664256
 30
0.0
 11
0.1981043727730945
 21
0.0350016817664256
 31
0.0
  0
LINE
  5
280
330
1D
100
AcDbEntity
  8
0
  6
Continuous
100
AcDbLine
 10
0.2238103727730945
 20
0.0350016817664256
 30
0.0
 11
0.2284203727730945
 21
0.0350016817664256
 31
0.0
  0
LINE
  5
281
330
1D
100
AcDbEntity
  8
0
  6
Continuous
100
AcDbLine
 10
0.2284203727730945
 20
0.0350016817664256
 30
0.0
 11
0.2322693727730944
 21
0.0350016817664256
 31
0.0
  0
LINE
  5
282
330
1D
100
AcDbEntity
  8
0
  6
Continuous
100
AcDbLine
 10
0.1895613727730945
 20
0.0350016817664256
 30
0.0
 11
0.1913593727730944
 21
0.0350016817664256
 31
0.0
  0
LINE
  5
283
330
1D
100
AcDbEntity
  8
0
  6
Continuous
100
AcDbLine
 10
0.2322693727730944
 20
0.0350016817664256
 30
0.0
 11
0.2351653727730945
 21
0.0350016817664256
 31
0.0
  0
LINE
  5
284
330
1D
100
AcDbEntity
  8
0
  6
Continuous
100
AcDbLine
 10
0.1981043727730945
 20
0.0350016817664256
 30
0.0
 11
0.2027143727730944
 21
0.0350016817664256
 31
0.0
  0
LINE
  5
285
330
1D
100
AcDbEntity
  8
0
  6
Continuous
100
AcDbLine
 10
0.1890963727730945
 20
0.0271876817664256
 30
0.0
 11
0.1892273727730944
 21
0.0270346817664256
 31
0.0
  0
LINE
  5
286
330
1D
100
AcDbEntity
  8
0
  6
Continuous
100
AcDbLine
 10
0.1892273727730944
 20
0.0270346817664256
 30
0.0
 11
0.1893493727730944
 21
0.0265846817664256
 31
0.0
  0
LINE
  5
287
330
1D
100
AcDbEntity
  8
0
  6
Continuous
100
AcDbLine
 10
0.1893493727730944
 20
0.0265846817664256
 30
0.0
 11
0.1894553727730944
 21
0.0258686817664256
 31
0.0
  0
LINE
  5
288
330
1D
100
AcDbEntity
  8
0
  6
Continuous
100
AcDbLine
 10
0.1895353727730944
 20
0.0249366817664256
 30
0.0
 11
0.1894553727730944
 21
0.0258686817664256
 31
0.0
  0
LINE
  5
289
330
1D
100
AcDbEntity
  8
0
  6
Continuous
100
AcDbLine
 10
0.1895863727730944
 20
0.0238506817664256
 30
0.0
 11
0.1895353727730944
 21
0.0249366817664256
 31
0.0
  0
LINE
  5
28A
330
1D
100
AcDbEntity
  8
0
  6
Continuous
100
AcDbLine
 10
0.1896033727730945
 20
0.0226856817664256
 30
0.0
 11
0.1895863727730944
 21
0.0238506817664256
 31
0.0
  0
LINE
  5
28B
330
1D
100
AcDbEntity
  8
0
  6
Continuous
100
AcDbLine
 10
0.1895353727730944
 20
0.0204346817664256
 30
0.0
 11
0.1895863727730944
 21
0.0215206817664256
 31
0.0
  0
LINE
  5
28C
330
1D
100
AcDbEntity
  8
0
  6
Continuous
100
AcDbLine
 10
0.1894543727730944
 20
0.0195026817664256
 30
0.0
 11
0.1895353727730944
 21
0.0204346817664256
 31
0.0
  0
LINE
  5
28D
330
1D
100
AcDbEntity
  8
0
  6
Continuous
100
AcDbLine
 10
0.1893493727730944
 20
0.0187866817664256
 30
0.0
 11
0.1894543727730944
 21
0.0195026817664256
 31
0.0
  0
LINE
  5
35E
330
1D
100
AcDbEntity
  8
0
  6
Continuous
100
AcDbLine
 10
0.2453853727730944
 20
-0.1079732135610099
 30
0.0
 11
0.2480223727730944
 21
-0.11550921356101
 31
0.0
  0
LINE
  5
35F
330
1D
100
AcDbEntity
  8
0
  6
Continuous
100
AcDbLine
 10
0.2287323727730945
 20
-0.15556621356101
 30
0.0
 11
0.2211963727730945
 21
-0.15820321356101
 31
0.0
  0
LINE
  5
360
330
1D
100
AcDbEntity
  8
0
  6
Continuous
100
AcDbLine
 10
0.2287323727730945
 20
-0.09132021356101
 30
0.0
 11
0.2354923727730944
 21
-0.09556821356101
 31
0.0
  0
LINE
  5
361
330
1D
100
AcDbEntity
  8
0
  6
Continuous
100
AcDbLine
 10
0.2211963727730945
 20
-0.08868321356101
 30
0.0
 11
0.2287323727730945
 21
-0.09132021356101
 31
0.0
  0
LINE
  5
362
330
1D
100
AcDbEntity
  8
0
  6
Continuous
100
AcDbLine
 10
0.2480223727730944
 20
-0.11550921356101
 30
0.0
 11
0.2489163727730944
 21
-0.12344321356101
 31
0.0
  0
LINE
  5
363
330
1D
100
AcDbEntity
  8
0
  6
Continuous
100
AcDbLine
 10
0.1977923727730945
 20
-0.09132021356101
 30
0.0
 11
0.2053283727730944
 21
-0.08868321356101
 31
0.0
  0
LINE
  5
364
330
1D
100
AcDbEntity
  8
0
  6
Continuous
100
AcDbLine
 10
0.1853873727730945
 20
-0.10121321356101
 30
0.0
 11
0.1910323727730945
 21
-0.09556821356101
 31
0.0
  0
LINE
  5
365
330
1D
100
AcDbEntity
  8
0
  6
Continuous
100
AcDbLine
 10
0.1811393727730944
 20
-0.1079732135610099
 30
0.0
 11
0.1853873727730945
 21
-0.10121321356101
 31
0.0
  0
LINE
  5
366
330
1D
100
AcDbEntity
  8
0
  6
Continuous
100
AcDbLine
 10
0.1785023727730944
 20
-0.11550921356101
 30
0.0
 11
0.1811393727730944
 21
-0.1079732135610099
 31
0.0
  0
LINE
  5
367
330
1D
100
AcDbEntity
  8
0
  6
Continuous
100
AcDbLine
 10
0.1776083727730944
 20
-0.12344321356101
 30
0.0
 11
0.1785023727730944
 21
-0.11550921356101
 31
0.0
  0
LINE
  5
368
330
1D
100
AcDbEntity
  8
0
  6
Continuous
100
AcDbLine
 10
0.2132623727730944
 20
-0.1590972135610099
 30
0.0
 11
0.2053283727730944
 21
-0.15820321356101
 31
0.0
  0
LINE
  5
369
330
1D
100
AcDbEntity
  8
0
  6
Continuous
100
AcDbLine
 10
0.2053283727730944
 20
-0.15820321356101
 30
0.0
 11
0.1977923727730945
 21
-0.15556621356101
 31
0.0
  0
LINE
  5
36A
330
1D
100
AcDbEntity
  8
0
  6
Continuous
100
AcDbLine
 10
0.1977923727730945
 20
-0.15556621356101
 30
0.0
 11
0.1910323727730945
 21
-0.1513182135610099
 31
0.0
  0
LINE
  5
36B
330
1D
100
AcDbEntity
  8
0
  6
Continuous
100
AcDbLine
 10
0.2411373727730944
 20
-0.10121321356101
 30
0.0
 11
0.2453853727730944
 21
-0.1079732135610099
 31
0.0
  0
LINE
  5
36C
330
1D
100
AcDbEntity
  8
0
  6
Continuous
100
AcDbLine
 10
0.2354923727730944
 20
-0.1513182135610099
 30
0.0
 11
0.2287623727730945
 21
-0.15554721356101
 31
0.0
  0
LINE
  5
36D
330
1D
100
AcDbEntity
  8
0
  6
Continuous
100
AcDbLine
 10
0.1811393727730944
 20
-0.1389132135610099
 30
0.0
 11
0.1785023727730944
 21
-0.1313772135610099
 31
0.0
  0
LINE
  5
36E
330
1D
100
AcDbEntity
  8
0
  6
Continuous
100
AcDbLine
 10
0.2354923727730944
 20
-0.09556821356101
 30
0.0
 11
0.2411373727730944
 21
-0.10121321356101
 31
0.0
  0
LINE
  5
36F
330
1D
100
AcDbEntity
  8
0
  6
Continuous
100
AcDbLine
 10
0.1785023727730944
 20
-0.1313772135610099
 30
0.0
 11
0.1776083727730944
 21
-0.12344321356101
 31
0.0
  0
LINE
  5
370
330
1D
100
AcDbEntity
  8
0
  6
Continuous
100
AcDbLine
 10
0.1910323727730945
 20
-0.1513182135610099
 30
0.0
 11
0.1853873727730945
 21
-0.1456732135610099
 31
0.0
  0
LINE
  5
371
330
1D
100
AcDbEntity
  8
0
  6
Continuous
100
AcDbLine
 10
0.2211963727730945
 20
-0.15820321356101
 30
0.0
 11
0.2132623727730944
 21
-0.1590972135610099
 31
0.0
  0
LINE
  5
372
330
1D
100
AcDbEntity
  8
0
  6
Continuous
100
AcDbLine
 10
0.2489163727730944
 20
-0.12344321356101
 30
0.0
 11
0.2480223727730944
 21
-0.1313772135610099
 31
0.0
  0
LINE
  5
373
330
1D
100
AcDbEntity
  8
0
  6
Continuous
100
AcDbLine
 10
0.2453853727730944
 20
-0.1389132135610099
 30
0.0
 11
0.2411373727730944
 21
-0.1456732135610099
 31
0.0
  0
LINE
  5
374
330
1D
100
AcDbEntity
  8
0
  6
Continuous
100
AcDbLine
 10
0.2480223727730944
 20
-0.1313772135610099
 30
0.0
 11
0.2453853727730944
 21
-0.1389132135610099
 31
0.0
  0
LINE
  5
375
330
1D
100
AcDbEntity
  8
0
  6
Continuous
100
AcDbLine
 10
0.1910323727730945
 20
-0.09556821356101
 30
0.0
 11
0.1977623727730944
 21
-0.09133921356101
 31
0.0
  0
LINE
  5
376
330
1D
100
AcDbEntity
  8
0
  6
Continuous
100
AcDbLine
 10
0.2411373727730944
 20
-0.1456732135610099
 30
0.0
 11
0.2354923727730944
 21
-0.1513182135610099
 31
0.0
  0
LINE
  5
377
330
1D
100
AcDbEntity
  8
0
  6
Continuous
100
AcDbLine
 10
0.1853873727730945
 20
-0.1456732135610099
 30
0.0
 11
0.1811393727730944
 21
-0.1389132135610099
 31
0.0
  0
LINE
  5
378
330
1D
100
AcDbEntity
  8
0
  6
Continuous
100
AcDbLine
 10
0.2132623727730944
 20
-0.08778921356101
 30
0.0
 11
0.2211963727730945
 21
-0.08868321356101
 31
0.0
  0
LINE
  5
379
330
1D
100
AcDbEntity
  8
0
  6
Continuous
100
AcDbLine
 10
0.2732623727730945
 20
-0.12344321356101
 30
0.0
 11
0.2732623727730945
 21
-0.07844321356101
 31
0.0
  0
LINE
  5
37A
330
1D
100
AcDbEntity
  8
0
  6
Continuous
100
AcDbLine
 10
0.1532623727730944
 20
-0.07844321356101
 30
0.0
 11
0.1532623727730944
 21
-0.12344321356101
 31
0.0
  0
LINE
  5
37B
330
1D
100
AcDbEntity
  8
0
  6
Continuous
100
AcDbLine
 10
0.1682623727730945
 20
-0.18344321356101
 30
0.0
 11
0.2132623727730944
 21
-0.18344321356101
 31
0.0
  0
LINE
  5
37C
330
1D
100
AcDbEntity
  8
0
  6
Continuous
100
AcDbLine
 10
0.1682623727730945
 20
-0.06344321356101
 30
0.0
 11
0.1636273727730945
 21
-0.06417721356101
 31
0.0
  0
LINE
  5
37D
330
1D
100
AcDbEntity
  8
0
  6
Continuous
100
AcDbLine
 10
0.1636273727730945
 20
-0.06417721356101
 30
0.0
 11
0.1594453727730944
 21
-0.06630821356101
 31
0.0
  0
LINE
  5
37E
330
1D
100
AcDbEntity
  8
0
  6
Continuous
100
AcDbLine
 10
0.1594453727730944
 20
-0.06630821356101
 30
0.0
 11
0.1561273727730945
 21
-0.06962621356101
 31
0.0
  0
LINE
  5
37F
330
1D
100
AcDbEntity
  8
0
  6
Continuous
100
AcDbLine
 10
0.1561273727730945
 20
-0.06962621356101
 30
0.0
 11
0.1539963727730945
 21
-0.07380821356101
 31
0.0
  0
LINE
  5
380
330
1D
100
AcDbEntity
  8
0
  6
Continuous
100
AcDbLine
 10
0.1539963727730945
 20
-0.07380821356101
 30
0.0
 11
0.1532623727730944
 21
-0.07844321356101
 31
0.0
  0
LINE
  5
381
330
1D
100
AcDbEntity
  8
0
  6
Continuous
100
AcDbLine
 10
0.1636273727730945
 20
-0.1827092135610099
 30
0.0
 11
0.1682623727730945
 21
-0.18344321356101
 31
0.0
  0
LINE
  5
382
330
1D
100
AcDbEntity
  8
0
  6
Continuous
100
AcDbLine
 10
0.1594453727730944
 20
-0.1805782135610099
 30
0.0
 11
0.1636273727730945
 21
-0.1827092135610099
 31
0.0
  0
LINE
  5
383
330
1D
100
AcDbEntity
  8
0
  6
Continuous
100
AcDbLine
 10
0.1561273727730945
 20
-0.17726021356101
 30
0.0
 11
0.1594453727730944
 21
-0.1805782135610099
 31
0.0
  0
LINE
  5
384
330
1D
100
AcDbEntity
  8
0
  6
Continuous
100
AcDbLine
 10
0.1539963727730945
 20
-0.1730782135610099
 30
0.0
 11
0.1561273727730945
 21
-0.17726021356101
 31
0.0
  0
LINE
  5
385
330
1D
100
AcDbEntity
  8
0
  6
Continuous
100
AcDbLine
 10
0.1532623727730944
 20
-0.1684432135610099
 30
0.0
 11
0.1539963727730945
 21
-0.1730782135610099
 31
0.0
  0
LINE
  5
386
330
1D
100
AcDbEntity
  8
0
  6
Continuous
100
AcDbLine
 10
0.2628973727730944
 20
-0.06417721356101
 30
0.0
 11
0.2582623727730944
 21
-0.06344321356101
 31
0.0
  0
LINE
  5
387
330
1D
100
AcDbEntity
  8
0
  6
Continuous
100
AcDbLine
 10
0.2670793727730945
 20
-0.06630821356101
 30
0.0
 11
0.2628973727730944
 21
-0.06417721356101
 31
0.0
  0
LINE
  5
388
330
1D
100
AcDbEntity
  8
0
  6
Continuous
100
AcDbLine
 10
0.2703973727730944
 20
-0.06962621356101
 30
0.0
 11
0.2670793727730945
 21
-0.06630821356101
 31
0.0
  0
LINE
  5
389
330
1D
100
AcDbEntity
  8
0
  6
Continuous
100
AcDbLine
 10
0.2725283727730944
 20
-0.07380821356101
 30
0.0
 11
0.2703973727730944
 21
-0.06962621356101
 31
0.0
  0
LINE
  5
38A
330
1D
100
AcDbEntity
  8
0
  6
Continuous
100
AcDbLine
 10
0.2732623727730945
 20
-0.07844321356101
 30
0.0
 11
0.2725283727730944
 21
-0.07380821356101
 31
0.0
  0
LINE
  5
38B
330
1D
100
AcDbEntity
  8
0
  6
Continuous
100
AcDbLine
 10
0.2582623727730944
 20
-0.18344321356101
 30
0.0
 11
0.2628973727730944
 21
-0.1827092135610099
 31
0.0
  0
LINE
  5
38C
330
1D
100
AcDbEntity
  8
0
  6
Continuous
100
AcDbLine
 10
0.2628973727730944
 20
-0.1827092135610099
 30
0.0
 11
0.2670793727730945
 21
-0.1805782135610099
 31
0.0
  0
LINE
  5
38D
330
1D
100
AcDbEntity
  8
0
  6
Continuous
100
AcDbLine
 10
0.2670793727730945
 20
-0.1805782135610099
 30
0.0
 11
0.2703973727730944
 21
-0.17726021356101
 31
0.0
  0
LINE
  5
38E
330
1D
100
AcDbEntity
  8
0
  6
Continuous
100
AcDbLine
 10
0.2703973727730944
 20
-0.17726021356101
 30
0.0
 11
0.2725283727730944
 21
-0.1730782135610099
 31
0.0
  0
LINE
  5
38F
330
1D
100
AcDbEntity
  8
0
  6
Continuous
100
AcDbLine
 10
0.2725283727730944
 20
-0.1730782135610099
 30
0.0
 11
0.2732623727730945
 21
-0.1684432135610099
 31
0.0
  0
LINE
  5
390
330
1D
100
AcDbEntity
  8
0
  6
Continuous
100
AcDbLine
 10
0.2132623727730944
 20
-0.06344321356101
 30
0.0
 11
0.1682623727730945
 21
-0.06344321356101
 31
0.0
  0
LINE
  5
391
330
1D
100
AcDbEntity
  8
0
  6
Continuous
100
AcDbLine
 10
0.1532623727730944
 20
-0.12344321356101
 30
0.0
 11
0.1532623727730944
 21
-0.1684432135610099
 31
0.0
  0
LINE
  5
392
330
1D
100
AcDbEntity
  8
0
  6
Continuous
100
AcDbLine
 10
0.2132623727730944
 20
-0.18344321356101
 30
0.0
 11
0.2582623727730944
 21
-0.18344321356101
 31
0.0
  0
LINE
  5
393
330
1D
100
AcDbEntity
  8
0
  6
Continuous
100
AcDbLine
 10
0.2732623727730945
 20
-0.1684432135610099
 30
0.0
 11
0.2732623727730945
 21
-0.12344321356101
 31
0.0
  0
LINE
  5
394
330
1D
100
AcDbEntity
  8
0
  6
Continuous
100
AcDbLine
 10
0.2582623727730944
 20
-0.06344321356101
 30
0.0
 11
0.2132623727730944
 21
-0.06344321356101
 31
0.0
  0
LINE
  5
395
330
1D
100
AcDbEntity
  8
0
  6
Continuous
100
AcDbLine
 10
0.2209293727730945
 20
-0.08985321356101
 30
0.0
 11
0.2132623727730944
 21
-0.08898921356101
 31
0.0
  0
LINE
  5
396
330
1D
100
AcDbEntity
  8
0
  6
Continuous
100
AcDbLine
 10
0.2282113727730945
 20
-0.09240121356101
 30
0.0
 11
0.2209293727730945
 21
-0.08985321356101
 31
0.0
  0
LINE
  5
397
330
1D
100
AcDbEntity
  8
0
  6
Continuous
100
AcDbLine
 10
0.2347433727730944
 20
-0.09650621356101
 30
0.0
 11
0.2282113727730945
 21
-0.09240121356101
 31
0.0
  0
LINE
  5
398
330
1D
100
AcDbEntity
  8
0
  6
Continuous
100
AcDbLine
 10
0.2401993727730944
 20
-0.10196221356101
 30
0.0
 11
0.2347433727730944
 21
-0.09650621356101
 31
0.0
  0
LINE
  5
399
330
1D
100
AcDbEntity
  8
0
  6
Continuous
100
AcDbLine
 10
0.2443043727730945
 20
-0.1084942135610099
 30
0.0
 11
0.2401993727730944
 21
-0.10196221356101
 31
0.0
  0
LINE
  5
39A
330
1D
100
AcDbEntity
  8
0
  6
Continuous
100
AcDbLine
 10
0.2468523727730945
 20
-0.1157762135610099
 30
0.0
 11
0.2443043727730945
 21
-0.1084942135610099
 31
0.0
  0
LINE
  5
39B
330
1D
100
AcDbEntity
  8
0
  6
Continuous
100
AcDbLine
 10
0.2477163727730944
 20
-0.12344321356101
 30
0.0
 11
0.2468523727730945
 21
-0.1157762135610099
 31
0.0
  0
LINE
  5
39C
330
1D
100
AcDbEntity
  8
0
  6
Continuous
100
AcDbLine
 10
0.2468523727730945
 20
-0.13111021356101
 30
0.0
 11
0.2477163727730944
 21
-0.12344321356101
 31
0.0
  0
LINE
  5
39D
330
1D
100
AcDbEntity
  8
0
  6
Continuous
100
AcDbLine
 10
0.2443043727730945
 20
-0.1383922135610099
 30
0.0
 11
0.2468523727730945
 21
-0.13111021356101
 31
0.0
  0
LINE
  5
39E
330
1D
100
AcDbEntity
  8
0
  6
Continuous
100
AcDbLine
 10
0.2401993727730944
 20
-0.1449242135610099
 30
0.0
 11
0.2443043727730945
 21
-0.1383922135610099
 31
0.0
  0
LINE
  5
39F
330
1D
100
AcDbEntity
  8
0
  6
Continuous
100
AcDbLine
 10
0.2347433727730944
 20
-0.1503802135610099
 30
0.0
 11
0.2401993727730944
 21
-0.1449242135610099
 31
0.0
  0
LINE
  5
3A0
330
1D
100
AcDbEntity
  8
0
  6
Continuous
100
AcDbLine
 10
0.2282113727730945
 20
-0.15448521356101
 30
0.0
 11
0.2347433727730944
 21
-0.1503802135610099
 31
0.0
  0
LINE
  5
3A1
330
1D
100
AcDbEntity
  8
0
  6
Continuous
100
AcDbLine
 10
0.2209293727730945
 20
-0.15703321356101
 30
0.0
 11
0.2282113727730945
 21
-0.15448521356101
 31
0.0
  0
LINE
  5
3A2
330
1D
100
AcDbEntity
  8
0
  6
Continuous
100
AcDbLine
 10
0.2132623727730944
 20
-0.1578972135610099
 30
0.0
 11
0.2209293727730945
 21
-0.15703321356101
 31
0.0
  0
LINE
  5
3A3
330
1D
100
AcDbEntity
  8
0
  6
Continuous
100
AcDbLine
 10
0.2055953727730944
 20
-0.15703321356101
 30
0.0
 11
0.2132623727730944
 21
-0.1578972135610099
 31
0.0
  0
LINE
  5
3A4
330
1D
100
AcDbEntity
  8
0
  6
Continuous
100
AcDbLine
 10
0.1983133727730945
 20
-0.15448521356101
 30
0.0
 11
0.2055953727730944
 21
-0.15703321356101
 31
0.0
  0
LINE
  5
3A5
330
1D
100
AcDbEntity
  8
0
  6
Continuous
100
AcDbLine
 10
0.1917813727730945
 20
-0.1503802135610099
 30
0.0
 11
0.1983133727730945
 21
-0.15448521356101
 31
0.0
  0
LINE
  5
3A6
330
1D
100
AcDbEntity
  8
0
  6
Continuous
100
AcDbLine
 10
0.1863253727730945
 20
-0.1449242135610099
 30
0.0
 11
0.1917813727730945
 21
-0.1503802135610099
 31
0.0
  0
LINE
  5
3A7
330
1D
100
AcDbEntity
  8
0
  6
Continuous
100
AcDbLine
 10
0.1822203727730944
 20
-0.1383922135610099
 30
0.0
 11
0.1863253727730945
 21
-0.1449242135610099
 31
0.0
  0
LINE
  5
3A8
330
1D
100
AcDbEntity
  8
0
  6
Continuous
100
AcDbLine
 10
0.1796723727730944
 20
-0.13111021356101
 30
0.0
 11
0.1822203727730944
 21
-0.1383922135610099
 31
0.0
  0
LINE
  5
3A9
330
1D
100
AcDbEntity
  8
0
  6
Continuous
100
AcDbLine
 10
0.1788083727730945
 20
-0.12344321356101
 30
0.0
 11
0.1796723727730944
 21
-0.13111021356101
 31
0.0
  0
LINE
  5
3AA
330
1D
100
AcDbEntity
  8
0
  6
Continuous
100
AcDbLine
 10
0.1796723727730944
 20
-0.1157762135610099
 30
0.0
 11
0.1788083727730945
 21
-0.12344321356101
 31
0.0
  0
LINE
  5
3AB
330
1D
100
AcDbEntity
  8
0
  6
Continuous
100
AcDbLine
 10
0.1822203727730944
 20
-0.1084942135610099
 30
0.0
 11
0.1796723727730944
 21
-0.1157762135610099
 31
0.0
  0
LINE
  5
3AC
330
1D
100
AcDbEntity
  8
0
  6
Continuous
100
AcDbLine
 10
0.1863253727730945
 20
-0.10196221356101
 30
0.0
 11
0.1822203727730944
 21
-0.1084942135610099
 31
0.0
  0
LINE
  5
3AD
330
1D
100
AcDbEntity
  8
0
  6
Continuous
100
AcDbLine
 10
0.1917813727730945
 20
-0.09650621356101
 30
0.0
 11
0.1863253727730945
 21
-0.10196221356101
 31
0.0
  0
LINE
  5
3AE
330
1D
100
AcDbEntity
  8
0
  6
Continuous
100
AcDbLine
 10
0.1983133727730945
 20
-0.09240121356101
 30
0.0
 11
0.1917813727730945
 21
-0.09650621356101
 31
0.0
  0
LINE
  5
3AF
330
1D
100
AcDbEntity
  8
0
  6
Continuous
100
AcDbLine
 10
0.2055953727730944
 20
-0.08985321356101
 30
0.0
 11
0.1983133727730945
 21
-0.09240121356101
 31
0.0
  0
LINE
  5
3B0
330
1D
100
AcDbEntity
  8
0
  6
Continuous
100
AcDbLine
 10
0.2132623727730944
 20
-0.08898921356101
 30
0.0
 11
0.2055953727730944
 21
-0.08985321356101
 31
0.0
  0
LINE
  5
3B1
330
1D
100
AcDbEntity
  8
0
  6
Continuous
100
AcDbLine
 10
0.2053283727730944
 20
-0.08868321356101
 30
0.0
 11
0.2132623727730944
 21
-0.08778921356101
 31
0.0
  0
LINE
  5
3B2
330
1D
100
AcDbEntity
  8
0
  6
Continuous
100
AcDbLine
 10
0.1869703727730945
 20
-0.12793821356101
 30
0.0
 11
0.1870243727730945
 21
-0.12793821356101
 31
0.0
  0
LINE
  5
3B3
330
1D
100
AcDbEntity
  8
0
  6
Continuous
100
AcDbLine
 10
0.1870243727730945
 20
-0.1189342135610099
 30
0.0
 11
0.1869703727730945
 21
-0.1189342135610099
 31
0.0
  0
LINE
  5
3B4
330
1D
100
AcDbEntity
  8
0
  6
Continuous
100
AcDbLine
 10
0.1865203727730945
 20
-0.1234362135610099
 30
0.0
 11
0.1865203727730945
 21
-0.12448421356101
 31
0.0
  0
LINE
  5
3B5
330
1D
100
AcDbEntity
  8
0
  6
Continuous
100
AcDbLine
 10
0.1865203727730945
 20
-0.12448421356101
 30
0.0
 11
0.1865203727730945
 21
-0.1254602135610099
 31
0.0
  0
LINE
  5
3B6
330
1D
100
AcDbEntity
  8
0
  6
Continuous
100
AcDbLine
 10
0.1865203727730945
 20
-0.1254602135610099
 30
0.0
 11
0.1865203727730945
 21
-0.1262992135610099
 31
0.0
  0
LINE
  5
3B7
330
1D
100
AcDbEntity
  8
0
  6
Continuous
100
AcDbLine
 10
0.1865203727730945
 20
-0.1262992135610099
 30
0.0
 11
0.1865203727730945
 21
-0.12694221356101
 31
0.0
  0
LINE
  5
3B8
330
1D
100
AcDbEntity
  8
0
  6
Continuous
100
AcDbLine
 10
0.1867453727730944
 20
-0.1278782135610099
 30
0.0
 11
0.1869703727730945
 21
-0.12793821356101
 31
0.0
  0
LINE
  5
3B9
330
1D
100
AcDbEntity
  8
0
  6
Continuous
100
AcDbLine
 10
0.1865803727730945
 20
-0.1277112135610099
 30
0.0
 11
0.1867453727730944
 21
-0.1278782135610099
 31
0.0
  0
LINE
  5
3BA
330
1D
100
AcDbEntity
  8
0
  6
Continuous
100
AcDbLine
 10
0.1865203727730945
 20
-0.12748421356101
 30
0.0
 11
0.1865803727730945
 21
-0.1277112135610099
 31
0.0
  0
LINE
  5
3BB
330
1D
100
AcDbEntity
  8
0
  6
Continuous
100
AcDbLine
 10
0.1865203727730945
 20
-0.1273462135610099
 30
0.0
 11
0.1865203727730945
 21
-0.12748421356101
 31
0.0
  0
LINE
  5
3BC
330
1D
100
AcDbEntity
  8
0
  6
Continuous
100
AcDbLine
 10
0.1869703727730945
 20
-0.1189342135610099
 30
0.0
 11
0.1867453727730944
 21
-0.11899521356101
 31
0.0
  0
LINE
  5
3BD
330
1D
100
AcDbEntity
  8
0
  6
Continuous
100
AcDbLine
 10
0.1867453727730944
 20
-0.11899521356101
 30
0.0
 11
0.1865803727730945
 21
-0.11916121356101
 31
0.0
  0
LINE
  5
3BE
330
1D
100
AcDbEntity
  8
0
  6
Continuous
100
AcDbLine
 10
0.1865203727730945
 20
-0.1193882135610099
 30
0.0
 11
0.1865203727730945
 21
-0.11952621356101
 31
0.0
  0
LINE
  5
3BF
330
1D
100
AcDbEntity
  8
0
  6
Continuous
100
AcDbLine
 10
0.1865803727730945
 20
-0.11916121356101
 30
0.0
 11
0.1865203727730945
 21
-0.1193882135610099
 31
0.0
  0
LINE
  5
3C0
330
1D
100
AcDbEntity
  8
0
  6
Continuous
100
AcDbLine
 10
0.1865203727730945
 20
-0.11952621356101
 30
0.0
 11
0.1865203727730945
 21
-0.1199312135610099
 31
0.0
  0
LINE
  5
3C1
330
1D
100
AcDbEntity
  8
0
  6
Continuous
100
AcDbLine
 10
0.1865203727730945
 20
-0.1199312135610099
 30
0.0
 11
0.1865203727730945
 21
-0.12057421356101
 31
0.0
  0
LINE
  5
3C2
330
1D
100
AcDbEntity
  8
0
  6
Continuous
100
AcDbLine
 10
0.1865203727730945
 20
-0.12057421356101
 30
0.0
 11
0.1865203727730945
 21
-0.1214122135610099
 31
0.0
  0
LINE
  5
3C3
330
1D
100
AcDbEntity
  8
0
  6
Continuous
100
AcDbLine
 10
0.1865203727730945
 20
-0.1214122135610099
 30
0.0
 11
0.1865203727730945
 21
-0.12238921356101
 31
0.0
  0
LINE
  5
3C4
330
1D
100
AcDbEntity
  8
0
  6
Continuous
100
AcDbLine
 10
0.1865203727730945
 20
-0.12238921356101
 30
0.0
 11
0.1865203727730945
 21
-0.1234362135610099
 31
0.0
  0
LINE
  5
3C5
330
1D
100
AcDbEntity
  8
0
  6
Continuous
100
AcDbLine
 10
0.1870243727730945
 20
-0.12793821356101
 30
0.0
 11
0.1896003727730944
 21
-0.12793821356101
 31
0.0
  0
LINE
  5
3C6
330
1D
100
AcDbEntity
  8
0
  6
Continuous
100
AcDbLine
 10
0.1896033727730945
 20
-0.1189342135610099
 30
0.0
 11
0.1870243727730945
 21
-0.1189342135610099
 31
0.0
  0
LINE
  5
3C7
330
1D
100
AcDbEntity
  8
0
  6
Continuous
100
AcDbLine
 10
0.2374303727730944
 20
-0.12345121356101
 30
0.0
 11
0.2368243727730944
 21
-0.1180732135610099
 31
0.0
  0
LINE
  5
3C8
330
1D
100
AcDbEntity
  8
0
  6
Continuous
100
AcDbLine
 10
0.2368243727730944
 20
-0.1180732135610099
 30
0.0
 11
0.2350363727730945
 21
-0.1129652135610099
 31
0.0
  0
LINE
  5
3C9
330
1D
100
AcDbEntity
  8
0
  6
Continuous
100
AcDbLine
 10
0.2350363727730945
 20
-0.1129652135610099
 30
0.0
 11
0.2321573727730945
 21
-0.1083822135610099
 31
0.0
  0
LINE
  5
3CA
330
1D
100
AcDbEntity
  8
0
  6
Continuous
100
AcDbLine
 10
0.2321573727730945
 20
-0.1083822135610099
 30
0.0
 11
0.2283303727730944
 21
-0.10455521356101
 31
0.0
  0
LINE
  5
3CB
330
1D
100
AcDbEntity
  8
0
  6
Continuous
100
AcDbLine
 10
0.2283303727730944
 20
-0.10455521356101
 30
0.0
 11
0.2237483727730944
 21
-0.1016762135610099
 31
0.0
  0
LINE
  5
3CC
330
1D
100
AcDbEntity
  8
0
  6
Continuous
100
AcDbLine
 10
0.2237483727730944
 20
-0.1016762135610099
 30
0.0
 11
0.2186403727730944
 21
-0.09988921356101
 31
0.0
  0
LINE
  5
3CD
330
1D
100
AcDbEntity
  8
0
  6
Continuous
100
AcDbLine
 10
0.2186403727730944
 20
-0.09988921356101
 30
0.0
 11
0.2132623727730944
 21
-0.09928321356101
 31
0.0
  0
LINE
  5
3CE
330
1D
100
AcDbEntity
  8
0
  6
Continuous
100
AcDbLine
 10
0.2132623727730944
 20
-0.09928321356101
 30
0.0
 11
0.2078843727730945
 21
-0.09988921356101
 31
0.0
  0
LINE
  5
3CF
330
1D
100
AcDbEntity
  8
0
  6
Continuous
100
AcDbLine
 10
0.2078843727730945
 20
-0.09988921356101
 30
0.0
 11
0.2027763727730945
 21
-0.1016762135610099
 31
0.0
  0
LINE
  5
3D0
330
1D
100
AcDbEntity
  8
0
  6
Continuous
100
AcDbLine
 10
0.2027763727730945
 20
-0.1016762135610099
 30
0.0
 11
0.1981943727730945
 21
-0.10455521356101
 31
0.0
  0
LINE
  5
3D1
330
1D
100
AcDbEntity
  8
0
  6
Continuous
100
AcDbLine
 10
0.1981943727730945
 20
-0.10455521356101
 30
0.0
 11
0.1943673727730945
 21
-0.1083822135610099
 31
0.0
  0
LINE
  5
3D2
330
1D
100
AcDbEntity
  8
0
  6
Continuous
100
AcDbLine
 10
0.1943673727730945
 20
-0.1083822135610099
 30
0.0
 11
0.1914883727730945
 21
-0.1129652135610099
 31
0.0
  0
LINE
  5
3D3
330
1D
100
AcDbEntity
  8
0
  6
Continuous
100
AcDbLine
 10
0.1914883727730945
 20
-0.1129652135610099
 30
0.0
 11
0.1897003727730945
 21
-0.1180732135610099
 31
0.0
  0
LINE
  5
3D4
330
1D
100
AcDbEntity
  8
0
  6
Continuous
100
AcDbLine
 10
0.1897003727730945
 20
-0.1180732135610099
 30
0.0
 11
0.1890943727730945
 21
-0.12345121356101
 31
0.0
  0
LINE
  5
3D5
330
1D
100
AcDbEntity
  8
0
  6
Continuous
100
AcDbLine
 10
0.1890943727730945
 20
-0.12345121356101
 30
0.0
 11
0.1897003727730945
 21
-0.1288282135610099
 31
0.0
  0
LINE
  5
3D6
330
1D
100
AcDbEntity
  8
0
  6
Continuous
100
AcDbLine
 10
0.1897003727730945
 20
-0.1288282135610099
 30
0.0
 11
0.1914883727730945
 21
-0.13393721356101
 31
0.0
  0
LINE
  5
3D7
330
1D
100
AcDbEntity
  8
0
  6
Continuous
100
AcDbLine
 10
0.1914883727730945
 20
-0.13393721356101
 30
0.0
 11
0.1943673727730945
 21
-0.13851921356101
 31
0.0
  0
LINE
  5
3D8
330
1D
100
AcDbEntity
  8
0
  6
Continuous
100
AcDbLine
 10
0.1943673727730945
 20
-0.13851921356101
 30
0.0
 11
0.1981943727730945
 21
-0.1423462135610099
 31
0.0
  0
LINE
  5
3D9
330
1D
100
AcDbEntity
  8
0
  6
Continuous
100
AcDbLine
 10
0.1981943727730945
 20
-0.1423462135610099
 30
0.0
 11
0.2027763727730945
 21
-0.1452252135610099
 31
0.0
  0
LINE
  5
3DA
330
1D
100
AcDbEntity
  8
0
  6
Continuous
100
AcDbLine
 10
0.2027763727730945
 20
-0.1452252135610099
 30
0.0
 11
0.2078843727730945
 21
-0.1470122135610099
 31
0.0
  0
LINE
  5
3DB
330
1D
100
AcDbEntity
  8
0
  6
Continuous
100
AcDbLine
 10
0.2078843727730945
 20
-0.1470122135610099
 30
0.0
 11
0.2132623727730944
 21
-0.14761821356101
 31
0.0
  0
LINE
  5
3DC
330
1D
100
AcDbEntity
  8
0
  6
Continuous
100
AcDbLine
 10
0.2132623727730944
 20
-0.14761821356101
 30
0.0
 11
0.2186403727730944
 21
-0.1470122135610099
 31
0.0
  0
LINE
  5
3DD
330
1D
100
AcDbEntity
  8
0
  6
Continuous
100
AcDbLine
 10
0.2186403727730944
 20
-0.1470122135610099
 30
0.0
 11
0.2237483727730944
 21
-0.1452252135610099
 31
0.0
  0
LINE
  5
3DE
330
1D
100
AcDbEntity
  8
0
  6
Continuous
100
AcDbLine
 10
0.2237483727730944
 20
-0.1452252135610099
 30
0.0
 11
0.2283303727730944
 21
-0.1423462135610099
 31
0.0
  0
LINE
  5
3DF
330
1D
100
AcDbEntity
  8
0
  6
Continuous
100
AcDbLine
 10
0.2283303727730944
 20
-0.1423462135610099
 30
0.0
 11
0.2321573727730945
 21
-0.13851921356101
 31
0.0
  0
LINE
  5
3E0
330
1D
100
AcDbEntity
  8
0
  6
Continuous
100
AcDbLine
 10
0.2321573727730945
 20
-0.13851921356101
 30
0.0
 11
0.2350363727730945
 21
-0.13393721356101
 31
0.0
  0
LINE
  5
3E1
330
1D
100
AcDbEntity
  8
0
  6
Continuous
100
AcDbLine
 10
0.2350363727730945
 20
-0.13393721356101
 30
0.0
 11
0.2368243727730944
 21
-0.1288282135610099
 31
0.0
  0
LINE
  5
3E2
330
1D
100
AcDbEntity
  8
0
  6
Continuous
100
AcDbLine
 10
0.2368243727730944
 20
-0.1288282135610099
 30
0.0
 11
0.2374303727730944
 21
-0.12345121356101
 31
0.0
  0
LINE
  5
3E3
330
1D
100
AcDbEntity
  8
0
  6
Continuous
100
AcDbLine
 10
0.1913593727730944
 20
-0.13399921356101
 30
0.0
 11
0.1942553727730945
 21
-0.1386082135610099
 31
0.0
  0
LINE
  5
3E4
330
1D
100
AcDbEntity
  8
0
  6
Continuous
100
AcDbLine
 10
0.1942553727730945
 20
-0.10829321356101
 30
0.0
 11
0.1913593727730944
 21
-0.11290221356101
 31
0.0
  0
LINE
  5
3E5
330
1D
100
AcDbEntity
  8
0
  6
Continuous
100
AcDbLine
 10
0.2369633727730944
 20
-0.12886021356101
 30
0.0
 11
0.2375733727730944
 21
-0.12345121356101
 31
0.0
  0
LINE
  5
3E6
330
1D
100
AcDbEntity
  8
0
  6
Continuous
100
AcDbLine
 10
0.2351653727730945
 20
-0.13399921356101
 30
0.0
 11
0.2369633727730944
 21
-0.12886021356101
 31
0.0
  0
LINE
  5
3E7
330
1D
100
AcDbEntity
  8
0
  6
Continuous
100
AcDbLine
 10
0.2322693727730944
 20
-0.1386082135610099
 30
0.0
 11
0.2351653727730945
 21
-0.13399921356101
 31
0.0
  0
LINE
  5
3E8
330
1D
100
AcDbEntity
  8
0
  6
Continuous
100
AcDbLine
 10
0.2284203727730945
 20
-0.14245821356101
 30
0.0
 11
0.2322693727730944
 21
-0.1386082135610099
 31
0.0
  0
LINE
  5
3E9
330
1D
100
AcDbEntity
  8
0
  6
Continuous
100
AcDbLine
 10
0.2238103727730945
 20
-0.14535421356101
 30
0.0
 11
0.2284203727730945
 21
-0.14245821356101
 31
0.0
  0
LINE
  5
3EA
330
1D
100
AcDbEntity
  8
0
  6
Continuous
100
AcDbLine
 10
0.2186723727730945
 20
-0.14715221356101
 30
0.0
 11
0.2238103727730945
 21
-0.14535421356101
 31
0.0
  0
LINE
  5
3EB
330
1D
100
AcDbEntity
  8
0
  6
Continuous
100
AcDbLine
 10
0.2132623727730944
 20
-0.14776121356101
 30
0.0
 11
0.2186723727730945
 21
-0.14715221356101
 31
0.0
  0
LINE
  5
3EC
330
1D
100
AcDbEntity
  8
0
  6
Continuous
100
AcDbLine
 10
0.2078523727730944
 20
-0.14715221356101
 30
0.0
 11
0.2132623727730944
 21
-0.14776121356101
 31
0.0
  0
LINE
  5
3ED
330
1D
100
AcDbEntity
  8
0
  6
Continuous
100
AcDbLine
 10
0.2027143727730944
 20
-0.14535421356101
 30
0.0
 11
0.2078523727730944
 21
-0.14715221356101
 31
0.0
  0
LINE
  5
3EE
330
1D
100
AcDbEntity
  8
0
  6
Continuous
100
AcDbLine
 10
0.1981043727730945
 20
-0.14245821356101
 30
0.0
 11
0.2027143727730944
 21
-0.14535421356101
 31
0.0
  0
LINE
  5
3EF
330
1D
100
AcDbEntity
  8
0
  6
Continuous
100
AcDbLine
 10
0.1942553727730945
 20
-0.1386082135610099
 30
0.0
 11
0.1981043727730945
 21
-0.14245821356101
 31
0.0
  0
LINE
  5
3F0
330
1D
100
AcDbEntity
  8
0
  6
Continuous
100
AcDbLine
 10
0.1895613727730945
 20
-0.12886021356101
 30
0.0
 11
0.1913593727730944
 21
-0.13399921356101
 31
0.0
  0
LINE
  5
3F1
330
1D
100
AcDbEntity
  8
0
  6
Continuous
100
AcDbLine
 10
0.1894573727730944
 20
-0.12793821356101
 30
0.0
 11
0.1895613727730945
 21
-0.12886021356101
 31
0.0
  0
LINE
  5
3F2
330
1D
100
AcDbEntity
  8
0
  6
Continuous
100
AcDbLine
 10
0.1895613727730945
 20
-0.11804121356101
 30
0.0
 11
0.1894603727730945
 21
-0.1189342135610099
 31
0.0
  0
LINE
  5
3F3
330
1D
100
AcDbEntity
  8
0
  6
Continuous
100
AcDbLine
 10
0.1913593727730944
 20
-0.11290221356101
 30
0.0
 11
0.1895613727730945
 21
-0.11804121356101
 31
0.0
  0
LINE
  5
3F4
330
1D
100
AcDbEntity
  8
0
  6
Continuous
100
AcDbLine
 10
0.1981043727730945
 20
-0.1044442135610099
 30
0.0
 11
0.1942553727730945
 21
-0.10829321356101
 31
0.0
  0
LINE
  5
3F5
330
1D
100
AcDbEntity
  8
0
  6
Continuous
100
AcDbLine
 10
0.2027143727730944
 20
-0.1015472135610099
 30
0.0
 11
0.1981043727730945
 21
-0.1044442135610099
 31
0.0
  0
LINE
  5
3F6
330
1D
100
AcDbEntity
  8
0
  6
Continuous
100
AcDbLine
 10
0.2078523727730944
 20
-0.09974921356101
 30
0.0
 11
0.2027143727730944
 21
-0.1015472135610099
 31
0.0
  0
LINE
  5
3F7
330
1D
100
AcDbEntity
  8
0
  6
Continuous
100
AcDbLine
 10
0.2132623727730944
 20
-0.09914021356101
 30
0.0
 11
0.2078523727730944
 21
-0.09974921356101
 31
0.0
  0
LINE
  5
3F8
330
1D
100
AcDbEntity
  8
0
  6
Continuous
100
AcDbLine
 10
0.2186723727730945
 20
-0.09974921356101
 30
0.0
 11
0.2132623727730944
 21
-0.09914021356101
 31
0.0
  0
LINE
  5
3F9
330
1D
100
AcDbEntity
  8
0
  6
Continuous
100
AcDbLine
 10
0.2238103727730945
 20
-0.1015472135610099
 30
0.0
 11
0.2186723727730945
 21
-0.09974921356101
 31
0.0
  0
LINE
  5
3FA
330
1D
100
AcDbEntity
  8
0
  6
Continuous
100
AcDbLine
 10
0.2284203727730945
 20
-0.1044442135610099
 30
0.0
 11
0.2238103727730945
 21
-0.1015472135610099
 31
0.0
  0
LINE
  5
3FB
330
1D
100
AcDbEntity
  8
0
  6
Continuous
100
AcDbLine
 10
0.2322693727730944
 20
-0.10829321356101
 30
0.0
 11
0.2284203727730945
 21
-0.1044442135610099
 31
0.0
  0
LINE
  5
3FC
330
1D
100
AcDbEntity
  8
0
  6
Continuous
100
AcDbLine
 10
0.2351653727730945
 20
-0.11290221356101
 30
0.0
 11
0.2322693727730944
 21
-0.10829321356101
 31
0.0
  0
LINE
  5
3FD
330
1D
100
AcDbEntity
  8
0
  6
Continuous
100
AcDbLine
 10
0.2369633727730944
 20
-0.11804121356101
 30
0.0
 11
0.2351653727730945
 21
-0.11290221356101
 31
0.0
  0
LINE
  5
3FE
330
1D
100
AcDbEntity
  8
0
  6
Continuous
100
AcDbLine
 10
0.2375733727730944
 20
-0.12345121356101
 30
0.0
 11
0.2369633727730944
 21
-0.11804121356101
 31
0.0
  0
ENDSEC
  0
SECTION
  2
OBJECTS
  0
DICTIONARY
  5
C
330
0
100
AcDbDictionary
281
     1
  3
ACAD_2007HEADERVARS_RT
350
419
  3
ACAD_CIP_PREVIOUS_PRODUCT_INFO
350
F7
  3
ACAD_COLOR
350
D8
  3
ACAD_DETAILVIEWSTYLE
350
F2
  3
ACAD_GROUP
350
D
  3
ACAD_LAYOUT
350
1A
  3
ACAD_MATERIAL
350
A6
  3
ACAD_MLEADERSTYLE
350
ED
  3
ACAD_MLINESTYLE
350
17
  3
ACAD_PLOTSETTINGS
350
19
  3
ACAD_PLOTSTYLENAME
350
E
  3
ACAD_SCALELIST
350
DB
  3
ACAD_SECTIONVIEWSTYLE
350
EF
  3
ACAD_TABLESTYLE
350
D9
  3
ACAD_VISUALSTYLE
350
BF
  3
ACDB_RECOMPOSE_DATA
350
417
  3
AcDbVariableDictionary
350
29A
  3
AcDsDecomposeData
350
420
  3
AcmDictionary
350
124
  3
AMG
350
F9
  3
AMGSNAPSETTINGS
350
159
  3
DWGPROPS
350
418
  0
DICTIONARY
  5
294
330
2
100
AcDbDictionary
280
     1
281
     1
  3
ACAD_LAYERSTATES
360
295
  0
DICTIONARY
  5
28F
330
10
100
AcDbDictionary
280
     1
281
     1
  3
ADSK_XREC_LAYER_RECONCILED
360
290
  0
DICTIONARY
  5
402
330
1D
100
AcDbDictionary
280
     1
281
     1
  3
ACAD_SORTENTS
360
403
  0
DICTIONARY
  5
419
102
{ACAD_REACTORS
330
C
102
}
330
C
100
AcDbDictionary
281
     1
  3
INTERFERECOLOR
350
41A
  0
XRECORD
  5
F7
102
{ACAD_REACTORS
330
C
102
}
330
C
100
AcDbXrecord
280
     1
300
AMECH_PP
300
2013
300
PDSS_F_S
  0
DICTIONARY
  5
D8
102
{ACAD_REACTORS
330
C
102
}
330
C
100
AcDbDictionary
281
     1
  0
DICTIONARY
  5
F2
102
{ACAD_REACTORS
330
C
102
}
330
C
100
AcDbDictionary
281
     1
  3
Imperial24
350
F3
  0
DICTIONARY
  5
D
102
{ACAD_REACTORS
330
C
102
}
330
C
100
AcDbDictionary
281
     1
  0
DICTIONARY
  5
1A
102
{ACAD_REACTORS
330
C
102
}
330
C
100
AcDbDictionary
281
     1
  3
Layout1
350
1C
  3
Model
350
1E
  0
DICTIONARY
  5
A6
102
{ACAD_REACTORS
330
C
102
}
330
C
100
AcDbDictionary
281
     1
  3
ByBlock
350
AF
  3
ByLayer
350
A7
  3
Global
350
B7
  0
DICTIONARY
  5
ED
102
{ACAD_REACTORS
330
C
102
}
330
C
100
AcDbDictionary
281
     1
  3
Standard
350
EE
  0
DICTIONARY
  5
17
102
{ACAD_REACTORS
330
C
102
}
330
C
100
AcDbDictionary
281
     1
  3
Standard
350
18
  0
DICTIONARY
  5
19
102
{ACAD_REACTORS
330
C
102
}
330
C
100
AcDbDictionary
281
     1
  0
ACDBDICTIONARYWDFLT
  5
E
102
{ACAD_REACTORS
330
C
102
}
330
C
100
AcDbDictionary
281
     1
  3
Normal
350
F
100
AcDbDictionaryWithDefault
340
F
  0
DICTIONARY
  5
DB
102
{ACAD_REACTORS
330
C
102
}
330
C
100
AcDbDictionary
281
     1
  3
A0
350
DC
  3
A1
350
DD
  3
A2
350
DE
  3
A3
350
DF
  3
A4
350
E0
  3
A5
350
E1
  3
A6
350
E2
  3
A7
350
E3
  3
A8
350
E4
  3
A9
350
E5
  3
B0
350
E6
  3
B1
350
E7
  3
B2
350
E8
  3
B3
350
E9
  3
B4
350
EA
  3
B5
350
EB
  3
B6
350
EC
  0
DICTIONARY
  5
EF
102
{ACAD_REACTORS
330
C
102
}
330
C
100
AcDbDictionary
281
     1
  3
Imperial24
350
F1
  0
DICTIONARY
  5
D9
102
{ACAD_REACTORS
330
C
102
}
330
C
100
AcDbDictionary
281
     1
  3
Standard
350
DA
  0
DICTIONARY
  5
BF
102
{ACAD_REACTORS
330
C
102
}
330
C
100
AcDbDictionary
281
     1
  3
2dWireframe
350
C5
  3
Basic
350
C4
  3
Brighten
350
CB
  3
ColorChange
350
CF
  3
Conceptual
350
C8
  3
Dim
350
CA
  3
EdgeColorOff
350
D7
  3
Facepattern
350
CE
  3
Flat
350
C0
  3
FlatWithEdges
350
C1
  3
Gouraud
350
C2
  3
GouraudWithEdges
350
C3
  3
Hidden
350
C7
  3
JitterOff
350
D5
  3
Linepattern
350
CD
  3
OverhangOff
350
D6
  3
Realistic
350
C9
  3
Shaded
350
D4
  3
Shaded with edges
350
D3
  3
Shades of Gray
350
D0
  3
Sketchy
350
D1
  3
Thicken
350
CC
  3
Wireframe
350
C6
  3
X-Ray
350
D2
  0
XRECORD
  5
417
102
{ACAD_REACTORS
330
C
102
}
330
C
100
AcDbXrecord
280
     1
 90
        1
330
DA
  0
DICTIONARY
  5
29A
102
{ACAD_REACTORS
330
C
102
}
330
C
100
AcDbDictionary
281
     1
  3
CANNOSCALE
350
2A0
  3
CMLEADERSTYLE
350
29C
  3
CTABLESTYLE
350
29B
  3
CVIEWDETAILSTYLE
350
29D
  3
CVIEWSECTIONSTYLE
350
29E
  3
DGNFRAME
350
414
  3
DIMASSOC
350
412
  3
HIDETEXT
350
410
  3
INDEXCTL
350
40F
  3
LAYEREVAL
350
2A2
  3
LAYERNOTIFY
350
2A3
  3
LIGHTINGUNITS
350
2A1
  3
MSLTSCALE
350
29F
  3
SOLIDHIST
350
413
  3
SORTENTS
350
40E
  3
XCLIPFRAME
350
411
  0
DICTIONARY
  5
420
102
{ACAD_REACTORS
330
C
102
}
330
C
100
AcDbDictionary
281
     1
  3
AcDsRecords
350
422
  3
AcDsSchemas
350
421
1001
ACAD
1070
     2
  0
DICTIONARY
  5
124
102
{ACAD_REACTORS
330
C
102
}
330
C
100
AcDbDictionary
281
     1
  3
AcmStdDictionary
350
12B
  0
DICTIONARY
  5
F9
102
{ACAD_REACTORS
330
C
102
}
330
C
100
AcDbDictionary
281
     1
  0
DICTIONARY
  5
159
102
{ACAD_REACTORS
330
C
102
}
330
C
100
AcDbDictionary
281
     1
  0
XRECORD
  5
418
102
{ACAD_REACTORS
330
C
102
}
330
C
100
AcDbXrecord
280
     1
  1
DWGPROPS COOKIE
  2

  3

  4

  6

  7

  8
tomitais
  9

300
=
301
=
302
=
303
=
304
=
305
=
306
=
307
=
308
=
309
=
 40
0.0011926388888889
 41
2456793.907723808
 42
2457020.640194421
  1

 90
        0
  0
DICTIONARY
  5
295
102
{ACAD_REACTORS
330
294
102
}
330
294
100
AcDbDictionary
281
     1
  0
XRECORD
  5
290
102
{ACAD_REACTORS
330
28F
102
}
330
28F
100
AcDbXrecord
280
     1
290
     1
  0
SORTENTSTABLE
  5
403
102
{ACAD_REACTORS
330
402
102
}
330
402
100
AcDbSortentsTable
330
1D
331
3E0
  5
3E4
331
398
  5
39C
331
98
  5
9C
331
3F1
  5
3F5
331
3A9
  5
3AD
331
3BA
  5
3BE
331
3CB
  5
3CF
331
202
  5
206
331
3DC
  5
3E0
331
224
  5
228
331
235
  5
239
331
24
  5
28
331
213
  5
217
331
246
  5
24A
331
257
  5
25B
331
46
  5
4A
331
268
  5
26C
331
57
  5
5B
331
35
  5
39
331
376
  5
37A
331
283
  5
287
331
387
  5
38B
331
87
  5
8B
331
68
  5
6C
331
388
  5
38C
331
88
  5
8C
331
3E1
  5
3E5
331
399
  5
39D
331
99
  5
9D
331
3F2
  5
3F6
331
3AA
  5
3AE
331
3BB
  5
3BF
331
3CC
  5
3D0
331
203
  5
207
331
3DD
  5
3E1
331
225
  5
229
331
236
  5
23A
331
25
  5
29
331
247
  5
24B
331
258
  5
25C
331
47
  5
4B
331
269
  5
26D
331
58
  5
5C
331
36
  5
3A
331
214
  5
218
331
377
  5
37B
331
284
  5
288
331
69
  5
6D
331
378
  5
37C
331
78
  5
7C
331
389
  5
38D
331
89
  5
8D
331
3E2
  5
3E6
331
39A
  5
39E
331
9A
  5
9E
331
3F3
  5
3F7
331
3AB
  5
3AF
331
3BC
  5
3C0
331
3CD
  5
3D1
331
3DE
  5
3E2
331
226
  5
22A
331
237
  5
23B
331
26
  5
2A
331
215
  5
219
331
248
  5
24C
331
259
  5
25D
331
48
  5
4C
331
26A
  5
26E
331
59
  5
5D
331
37
  5
3B
331
204
  5
208
331
285
  5
289
331
6A
  5
6E
331
368
  5
36C
331
379
  5
37D
331
79
  5
7D
331
38A
  5
38E
331
8A
  5
8E
331
3E3
  5
3E7
331
39B
  5
39F
331
9B
  5
9F
331
3F4
  5
3F8
331
3AC
  5
3B0
331
205
  5
209
331
3CE
  5
3D2
331
3DF
  5
3E3
331
216
  5
21A
331
227
  5
22B
331
238
  5
23C
331
27
  5
2B
331
249
  5
24D
331
25A
  5
25E
331
49
  5
4D
331
26B
  5
26F
331
5A
  5
5E
331
38
  5
3C
331
3BD
  5
3C1
331
35E
  5
362
331
286
  5
28A
331
6B
  5
6F
331
369
  5
36D
331
37A
  5
37E
331
7A
  5
7E
331
38B
  5
38F
331
8B
  5
8F
331
3E4
  5
3E8
331
39C
  5
3A0
331
9C
  5
1FB
331
3F5
  5
3F9
331
3AD
  5
3B1
331
206
  5
20A
331
3CF
  5
3D3
331
228
  5
22C
331
217
  5
21B
331
239
  5
23D
331
28
  5
2C
331
24A
  5
24E
331
39
  5
3D
331
25B
  5
25F
331
26C
  5
270
331
5B
  5
5F
331
4A
  5
4E
331
3BE
  5
3C2
331
35F
  5
363
331
287
  5
28B
331
6C
  5
70
331
360
  5
364
331
36A
  5
36E
331
288
  5
28C
331
37B
  5
37F
331
7B
  5
7F
331
38C
  5
390
331
8C
  5
90
331
3E5
  5
3E9
331
39D
  5
3A1
331
9D
  5
1FC
331
3F6
  5
3FA
331
3AE
  5
3B2
331
3D0
  5
3D4
331
207
  5
20B
331
229
  5
22D
331
23A
  5
23E
331
29
  5
2D
331
24B
  5
24F
331
3A
  5
3E
331
25C
  5
260
331
26D
  5
271
331
5C
  5
60
331
4B
  5
4F
331
218
  5
21C
331
3BF
  5
3C3
331
6D
  5
71
331
361
  5
365
331
278
  5
27C
331
36B
  5
36F
331
289
  5
28D
331
1FB
  5
1FF
331
37C
  5
380
331
7C
  5
80
331
38D
  5
391
331
8D
  5
91
331
3E6
  5
3EA
331
39E
  5
3A2
331
9E
  5
1FD
331
3F7
  5
3FB
331
3AF
  5
3B3
331
3D1
  5
3D5
331
208
  5
20C
331
22A
  5
22E
331
23B
  5
23F
331
2A
  5
2E
331
24C
  5
250
331
3B
  5
3F
331
25D
  5
261
331
26E
  5
272
331
5D
  5
61
331
4C
  5
50
331
219
  5
21D
331
3C0
  5
3C4
331
6E
  5
72
331
362
  5
366
331
279
  5
27D
331
36C
  5
370
331
28A
  5
35E
331
1FC
  5
200
331
37D
  5
381
331
7D
  5
81
331
38E
  5
392
331
8E
  5
92
331
3E7
  5
3EB
331
39F
  5
3A3
331
9F
  5
1FE
331
3F8
  5
3FC
331
3B0
  5
3B4
331
3D2
  5
3D6
331
209
  5
20D
331
22B
  5
22F
331
23C
  5
240
331
2B
  5
2F
331
24D
  5
251
331
3C
  5
40
331
25E
  5
262
331
26F
  5
273
331
5E
  5
62
331
4D
  5
51
331
21A
  5
21E
331
3C1
  5
3C5
331
6F
  5
73
331
270
  5
274
331
363
  5
367
331
27A
  5
27E
331
70
  5
74
331
36D
  5
371
331
28B
  5
35F
331
1FD
  5
201
331
37E
  5
382
331
7E
  5
82
331
3E8
  5
3EC
331
3A0
  5
3A4
331
38F
  5
393
331
3F9
  5
3FD
331
3B1
  5
3B5
331
3C2
  5
3C6
331
3D3
  5
3D7
331
22C
  5
230
331
21B
  5
21F
331
23D
  5
241
331
2C
  5
30
331
24E
  5
252
331
3D
  5
41
331
25F
  5
263
331
5F
  5
63
331
4E
  5
52
331
20A
  5
20E
331
8F
  5
93
331
260
  5
264
331
271
  5
275
331
60
  5
64
331
364
  5
368
331
27B
  5
27F
331
71
  5
75
331
36E
  5
372
331
28C
  5
360
331
1FE
  5
202
331
37F
  5
383
331
3E9
  5
3ED
331
3A1
  5
3A5
331
390
  5
394
331
90
  5
94
331
3FA
  5
3FE
331
3B2
  5
3B6
331
3C3
  5
3C7
331
3D4
  5
3D8
331
22D
  5
231
331
21C
  5
220
331
23E
  5
242
331
2D
  5
31
331
24F
  5
253
331
3E
  5
42
331
4F
  5
53
331
20B
  5
20F
331
7F
  5
83
331
250
  5
254
331
261
  5
265
331
50
  5
54
331
272
  5
276
331
61
  5
65
331
365
  5
369
331
27C
  5
280
331
72
  5
76
331
36F
  5
373
331
28D
  5
361
331
380
  5
384
331
80
  5
84
331
3EA
  5
3EE
331
3A2
  5
3A6
331
391
  5
395
331
3FB
  5
401
331
3B3
  5
3B7
331
3C4
  5
3C8
331
3D5
  5
3D9
331
22E
  5
232
331
21D
  5
221
331
23F
  5
243
331
2E
  5
32
331
3F
  5
43
331
20C
  5
210
331
91
  5
95
331
1FF
  5
203
331
240
  5
244
331
251
  5
255
331
40
  5
44
331
262
  5
266
331
51
  5
55
331
273
  5
277
331
62
  5
66
331
370
  5
374
331
366
  5
36A
331
27D
  5
281
331
73
  5
77
331
381
  5
385
331
3EB
  5
3EF
331
3A3
  5
3A7
331
392
  5
396
331
92
  5
96
331
3FC
  5
404
331
3C5
  5
3C9
331
3D6
  5
3DA
331
22F
  5
233
331
21E
  5
222
331
2F
  5
33
331
20D
  5
211
331
3B4
  5
3B8
331
81
  5
85
331
230
  5
234
331
241
  5
245
331
30
  5
34
331
252
  5
256
331
41
  5
45
331
263
  5
267
331
52
  5
56
331
274
  5
278
331
63
  5
67
331
371
  5
375
331
367
  5
36B
331
27E
  5
282
331
382
  5
386
331
82
  5
86
331
3EC
  5
3F0
331
3A4
  5
3A8
331
393
  5
397
331
3FD
  5
405
331
3B5
  5
3B9
331
3D7
  5
3DB
331
20E
  5
212
331
21F
  5
223
331
3C6
  5
3CA
331
93
  5
97
331
74
  5
78
331
3D8
  5
3DC
331
231
  5
235
331
220
  5
224
331
242
  5
246
331
31
  5
35
331
253
  5
257
331
42
  5
46
331
264
  5
268
331
53
  5
57
331
275
  5
279
331
64
  5
68
331
372
  5
376
331
27F
  5
283
331
383
  5
387
331
83
  5
87
331
3ED
  5
3F1
331
3A5
  5
3A9
331
394
  5
398
331
3FE
  5
406
331
3B6
  5
3BA
331
20F
  5
213
331
3C7
  5
3CB
331
94
  5
98
331
75
  5
79
331
3C8
  5
3CC
331
3D9
  5
3DD
331
210
  5
214
331
232
  5
236
331
221
  5
225
331
243
  5
247
331
32
  5
36
331
254
  5
258
331
43
  5
47
331
265
  5
269
331
276
  5
27A
331
65
  5
69
331
54
  5
58
331
373
  5
377
331
280
  5
284
331
384
  5
388
331
84
  5
88
331
3EE
  5
3F2
331
3A6
  5
3AA
331
395
  5
399
331
3B7
  5
3BB
331
95
  5
99
331
76
  5
7A
331
3B8
  5
3BC
331
3C9
  5
3CD
331
200
  5
204
331
3DA
  5
3DE
331
211
  5
215
331
222
  5
226
331
233
  5
237
331
22
  5
26
331
244
  5
248
331
255
  5
259
331
44
  5
48
331
266
  5
26A
331
55
  5
59
331
33
  5
37
331
277
  5
27B
331
374
  5
378
331
281
  5
285
331
77
  5
7B
331
385
  5
389
331
3EF
  5
3F3
331
3A7
  5
3AB
331
396
  5
39A
331
96
  5
9A
331
85
  5
89
331
66
  5
6A
331
3F0
  5
3F4
331
3A8
  5
3AC
331
3B9
  5
3BD
331
201
  5
205
331
3CA
  5
3CE
331
3DB
  5
3DF
331
212
  5
216
331
223
  5
227
331
234
  5
238
331
245
  5
249
331
34
  5
38
331
256
  5
25A
331
267
  5
26B
331
56
  5
5A
331
45
  5
49
331
23
  5
27
331
375
  5
379
331
282
  5
286
331
386
  5
38A
331
86
  5
8A
331
397
  5
39B
331
97
  5
9B
331
67
  5
6B
  0
XRECORD
  5
41A
102
{ACAD_REACTORS
330
419
102
}
330
419
100
AcDbXrecord
280
     1
1004
1800000001000000000000C0000000000000000000000000
  0
ACDBDETAILVIEWSTYLE
  5
F3
102
{ACAD_REACTORS
330
F2
102
}
330
F2
100
AcDbModelDocViewStyle
 70
     0
  3
Imperial24
290
     0
100
AcDbDetailViewStyle
 70
     0
 71
     0
 90
        3
 71
     1
340
11
 40
0.24
340
0
 40
0.24
300

 40
0.36
280
     3
 71
     2
340
16
 90
       25
 71
     3
340
11
 40
0.24
 90
        1
 40
0.75
 90
        1
300
%<\AcVar ViewType \f "%tc1">% %<\AcVar ViewDetailId>%\PSCALE %<\AcVar ViewScale \f "%sn">%
 71
     4
340
16
 90
       25
340
16
 90
       25
280
     0
  0
LAYOUT
  5
1C
102
{ACAD_XDICTIONARY
360
423
102
}
102
{ACAD_REACTORS
330
1A
102
}
330
1A
100
AcDbPlotSettings
  1

  2
none_device
  4

  6

 40
0.0
 41
0.0
 42
0.0
 43
0.0
 44
0.0
 45
0.0
 46
0.0
 47
0.0
 48
0.0
 49
0.0
140
0.0
141
0.0
142
1.0
143
1.0
 70
   688
 72
     0
 73
     0
 74
     5
  7

 75
    16
147
1.0
148
0.0
149
0.0
100
AcDbLayout
  1
Layout1
 70
     1
 71
     1
 10
0.0
 20
0.0
 11
12.0
 21
9.0
 12
0.0
 22
0.0
 32
0.0
 14
1.000000000000000E+20
 24
1.000000000000000E+20
 34
1.000000000000000E+20
 15
-1.000000000000000E+20
 25
-1.000000000000000E+20
 35
-1.000000000000000E+20
146
0.0
 13
0.0
 23
0.0
 33
0.0
 16
1.0
 26
0.0
 36
0.0
 17
0.0
 27
1.0
 37
0.0
 76
     0
330
1B
  0
LAYOUT
  5
1E
102
{ACAD_XDICTIONARY
360
425
102
}
102
{ACAD_REACTORS
330
1A
102
}
330
1A
100
AcDbPlotSettings
  1

  2
none_device
  4

  6

 40
0.0
 41
0.0
 42
0.0
 43
0.0
 44
0.0
 45
0.0
 46
0.0
 47
0.0
 48
0.0
 49
0.0
140
0.0
141
0.0
142
1.0
143
1.0
 70
  1712
 72
     0
 73
     0
 74
     0
  7

 75
     0
147
1.0
148
0.0
149
0.0
100
AcDbLayout
  1
Model
 70
     1
 71
     0
 10
0.0
 20
0.0
 11
12.0
 21
9.0
 12
0.0
 22
0.0
 32
0.0
 14
1.000000000000000E+20
 24
1.000000000000000E+20
 34
1.000000000000000E+20
 15
-1.000000000000000E+20
 25
-1.000000000000000E+20
 35
-1.000000000000000E+20
146
0.0
 13
0.0
 23
0.0
 33
0.0
 16
1.0
 26
0.0
 36
0.0
 17
0.0
 27
1.0
 37
0.0
 76
     0
330
1D
331
A0
  0
MATERIAL
  5
AF
102
{ACAD_XDICTIONARY
360
B0
102
}
102
{ACAD_REACTORS
330
A6
102
}
330
A6
100
AcDbMaterial
  1
ByBlock
 72
     0
 43
0.0208333333333333
 43
0.0
 43
0.0
 43
0.0
 43
0.0
 43
0.0208333333333333
 43
0.0
 43
0.0
 43
0.0
 43
0.0
 43
1.0
 43
0.0
 43
0.0
 43
0.0
 43
0.0
 43
1.0
 77
     0
 47
0.0208333333333333
 47
0.0
 47
0.0
 47
0.0
 47
0.0
 47
0.0208333333333333
 47
0.0
 47
0.0
 47
0.0
 47
0.0
 47
1.0
 47
0.0
 47
0.0
 47
0.0
 47
0.0
 47
1.0
171
     0
 49
0.0208333333333333
 49
0.0
 49
0.0
 49
0.0
 49
0.0
 49
0.0208333333333333
 49
0.0
 49
0.0
 49
0.0
 49
0.0
 49
1.0
 49
0.0
 49
0.0
 49
0.0
 49
0.0
 49
1.0
175
     0
142
0.0208333333333333
142
0.0
142
0.0
142
0.0
142
0.0
142
0.0208333333333333
142
0.0
142
0.0
142
0.0
142
0.0
142
1.0
142
0.0
142
0.0
142
0.0
142
0.0
142
1.0
179
     0
144
0.0208333333333333
144
0.0
144
0.0
144
0.0
144
0.0
144
0.0208333333333333
144
0.0
144
0.0
144
0.0
144
0.0
144
1.0
144
0.0
144
0.0
144
0.0
144
0.0
144
1.0
147
0.0208333333333333
147
0.0
147
0.0
147
0.0
147
0.0
147
0.0208333333333333
147
0.0
147
0.0
147
0.0
147
0.0
147
1.0
147
0.0
147
0.0
147
0.0
147
0.0
147
1.0
  0
MATERIAL
  5
A7
102
{ACAD_XDICTIONARY
360
A8
102
}
102
{ACAD_REACTORS
330
A6
102
}
330
A6
100
AcDbMaterial
  1
ByLayer
 72
     0
 43
0.0208333333333333
 43
0.0
 43
0.0
 43
0.0
 43
0.0
 43
0.0208333333333333
 43
0.0
 43
0.0
 43
0.0
 43
0.0
 43
1.0
 43
0.0
 43
0.0
 43
0.0
 43
0.0
 43
1.0
 77
     0
 47
0.0208333333333333
 47
0.0
 47
0.0
 47
0.0
 47
0.0
 47
0.0208333333333333
 47
0.0
 47
0.0
 47
0.0
 47
0.0
 47
1.0
 47
0.0
 47
0.0
 47
0.0
 47
0.0
 47
1.0
171
     0
 49
0.0208333333333333
 49
0.0
 49
0.0
 49
0.0
 49
0.0
 49
0.0208333333333333
 49
0.0
 49
0.0
 49
0.0
 49
0.0
 49
1.0
 49
0.0
 49
0.0
 49
0.0
 49
0.0
 49
1.0
175
     0
142
0.0208333333333333
142
0.0
142
0.0
142
0.0
142
0.0
142
0.0208333333333333
142
0.0
142
0.0
142
0.0
142
0.0
142
1.0
142
0.0
142
0.0
142
0.0
142
0.0
142
1.0
179
     0
144
0.0208333333333333
144
0.0
144
0.0
144
0.0
144
0.0
144
0.0208333333333333
144
0.0
144
0.0
144
0.0
144
0.0
144
1.0
144
0.0
144
0.0
144
0.0
144
0.0
144
1.0
147
0.0208333333333333
147
0.0
147
0.0
147
0.0
147
0.0
147
0.0208333333333333
147
0.0
147
0.0
147
0.0
147
0.0
147
1.0
147
0.0
147
0.0
147
0.0
147
0.0
147
1.0
  0
MATERIAL
  5
B7
102
{ACAD_XDICTIONARY
360
B8
102
}
102
{ACAD_REACTORS
330
A6
102
}
330
A6
100
AcDbMaterial
  1
Global
 72
     0
 43
0.0208333333333333
 43
0.0
 43
0.0
 43
0.0
 43
0.0
 43
0.0208333333333333
 43
0.0
 43
0.0
 43
0.0
 43
0.0
 43
1.0
 43
0.0
 43
0.0
 43
0.0
 43
0.0
 43
1.0
 77
     0
 47
0.0208333333333333
 47
0.0
 47
0.0
 47
0.0
 47
0.0
 47
0.0208333333333333
 47
0.0
 47
0.0
 47
0.0
 47
0.0
 47
1.0
 47
0.0
 47
0.0
 47
0.0
 47
0.0
 47
1.0
171
     0
 49
0.0208333333333333
 49
0.0
 49
0.0
 49
0.0
 49
0.0
 49
0.0208333333333333
 49
0.0
 49
0.0
 49
0.0
 49
0.0
 49
1.0
 49
0.0
 49
0.0
 49
0.0
 49
0.0
 49
1.0
175
     0
142
0.0208333333333333
142
0.0
142
0.0
142
0.0
142
0.0
142
0.0208333333333333
142
0.0
142
0.0
142
0.0
142
0.0
142
1.0
142
0.0
142
0.0
142
0.0
142
0.0
142
1.0
179
     0
144
0.0208333333333333
144
0.0
144
0.0
144
0.0
144
0.0
144
0.0208333333333333
144
0.0
144
0.0
144
0.0
144
0.0
144
1.0
144
0.0
144
0.0
144
0.0
144
0.0
144
1.0
147
0.0208333333333333
147
0.0
147
0.0
147
0.0
147
0.0
147
0.0208333333333333
147
0.0
147
0.0
147
0.0
147
0.0
147
1.0
147
0.0
147
0.0
147
0.0
147
0.0
147
1.0
  0
MLEADERSTYLE
  5
EE
102
{ACAD_XDICTIONARY
360
45C
102
}
102
{ACAD_REACTORS
330
ED
102
}
330
ED
100
AcDbMLeaderStyle
170
     2
171
     1
172
     0
 90
        2
 40
0.0
 41
0.0
173
     1
 91
-1056964608
340
14
 92
       -2
290
     1
 42
0.09
291
     1
 43
0.36
  3
Standard
 44
0.18
300

342
11
174
     1
178
     6
175
     1
176
     0
 93
-1056964608
 45
0.18
292
     0
297
     0
 46
0.18
 94
-1056964608
 47
1.0
 49
1.0
140
1.0
293
     1
141
0.0
294
     1
177
     0
142
1.0
295
     0
296
     0
143
0.125
1001
ACAD_MLEADERVER
1070
     2
  0
MLINESTYLE
  5
18
102
{ACAD_REACTORS
330
17
102
}
330
17
100
AcDbMlineStyle
  2
STANDARD
 70
     0
  3

 62
   256
 51
90.0
 52
90.0
 71
     2
 49
0.5
 62
   256
  6
BYLAYER
 49
-0.5
 62
   256
  6
BYLAYER
  0
ACDBPLACEHOLDER
  5
F
102
{ACAD_REACTORS
330
E
102
}
330
E
  0
SCALE
  5
DC
102
{ACAD_REACTORS
330
DB
102
}
330
DB
100
AcDbScale
 70
     0
300
1:1
140
1.0
141
1.0
290
     1
  0
SCALE
  5
DD
102
{ACAD_REACTORS
330
DB
102
}
330
DB
100
AcDbScale
 70
     0
300
1/128" = 1'-0"
140
0.0078125
141
12.0
290
     0
  0
SCALE
  5
DE
102
{ACAD_REACTORS
330
DB
102
}
330
DB
100
AcDbScale
 70
     0
300
1/64" = 1'-0"
140
0.015625
141
12.0
290
     0
  0
SCALE
  5
DF
102
{ACAD_REACTORS
330
DB
102
}
330
DB
100
AcDbScale
 70
     0
300
1/32" = 1'-0"
140
0.03125
141
12.0
290
     0
  0
SCALE
  5
E0
102
{ACAD_REACTORS
330
DB
102
}
330
DB
100
AcDbScale
 70
     0
300
1/16" = 1'-0"
140
0.0625
141
12.0
290
     0
  0
SCALE
  5
E1
102
{ACAD_REACTORS
330
DB
102
}
330
DB
100
AcDbScale
 70
     0
300
3/32" = 1'-0"
140
0.09375
141
12.0
290
     0
  0
SCALE
  5
E2
102
{ACAD_REACTORS
330
DB
102
}
330
DB
100
AcDbScale
 70
     0
300
1/8" = 1'-0"
140
0.125
141
12.0
290
     0
  0
SCALE
  5
E3
102
{ACAD_REACTORS
330
DB
102
}
330
DB
100
AcDbScale
 70
     0
300
3/16" = 1'-0"
140
0.1875
141
12.0
290
     0
  0
SCALE
  5
E4
102
{ACAD_REACTORS
330
DB
102
}
330
DB
100
AcDbScale
 70
     0
300
1/4" = 1'-0"
140
0.25
141
12.0
290
     0
  0
SCALE
  5
E5
102
{ACAD_REACTORS
330
DB
102
}
330
DB
100
AcDbScale
 70
     0
300
3/8" = 1'-0"
140
0.375
141
12.0
290
     0
  0
SCALE
  5
E6
102
{ACAD_REACTORS
330
DB
102
}
330
DB
100
AcDbScale
 70
     0
300
1/2" = 1'-0"
140
0.5
141
12.0
290
     0
  0
SCALE
  5
E7
102
{ACAD_REACTORS
330
DB
102
}
330
DB
100
AcDbScale
 70
     0
300
3/4" = 1'-0"
140
0.75
141
12.0
290
     0
  0
SCALE
  5
E8
102
{ACAD_REACTORS
330
DB
102
}
330
DB
100
AcDbScale
 70
     0
300
1" = 1'-0"
140
1.0
141
12.0
290
     0
  0
SCALE
  5
E9
102
{ACAD_REACTORS
330
DB
102
}
330
DB
100
AcDbScale
 70
     0
300
1-1/2" = 1'-0"
140
1.5
141
12.0
290
     0
  0
SCALE
  5
EA
102
{ACAD_REACTORS
330
DB
102
}
330
DB
100
AcDbScale
 70
     0
300
3" = 1'-0"
140
3.0
141
12.0
290
     0
  0
SCALE
  5
EB
102
{ACAD_REACTORS
330
DB
102
}
330
DB
100
AcDbScale
 70
     0
300
6" = 1'-0"
140
6.0
141
12.0
290
     0
  0
SCALE
  5
EC
102
{ACAD_REACTORS
330
DB
102
}
330
DB
100
AcDbScale
 70
     0
300
1'-0" = 1'-0"
140
12.0
141
12.0
290
     0
  0
ACDBSECTIONVIEWSTYLE
  5
F1
102
{ACAD_REACTORS
330
EF
102
}
330
EF
100
AcDbModelDocViewStyle
 70
     0
  3
Imperial24
290
     0
100
AcDbSectionViewStyle
 70
     0
 71
     0
 90
       78
 71
     1
340
11
 40
0.24
340
0
340
0
 40
0.24
300
I, O, Q, S, X, Z
 40
0.48
 90
        3
 40
0.18
 90
        1
 71
     2
340
F0
 90
       25
340
16
 90
       50
 40
0.24
 40
0.0
 40
0.24
 71
     3
340
11
 40
0.24
 90
        1
 40
0.75
 90
        1
300
%<\AcVar ViewType \f "%tc1">% %<\AcVar ViewSectionStartId>%-%<\AcVar ViewSectionEndId>%\PSCALE %<\AcVar ViewScale \f "%sn">%
 71
     4
300
ANSI31
 40
1.0
 90
        0
290
     0
290
     0
 90
        6
 40
0.0
 40
1.570796326794896
 40
0.2617993877991494
 40
1.308996938995747
 40
-0.2617993877991494
 40
1.832595714594046
  0
TABLESTYLE
  5
DA
102
{ACAD_XDICTIONARY
360
415
102
}
102
{ACAD_REACTORS
330
D9
102
}
330
D9
100
AcDbTableStyle
  3
Standard
 70
     0
 71
     0
 40
0.06
 41
0.06
280
     0
281
     0
  7
Standard
140
0.18
170
     2
 62
     0
 63
     7
283
     0
274
    -2
284
     1
 64
     0
275
    -2
285
     1
 65
     0
276
    -2
286
     1
 66
     0
277
    -2
287
     1
 67
     0
278
    -2
288
     1
 68
     0
279
    -2
289
     1
 69
     0
  7
Standard
140
0.25
170
     5
 62
     0
 63
     7
283
     0
274
    -2
284
     1
 64
     0
275
    -2
285
     1
 65
     0
276
    -2
286
     1
 66
     0
277
    -2
287
     1
 67
     0
278
    -2
288
     1
 68
     0
279
    -2
289
     1
 69
     0
  7
Standard
140
0.18
170
     5
 62
     0
 63
     7
283
     0
274
    -2
284
     1
 64
     0
275
    -2
285
     1
 65
     0
276
    -2
286
     1
 66
     0
277
    -2
287
     1
 67
     0
278
    -2
288
     1
 68
     0
279
    -2
289
     1
 69
     0
  0
VISUALSTYLE
  5
C5
102
{ACAD_XDICTIONARY
360
434
102
}
102
{ACAD_REACTORS
330
BF
102
}
330
BF
100
AcDbVisualStyle
  2
2dWireframe
 70
     4
 71
     0
 72
     2
 73
     0
 90
        0
 40
-0.6
 41
-30.0
 62
     5
 63
     7
 74
     1
 91
        4
 64
     7
 65
   257
 75
     1
175
     1
 42
1.0
 92
        0
 66
   257
 43
1.0
 76
     1
 77
     6
 78
     2
 67
     7
 79
     5
170
     0
171
     0
290
     0
174
     0
 93
        1
 44
0.0
173
     0
291
     0
 45
0.0
1001
ACAD
1000
AcDbSavedByObjectVersion
1070
     0
  0
VISUALSTYLE
  5
C4
102
{ACAD_XDICTIONARY
360
432
102
}
102
{ACAD_REACTORS
330
BF
102
}
330
BF
100
AcDbVisualStyle
  2
Basic
 70
     7
 71
     1
 72
     0
 73
     1
 90
        0
 40
-0.6
 41
-30.0
 62
     5
 63
     7
 74
     0
 91
        4
 64
     7
 65
   257
 75
     1
175
     1
 42
1.0
 92
        8
 66
     7
 43
1.0
 76
     1
 77
     6
 78
     2
 67
     7
 79
     5
170
     0
171
     0
290
     0
174
     0
 93
        1
 44
0.0
173
     0
291
     1
 45
0.0
1001
ACAD
1000
AcDbSavedByObjectVersion
1070
     0
  0
VISUALSTYLE
  5
CB
102
{ACAD_XDICTIONARY
360
440
102
}
102
{ACAD_REACTORS
330
BF
102
}
330
BF
100
AcDbVisualStyle
  2
Brighten
 70
    12
 71
     2
 72
     2
 73
     0
 90
        0
 40
-0.6
 41
-30.0
 62
     5
 63
     7
 74
     1
 91
        4
 64
     7
 65
   257
 75
     1
175
     1
 42
1.0
 92
        8
 66
     7
 43
1.0
 76
     1
 77
     6
 78
     2
 67
     7
 79
     5
170
     0
171
     0
290
     0
174
     0
 93
        1
 44
50.0
173
     0
291
     1
 45
0.0
1001
ACAD
1000
AcDbSavedByObjectVersion
1070
     0
  0
VISUALSTYLE
  5
CF
102
{ACAD_XDICTIONARY
360
448
102
}
102
{ACAD_REACTORS
330
BF
102
}
330
BF
100
AcDbVisualStyle
  2
ColorChange
 70
    16
 71
     2
 72
     2
 73
     3
 90
        0
 40
-0.6
 41
-30.0
 62
     5
 63
     8
 74
     1
 91
        4
 64
     7
 65
   257
 75
     1
175
     1
 42
1.0
 92
        8
 66
     8
 43
1.0
 76
     1
 77
     6
 78
     2
 67
     7
 79
     5
170
     0
171
     0
290
     0
174
     0
 93
        1
 44
0.0
173
     0
291
     1
 45
0.0
1001
ACAD
1000
AcDbSavedByObjectVersion
1070
     0
  0
VISUALSTYLE
  5
C8
102
{ACAD_XDICTIONARY
360
43A
102
}
102
{ACAD_REACTORS
330
BF
102
}
330
BF
100
AcDbVisualStyle
  2
Conceptual
 70
     9
 71
     3
 72
     2
 73
     0
 90
        0
 40
-0.6
 41
-30.0
 62
     5
 63
     7
 74
     2
 91
        2
 64
     7
 65
   257
 75
     1
175
     1
 42
179.0
 92
        8
 66
     7
 43
1.0
 76
     1
 77
     6
 78
     2
 67
     7
 79
     3
170
     0
171
     0
290
     0
174
     0
 93
        1
 44
0.0
173
     0
291
     0
 45
0.0
1001
ACAD
1000
AcDbSavedByObjectVersion
1070
     0
  0
VISUALSTYLE
  5
CA
102
{ACAD_XDICTIONARY
360
43E
102
}
102
{ACAD_REACTORS
330
BF
102
}
330
BF
100
AcDbVisualStyle
  2
Dim
 70
    11
 71
     2
 72
     2
 73
     0
 90
        0
 40
-0.6
 41
-30.0
 62
     5
 63
     7
 74
     1
 91
        4
 64
     7
 65
   257
 75
     1
175
     1
 42
1.0
 92
        8
 66
     7
 43
1.0
 76
     1
 77
     6
 78
     2
 67
     7
 79
     5
170
     0
171
     0
290
     0
174
     0
 93
        1
 44
-50.0
173
     0
291
     1
 45
0.0
1001
ACAD
1000
AcDbSavedByObjectVersion
1070
     0
  0
VISUALSTYLE
  5
D7
102
{ACAD_XDICTIONARY
360
458
102
}
102
{ACAD_REACTORS
330
BF
102
}
330
BF
100
AcDbVisualStyle
  2
EdgeColorOff
 70
    22
 71
     2
 72
     2
 73
     0
 90
        0
 40
-0.6
 41
-30.0
 62
     5
 63
     7
 74
     1
 91
        4
 64
     7
 65
   257
 75
     1
175
     1
 42
1.0
 92
        8
 66
     7
 43
1.0
 76
     1
 77
     6
 78
     2
 67
     7
 79
     5
170
     0
171
     0
290
     0
174
     0
 93
        1
 44
0.0
173
     0
291
     1
 45
0.0
1001
ACAD
1000
AcDbSavedByObjectVersion
1070
     0
  0
VISUALSTYLE
  5
CE
102
{ACAD_XDICTIONARY
360
446
102
}
102
{ACAD_REACTORS
330
BF
102
}
330
BF
100
AcDbVisualStyle
  2
Facepattern
 70
    15
 71
     2
 72
     2
 73
     0
 90
        0
 40
-0.6
 41
-30.0
 62
     5
 63
     7
 74
     1
 91
        4
 64
     7
 65
   257
 75
     1
175
     1
 42
1.0
 92
        8
 66
     7
 43
1.0
 76
     1
 77
     6
 78
     2
 67
     7
 79
     5
170
     0
171
     0
290
     0
174
     0
 93
        1
 44
0.0
173
     0
291
     1
 45
0.0
1001
ACAD
1000
AcDbSavedByObjectVersion
1070
     0
  0
VISUALSTYLE
  5
C0
102
{ACAD_XDICTIONARY
360
42A
102
}
102
{ACAD_REACTORS
330
BF
102
}
330
BF
100
AcDbVisualStyle
  2
Flat
 70
     0
 71
     2
 72
     1
 73
     1
 90
        2
 40
-0.6
 41
30.0
 62
     5
 63
     7
 74
     0
 91
        0
 64
     7
 65
   257
 75
     1
175
     1
 42
1.0
 92
        8
 66
     7
 43
1.0
 76
     1
 77
     6
 78
     2
 67
     7
 79
     5
170
     0
171
     0
290
     0
174
     0
 93
       13
 44
0.0
173
     0
291
     1
 45
0.0
1001
ACAD
1000
AcDbSavedByObjectVersion
1070
     0
  0
VISUALSTYLE
  5
C1
102
{ACAD_XDICTIONARY
360
42C
102
}
102
{ACAD_REACTORS
330
BF
102
}
330
BF
100
AcDbVisualStyle
  2
FlatWithEdges
 70
     1
 71
     2
 72
     1
 73
     1
 90
        2
 40
-0.6
 41
30.0
 62
     5
 63
     7
 74
     1
 91
        0
 64
     7
 65
   257
 75
     1
175
     1
 42
1.0
 92
        0
 66
   257
 43
1.0
 76
     1
 77
     6
 78
     2
 67
     7
 79
     5
170
     0
171
     0
290
     0
174
     0
 93
       13
 44
0.0
173
     0
291
     1
 45
0.0
1001
ACAD
1000
AcDbSavedByObjectVersion
1070
     0
  0
VISUALSTYLE
  5
C2
102
{ACAD_XDICTIONARY
360
42E
102
}
102
{ACAD_REACTORS
330
BF
102
}
330
BF
100
AcDbVisualStyle
  2
Gouraud
 70
     2
 71
     2
 72
     2
 73
     1
 90
        2
 40
-0.6
 41
30.0
 62
     5
 63
     7
 74
     0
 91
        0
 64
     7
 65
   257
 75
     1
175
     1
 42
1.0
 92
        0
 66
     7
 43
1.0
 76
     1
 77
     6
 78
     2
 67
     7
 79
     5
170
     0
171
     0
290
     0
174
     0
 93
       13
 44
0.0
173
     0
291
     1
 45
0.0
1001
ACAD
1000
AcDbSavedByObjectVersion
1070
     0
  0
VISUALSTYLE
  5
C3
102
{ACAD_XDICTIONARY
360
430
102
}
102
{ACAD_REACTORS
330
BF
102
}
330
BF
100
AcDbVisualStyle
  2
GouraudWithEdges
 70
     3
 71
     2
 72
     2
 73
     1
 90
        2
 40
-0.6
 41
30.0
 62
     5
 63
     7
 74
     1
 91
        0
 64
     7
 65
   257
 75
     1
175
     1
 42
1.0
 92
        0
 66
   257
 43
1.0
 76
     1
 77
     6
 78
     2
 67
     7
 79
     5
170
     0
171
     0
290
     0
174
     0
 93
       13
 44
0.0
173
     0
291
     1
 45
0.0
1001
ACAD
1000
AcDbSavedByObjectVersion
1070
     0
  0
VISUALSTYLE
  5
C7
102
{ACAD_XDICTIONARY
360
438
102
}
102
{ACAD_REACTORS
330
BF
102
}
330
BF
100
AcDbVisualStyle
  2
Hidden
 70
     6
 71
     1
 72
     2
 73
     2
 90
        0
 40
-0.6
 41
-30.0
 62
     5
 63
     7
 74
     2
 91
        2
 64
     7
 65
   257
 75
     2
175
     1
 42
40.0
 92
        0
 66
   257
 43
1.0
 76
     1
 77
     6
 78
     2
 67
     7
 79
     3
170
     0
171
     0
290
     0
174
     0
 93
        1
 44
0.0
173
     0
291
     0
 45
0.0
1001
ACAD
1000
AcDbSavedByObjectVersion
1070
     0
  0
VISUALSTYLE
  5
D5
102
{ACAD_XDICTIONARY
360
454
102
}
102
{ACAD_REACTORS
330
BF
102
}
330
BF
100
AcDbVisualStyle
  2
JitterOff
 70
    20
 71
     2
 72
     2
 73
     0
 90
        0
 40
-0.6
 41
-30.0
 62
     5
 63
     7
 74
     1
 91
        4
 64
     7
 65
   257
 75
     1
175
     1
 42
1.0
 92
       10
 66
     7
 43
1.0
 76
     1
 77
     6
 78
     2
 67
     7
 79
     5
170
     0
171
     0
290
     0
174
     0
 93
        1
 44
0.0
173
     0
291
     1
 45
0.0
1001
ACAD
1000
AcDbSavedByObjectVersion
1070
     0
  0
VISUALSTYLE
  5
CD
102
{ACAD_XDICTIONARY
360
444
102
}
102
{ACAD_REACTORS
330
BF
102
}
330
BF
100
AcDbVisualStyle
  2
Linepattern
 70
    14
 71
     2
 72
     2
 73
     0
 90
        0
 40
-0.6
 41
-30.0
 62
     5
 63
     7
 74
     1
 91
        4
 64
     7
 65
   257
 75
     7
175
     7
 42
1.0
 92
        8
 66
     7
 43
1.0
 76
     1
 77
     6
 78
     2
 67
     7
 79
     5
170
     0
171
     0
290
     0
174
     0
 93
        1
 44
0.0
173
     0
291
     1
 45
0.0
1001
ACAD
1000
AcDbSavedByObjectVersion
1070
     0
  0
VISUALSTYLE
  5
D6
102
{ACAD_XDICTIONARY
360
456
102
}
102
{ACAD_REACTORS
330
BF
102
}
330
BF
100
AcDbVisualStyle
  2
OverhangOff
 70
    21
 71
     2
 72
     2
 73
     0
 90
        0
 40
-0.6
 41
-30.0
 62
     5
 63
     7
 74
     1
 91
        4
 64
     7
 65
   257
 75
     1
175
     1
 42
1.0
 92
        9
 66
     7
 43
1.0
 76
     1
 77
     6
 78
     2
 67
     7
 79
     5
170
     0
171
     0
290
     0
174
     0
 93
        1
 44
0.0
173
     0
291
     1
 45
0.0
1001
ACAD
1000
AcDbSavedByObjectVersion
1070
     0
  0
VISUALSTYLE
  5
C9
102
{ACAD_XDICTIONARY
360
43C
102
}
102
{ACAD_REACTORS
330
BF
102
}
330
BF
100
AcDbVisualStyle
  2
Realistic
 70
     8
 71
     2
 72
     3
 73
     0
 90
        2
 40
-0.6
 41
30.0
 62
     5
 63
     7
 74
     0
 91
        0
 64
     7
 65
   257
 75
     1
175
     1
 42
1.0
 92
        8
 66
   257
 43
1.0
 76
     1
 77
     6
 78
     2
 67
     7
 79
     3
170
     0
171
     0
290
     0
174
     0
 93
       13
 44
0.0
173
     0
291
     0
 45
0.0
1001
ACAD
1000
AcDbSavedByObjectVersion
1070
     0
  0
VISUALSTYLE
  5
D4
102
{ACAD_XDICTIONARY
360
452
102
}
102
{ACAD_REACTORS
330
BF
102
}
330
BF
100
AcDbVisualStyle
  2
Shaded
 70
    27
 71
     2
 72
     2
 73
     1
 90
        2
 40
-0.6
 41
30.0
 62
     5
 63
     7
 74
     0
 91
        4
 64
     7
 65
   257
 75
     1
175
     1
 42
1.0
 92
        8
 66
   257
 43
1.0
 76
     1
 77
     6
 78
     2
 67
     8
 79
     3
170
     0
171
     0
290
     0
174
     0
 93
        5
 44
0.0
173
     0
291
     0
 45
0.0
1001
ACAD
1000
AcDbSavedByObjectVersion
1070
     0
  0
VISUALSTYLE
  5
D3
102
{ACAD_XDICTIONARY
360
450
102
}
102
{ACAD_REACTORS
330
BF
102
}
330
BF
100
AcDbVisualStyle
  2
Shaded with edges
 70
    26
 71
     2
 72
     2
 73
     1
 90
        2
 40
-0.6
 41
30.0
 62
     5
 63
     7
 74
     1
 91
       10
 64
     7
 65
   257
 75
     2
175
     1
 42
1.0
 92
        8
 66
   257
 43
1.0
 76
     1
 77
     6
 78
     2
 67
     7
 79
     3
170
     0
171
     0
290
     0
174
     0
 93
        5
 44
0.0
173
     0
291
     0
 45
0.0
1001
ACAD
1000
AcDbSavedByObjectVersion
1070
     0
  0
VISUALSTYLE
  5
D0
102
{ACAD_XDICTIONARY
360
44A
102
}
102
{ACAD_REACTORS
330
BF
102
}
330
BF
100
AcDbVisualStyle
  2
Shades of Gray
 70
    23
 71
     2
 72
     2
 73
     3
 90
        0
 40
-0.6
 41
-30.0
 62
     5
 63
     7
 74
     2
 91
        2
 64
     7
 65
     7
 75
     1
175
     1
 42
40.0
 92
        8
 66
     7
 43
1.0
 76
     1
 77
     6
 78
     2
 67
     7
 79
     3
170
     0
171
     0
290
     0
174
     0
 93
        1
 44
0.0
173
     0
291
     0
 45
0.0
1001
ACAD
1000
AcDbSavedByObjectVersion
1070
     0
  0
VISUALSTYLE
  5
D1
102
{ACAD_XDICTIONARY
360
44C
102
}
102
{ACAD_REACTORS
330
BF
102
}
330
BF
100
AcDbVisualStyle
  2
Sketchy
 70
    24
 71
     1
 72
     2
 73
     2
 90
        0
 40
-0.6
 41
-30.0
 62
     5
 63
     7
 74
     2
 91
        2
 64
     7
 65
     7
 75
     1
175
     1
 42
40.0
 92
       11
 66
     7
 43
1.0
 76
     1
 77
     6
 78
     2
 67
     7
 79
     6
170
     0
171
     0
290
     0
174
     0
 93
        1
 44
0.0
173
     0
291
     0
 45
0.0
1001
ACAD
1000
AcDbSavedByObjectVersion
1070
     0
  0
VISUALSTYLE
  5
CC
102
{ACAD_XDICTIONARY
360
442
102
}
102
{ACAD_REACTORS
330
BF
102
}
330
BF
100
AcDbVisualStyle
  2
Thicken
 70
    13
 71
     2
 72
     2
 73
     0
 90
        0
 40
-0.6
 41
-30.0
 62
     5
 63
     7
 74
     1
 91
        4
 64
     7
 65
   257
 75
     1
175
     1
 42
1.0
 92
       12
 66
     7
 43
1.0
 76
     1
 77
     6
 78
     2
 67
     7
 79
     5
170
     0
171
     0
290
     0
174
     0
 93
        1
 44
0.0
173
     0
291
     1
 45
0.0
1001
ACAD
1000
AcDbSavedByObjectVersion
1070
     0
  0
VISUALSTYLE
  5
C6
102
{ACAD_XDICTIONARY
360
436
102
}
102
{ACAD_REACTORS
330
BF
102
}
330
BF
100
AcDbVisualStyle
  2
Wireframe
 70
     5
 71
     0
 72
     2
 73
     0
 90
        0
 40
-0.6
 41
-30.0
 62
     5
 63
     7
 74
     1
 91
        4
 64
     7
 65
   257
 75
     1
175
     1
 42
1.0
 92
        0
 66
   257
 43
1.0
 76
     1
 77
     6
 78
     2
 67
     7
 79
     3
170
     0
171
     0
290
     0
174
     0
 93
        1
 44
0.0
173
     0
291
     0
 45
0.0
1001
ACAD
1000
AcDbSavedByObjectVersion
1070
     0
  0
VISUALSTYLE
  5
D2
102
{ACAD_XDICTIONARY
360
44E
102
}
102
{ACAD_REACTORS
330
BF
102
}
330
BF
100
AcDbVisualStyle
  2
X-Ray
 70
    25
 71
     2
 72
     2
 73
     1
 90
        1
 40
0.5
 41
-30.0
 62
     5
 63
     7
 74
     1
 91
        0
 64
     7
 65
   257
 75
     1
175
     1
 42
1.0
 92
        8
 66
     7
 43
1.0
 76
     1
 77
     6
 78
     2
 67
     7
 79
     3
170
     0
171
     0
290
     0
174
     0
 93
       13
 44
0.0
173
     0
291
     0
 45
0.0
1001
ACAD
1000
AcDbSavedByObjectVersion
1070
     0
  0
DICTIONARYVAR
  5
2A0
102
{ACAD_REACTORS
330
29A
102
}
330
29A
100
DictionaryVariables
280
     0
  1
1:1
  0
DICTIONARYVAR
  5
29C
102
{ACAD_REACTORS
330
29A
102
}
330
29A
100
DictionaryVariables
280
     0
  1
STANDARD
  0
DICTIONARYVAR
  5
29B
102
{ACAD_REACTORS
330
29A
102
}
330
29A
100
DictionaryVariables
280
     0
  1
STANDARD
  0
DICTIONARYVAR
  5
29D
102
{ACAD_REACTORS
330
29A
102
}
330
29A
100
DictionaryVariables
280
     0
  1
Imperial24
  0
DICTIONARYVAR
  5
29E
102
{ACAD_REACTORS
330
29A
102
}
330
29A
100
DictionaryVariables
280
     0
  1
Imperial24
  0
DICTIONARYVAR
  5
414
102
{ACAD_REACTORS
330
29A
102
}
330
29A
100
DictionaryVariables
280
     0
  1
2
  0
DICTIONARYVAR
  5
412
102
{ACAD_REACTORS
330
29A
102
}
330
29A
100
DictionaryVariables
280
     0
  1
2
  0
DICTIONARYVAR
  5
410
102
{ACAD_REACTORS
330
29A
102
}
330
29A
100
DictionaryVariables
280
     0
  1
1
  0
DICTIONARYVAR
  5
40F
102
{ACAD_REACTORS
330
29A
102
}
330
29A
100
DictionaryVariables
280
     0
  1
0
  0
DICTIONARYVAR
  5
2A2
102
{ACAD_REACTORS
330
29A
102
}
330
29A
100
DictionaryVariables
280
     0
  1
1
  0
DICTIONARYVAR
  5
2A3
102
{ACAD_REACTORS
330
29A
102
}
330
29A
100
DictionaryVariables
280
     0
  1
15
  0
DICTIONARYVAR
  5
2A1
102
{ACAD_REACTORS
330
29A
102
}
330
29A
100
DictionaryVariables
280
     0
  1
0
  0
DICTIONARYVAR
  5
29F
102
{ACAD_REACTORS
330
29A
102
}
330
29A
100
DictionaryVariables
280
     0
  1
0
  0
DICTIONARYVAR
  5
413
102
{ACAD_REACTORS
330
29A
102
}
330
29A
100
DictionaryVariables
280
     0
  1
1
  0
DICTIONARYVAR
  5
40E
102
{ACAD_REACTORS
330
29A
102
}
330
29A
100
DictionaryVariables
280
     0
  1
127
  0
DICTIONARYVAR
  5
411
102
{ACAD_REACTORS
330
29A
102
}
330
29A
100
DictionaryVariables
280
     0
  1
0
  0
DICTIONARY
  5
422
102
{ACAD_REACTORS
330
420
102
}
330
420
100
AcDbDictionary
281
     1
  0
DICTIONARY
  5
421
102
{ACAD_REACTORS
330
420
102
}
330
420
100
AcDbDictionary
281
     1
  3
8796011934640
350
41B
  3
8796011934656
350
41C
  3
8796011934672
350
41D
  3
8796011934688
350
41E
  3
8796011934704
350
41F
  0
DICTIONARY
  5
12B
102
{ACAD_REACTORS
330
124
102
}
330
124
100
AcDbDictionary
281
     1
  0
DICTIONARY
  5
423
330
1C
100
AcDbDictionary
280
     1
281
     1
  3
ACAD_XREC_ROUNDTRIP
360
424
  0
DICTIONARY
  5
425
330
1E
100
AcDbDictionary
280
     1
281
     1
  3
ACAD_XREC_ROUNDTRIP
360
426
  0
DICTIONARY
  5
B0
330
AF
100
AcDbDictionary
280
     1
281
     1
  3
ACAD_XREC_ROUNDTRIP
360
428
  3
BUMPTILE
360
B2
  3
DIFFUSETILE
360
B1
  3
OPACITYTILE
360
B5
  3
REFLECTIONTILE
360
B4
  3
REFRACTIONTILE
360
B6
  3
SPECULARTILE
360
B3
  0
DICTIONARY
  5
A8
330
A7
100
AcDbDictionary
280
     1
281
     1
  3
ACAD_XREC_ROUNDTRIP
360
427
  3
BUMPTILE
360
AA
  3
DIFFUSETILE
360
A9
  3
OPACITYTILE
360
AD
  3
REFLECTIONTILE
360
AC
  3
REFRACTIONTILE
360
AE
  3
SPECULARTILE
360
AB
  0
DICTIONARY
  5
B8
330
B7
100
AcDbDictionary
280
     1
281
     1
  3
ACAD_XREC_ROUNDTRIP
360
429
  3
BUMPTILE
360
BA
  3
DIFFUSETILE
360
B9
  3
OPACITYTILE
360
BD
  3
REFLECTIONTILE
360
BC
  3
REFRACTIONTILE
360
BE
  3
SPECULARTILE
360
BB
  0
DICTIONARY
  5
45C
330
EE
100
AcDbDictionary
280
     1
281
     1
  3
ACAD_XREC_ROUNDTRIP
360
45D
  0
DICTIONARY
  5
415
330
DA
100
AcDbDictionary
280
     1
281
     1
  3
ACAD_ROUNDTRIP_2008_TABLESTYLE_CELLSTYLEMAP
360
416
  3
ACAD_XREC_ROUNDTRIP
360
45A
  0
DICTIONARY
  5
434
330
C5
100
AcDbDictionary
280
     1
281
     1
  3
ACAD_XREC_ROUNDTRIP
360
435
  0
DICTIONARY
  5
432
330
C4
100
AcDbDictionary
280
     1
281
     1
  3
ACAD_XREC_ROUNDTRIP
360
433
  0
DICTIONARY
  5
440
330
CB
100
AcDbDictionary
280
     1
281
     1
  3
ACAD_XREC_ROUNDTRIP
360
441
  0
DICTIONARY
  5
448
330
CF
100
AcDbDictionary
280
     1
281
     1
  3
ACAD_XREC_ROUNDTRIP
360
449
  0
DICTIONARY
  5
43A
330
C8
100
AcDbDictionary
280
     1
281
     1
  3
ACAD_XREC_ROUNDTRIP
360
43B
  0
DICTIONARY
  5
43E
330
CA
100
AcDbDictionary
280
     1
281
     1
  3
ACAD_XREC_ROUNDTRIP
360
43F
  0
DICTIONARY
  5
458
330
D7
100
AcDbDictionary
280
     1
281
     1
  3
ACAD_XREC_ROUNDTRIP
360
459
  0
DICTIONARY
  5
446
330
CE
100
AcDbDictionary
280
     1
281
     1
  3
ACAD_XREC_ROUNDTRIP
360
447
  0
DICTIONARY
  5
42A
330
C0
100
AcDbDictionary
280
     1
281
     1
  3
ACAD_XREC_ROUNDTRIP
360
42B
  0
DICTIONARY
  5
42C
330
C1
100
AcDbDictionary
280
     1
281
     1
  3
ACAD_XREC_ROUNDTRIP
360
42D
  0
DICTIONARY
  5
42E
330
C2
100
AcDbDictionary
280
     1
281
     1
  3
ACAD_XREC_ROUNDTRIP
360
42F
  0
DICTIONARY
  5
430
330
C3
100
AcDbDictionary
280
     1
281
     1
  3
ACAD_XREC_ROUNDTRIP
360
431
  0
DICTIONARY
  5
438
330
C7
100
AcDbDictionary
280
     1
281
     1
  3
ACAD_XREC_ROUNDTRIP
360
439
  0
DICTIONARY
  5
454
330
D5
100
AcDbDictionary
280
     1
281
     1
  3
ACAD_XREC_ROUNDTRIP
360
455
  0
DICTIONARY
  5
444
330
CD
100
AcDbDictionary
280
     1
281
     1
  3
ACAD_XREC_ROUNDTRIP
360
445
  0
DICTIONARY
  5
456
330
D6
100
AcDbDictionary
280
     1
281
     1
  3
ACAD_XREC_ROUNDTRIP
360
457
  0
DICTIONARY
  5
43C
330
C9
100
AcDbDictionary
280
     1
281
     1
  3
ACAD_XREC_ROUNDTRIP
360
43D
  0
DICTIONARY
  5
452
330
D4
100
AcDbDictionary
280
     1
281
     1
  3
ACAD_XREC_ROUNDTRIP
360
453
  0
DICTIONARY
  5
450
330
D3
100
AcDbDictionary
280
     1
281
     1
  3
ACAD_XREC_ROUNDTRIP
360
451
  0
DICTIONARY
  5
44A
330
D0
100
AcDbDictionary
280
     1
281
     1
  3
ACAD_XREC_ROUNDTRIP
360
44B
  0
DICTIONARY
  5
44C
330
D1
100
AcDbDictionary
280
     1
281
     1
  3
ACAD_XREC_ROUNDTRIP
360
44D
  0
DICTIONARY
  5
442
330
CC
100
AcDbDictionary
280
     1
281
     1
  3
ACAD_XREC_ROUNDTRIP
360
443
  0
DICTIONARY
  5
436
330
C6
100
AcDbDictionary
280
     1
281
     1
  3
ACAD_XREC_ROUNDTRIP
360
437
  0
DICTIONARY
  5
44E
330
D2
100
AcDbDictionary
280
     1
281
     1
  3
ACAD_XREC_ROUNDTRIP
360
44F
  0
XRECORD
  5
41B
102
{ACAD_REACTORS
330
421
102
}
330
421
100
AcDbXrecord
280
     1
  1
AcDb_Thumbnail_Schema
102
{ATTRRECORD
341
41C
  2
AcDbDs::TreatedAsObjectData
280
     1
291
     1
102
ATTRRECORD}
102
{ATTRRECORD
341
41D
  2
AcDbDs::Legacy
280
     1
291
     1
102
ATTRRECORD}
  2
AcDbDs::ID
280
    10
 91
        8
102
{ATTRRECORD
341
41E
  2
AcDs:Indexable
280
     1
291
     1
102
ATTRRECORD}
102
{ATTRRECORD
341
41F
  2
AcDbDs::HandleAttribute
280
     7
282
     1
102
ATTRRECORD}
  2
Thumbnail_Data
280
    15
 91
        0
  0
XRECORD
  5
41C
102
{ACAD_REACTORS
330
421
102
}
330
421
100
AcDbXrecord
280
     1
  1
AcDbDs::TreatedAsObjectDataSchema
  2
AcDbDs::TreatedAsObjectData
280
     1
 91
        0
  0
XRECORD
  5
41D
102
{ACAD_REACTORS
330
421
102
}
330
421
100
AcDbXrecord
280
     1
  1
AcDbDs::LegacySchema
  2
AcDbDs::Legacy
280
     1
 91
        0
  0
XRECORD
  5
41E
102
{ACAD_REACTORS
330
421
102
}
330
421
100
AcDbXrecord
280
     1
  1
AcDbDs::IndexedPropertySchema
  2
AcDs:Indexable
280
     1
 91
        0
  0
XRECORD
  5
41F
102
{ACAD_REACTORS
330
421
102
}
330
421
100
AcDbXrecord
280
     1
  1
AcDbDs::HandleAttributeSchema
  2
AcDbDs::HandleAttribute
280
     7
 91
        1
284
     1
  0
XRECORD
  5
424
102
{ACAD_REACTORS
330
423
102
}
330
423
100
AcDbXrecord
280
     1
102
SHADEPLOT
 70
     0
102
SHADEPLOTRESLEVEL
 70
     2
102
SHADEPLOTCUSTOMDPI
 70
   300
  0
XRECORD
  5
426
102
{ACAD_REACTORS
330
425
102
}
330
425
100
AcDbXrecord
280
     1
102
SHADEPLOT
 70
     0
102
SHADEPLOTRESLEVEL
 70
     2
102
SHADEPLOTCUSTOMDPI
 70
   300
  0
XRECORD
  5
428
102
{ACAD_REACTORS
330
B0
102
}
330
B0
100
AcDbXrecord
280
     1
102
MATERIAL
148
0.0
149
0.0
149
0.0
 93
        0
 94
      127
282
     0
 72
     0
 77
     0
171
     0
175
     0
179
     0
273
     0
  0
XRECORD
  5
B2
102
{ACAD_REACTORS
330
B0
102
}
330
B0
100
AcDbXrecord
280
     1
270
     1
271
     1
  0
XRECORD
  5
B1
102
{ACAD_REACTORS
330
B0
102
}
330
B0
100
AcDbXrecord
280
     1
270
     1
271
     1
  0
XRECORD
  5
B5
102
{ACAD_REACTORS
330
B0
102
}
330
B0
100
AcDbXrecord
280
     1
270
     1
271
     1
  0
XRECORD
  5
B4
102
{ACAD_REACTORS
330
B0
102
}
330
B0
100
AcDbXrecord
280
     1
270
     1
271
     1
  0
XRECORD
  5
B6
102
{ACAD_REACTORS
330
B0
102
}
330
B0
100
AcDbXrecord
280
     1
270
     1
271
     1
  0
XRECORD
  5
B3
102
{ACAD_REACTORS
330
B0
102
}
330
B0
100
AcDbXrecord
280
     1
270
     1
271
     1
  0
XRECORD
  5
427
102
{ACAD_REACTORS
330
A8
102
}
330
A8
100
AcDbXrecord
280
     1
102
MATERIAL
148
0.0
149
0.0
149
0.0
 93
        0
 94
      127
282
     0
 72
     0
 77
     0
171
     0
175
     0
179
     0
273
     0
  0
XRECORD
  5
AA
102
{ACAD_REACTORS
330
A8
102
}
330
A8
100
AcDbXrecord
280
     1
270
     1
271
     1
  0
XRECORD
  5
A9
102
{ACAD_REACTORS
330
A8
102
}
330
A8
100
AcDbXrecord
280
     1
270
     1
271
     1
  0
XRECORD
  5
AD
102
{ACAD_REACTORS
330
A8
102
}
330
A8
100
AcDbXrecord
280
     1
270
     1
271
     1
  0
XRECORD
  5
AC
102
{ACAD_REACTORS
330
A8
102
}
330
A8
100
AcDbXrecord
280
     1
270
     1
271
     1
  0
XRECORD
  5
AE
102
{ACAD_REACTORS
330
A8
102
}
330
A8
100
AcDbXrecord
280
     1
270
     1
271
     1
  0
XRECORD
  5
AB
102
{ACAD_REACTORS
330
A8
102
}
330
A8
100
AcDbXrecord
280
     1
270
     1
271
     1
  0
XRECORD
  5
429
102
{ACAD_REACTORS
330
B8
102
}
330
B8
100
AcDbXrecord
280
     1
102
MATERIAL
148
0.0
149
0.0
149
0.0
 93
        0
 94
      127
282
     0
 72
     0
 77
     0
171
     0
175
     0
179
     0
273
     0
  0
XRECORD
  5
BA
102
{ACAD_REACTORS
330
B8
102
}
330
B8
100
AcDbXrecord
280
     1
270
     1
271
     1
  0
XRECORD
  5
B9
102
{ACAD_REACTORS
330
B8
102
}
330
B8
100
AcDbXrecord
280
     1
270
     1
271
     1
  0
XRECORD
  5
BD
102
{ACAD_REACTORS
330
B8
102
}
330
B8
100
AcDbXrecord
280
     1
270
     1
271
     1
  0
XRECORD
  5
BC
102
{ACAD_REACTORS
330
B8
102
}
330
B8
100
AcDbXrecord
280
     1
270
     1
271
     1
  0
XRECORD
  5
BE
102
{ACAD_REACTORS
330
B8
102
}
330
B8
100
AcDbXrecord
280
     1
270
     1
271
     1
  0
XRECORD
  5
BB
102
{ACAD_REACTORS
330
B8
102
}
330
B8
100
AcDbXrecord
280
     1
270
     1
271
     1
  0
XRECORD
  5
45D
102
{ACAD_REACTORS
330
45C
102
}
330
45C
100
AcDbXrecord
280
     1
102
ACAD_ROUNDTRIP_2012_MLEADER_STYLE
298
     1
  0
CELLSTYLEMAP
  5
416
102
{ACAD_REACTORS
330
415
102
}
330
415
100
AcDbCellStyleMap
 90
        3
300
CELLSTYLE
  1
TABLEFORMAT_BEGIN
 90
        5
170
     1
 91
        0
 92
    32768
 62
   257
 93
        1
300
CONTENTFORMAT
  1
CONTENTFORMAT_BEGIN
 90
        0
 91
        0
 92
      512
 93
        0
300

 40
0.0
140
1.0
 94
        5
 62
     0
340
11
144
0.25
309
CONTENTFORMAT_END
171
     0
 94
        0
309
TABLEFORMAT_END
  1
CELLSTYLE_BEGIN
 90
        1
 91
        1
300
_TITLE
309
CELLSTYLE_END
300
CELLSTYLE
  1
TABLEFORMAT_BEGIN
 90
        5
170
     1
 91
        0
 92
        0
 62
   257
 93
        1
300
CONTENTFORMAT
  1
CONTENTFORMAT_BEGIN
 90
        0
 91
        0
 92
      512
 93
        0
300

 40
0.0
140
1.0
 94
        5
 62
     0
340
11
144
0.18
309
CONTENTFORMAT_END
171
     0
 94
        0
309
TABLEFORMAT_END
  1
CELLSTYLE_BEGIN
 90
        2
 91
        1
300
_HEADER
309
CELLSTYLE_END
300
CELLSTYLE
  1
TABLEFORMAT_BEGIN
 90
        5
170
     1
 91
        0
 92
        0
 62
   257
 93
        1
300
CONTENTFORMAT
  1
CONTENTFORMAT_BEGIN
 90
        0
 91
        0
 92
      512
 93
        0
300

 40
0.0
140
1.0
 94
        2
 62
     0
340
11
144
0.18
309
CONTENTFORMAT_END
171
     0
 94
        0
309
TABLEFORMAT_END
  1
CELLSTYLE_BEGIN
 90
        3
 91
        2
300
_DATA
309
CELLSTYLE_END
  0
XRECORD
  5
45A
102
{ACAD_REACTORS
330
415
102
}
330
415
100
AcDbXrecord
280
     1
102
ACAD_ROUNDTRIP_PRE2007_TABLESTYLE
 90
      512
 91
        0
  1

 92
      512
 93
        0
  2

 94
      512
 95
        0
  3

  0
XRECORD
  5
435
102
{ACAD_REACTORS
330
434
102
}
330
434
100
AcDbXrecord
280
     1
102
RTVSPost2010Prop28
280
     1
102
RTVSPost2010PropOp28
 70
     1
102
RTVSPost2010Prop29
280
     1
102
RTVSPost2010PropOp29
 70
     1
102
RTVSPost2010Prop30
280
     0
102
RTVSPost2010PropOp30
 70
     1
102
RTVSPost2010Prop31
280
     0
102
RTVSPost2010PropOp31
 70
     1
102
RTVSPost2010Prop32
280
     0
102
RTVSPost2010PropOp32
 70
     1
102
RTVSPost2010Prop33
280
     0
102
RTVSPost2010PropOp33
 70
     1
102
RTVSPost2010Prop34
280
     0
102
RTVSPost2010PropOp34
 70
     1
102
RTVSPost2010Prop35
280
     0
102
RTVSPost2010PropOp35
 70
     1
102
RTVSPost2010Prop36
280
     0
102
RTVSPost2010PropOp36
 70
     1
102
RTVSPost2010Prop37
 90
       50
102
RTVSPost2010PropOp37
 70
     1
102
RTVSPost2010Prop38
140
0.0
102
RTVSPost2010PropOp38
 70
     1
102
RTVSPost2010Prop39
140
1.0
102
RTVSPost2010PropOp39
 70
     1
102
RTVSPost2010Prop40
 90
        0
102
RTVSPost2010PropOp40
 70
     1
102
RTVSPost2010Prop41ColorIndex
 90
       18
102
RTVSPost2010Prop41ColorRGB
 90
        0
102
RTVSPost2010PropOp41
 70
     1
102
RTVSPost2010Prop42
 90
       50
102
RTVSPost2010PropOp42
 70
     1
102
RTVSPost2010Prop43
 90
        3
102
RTVSPost2010PropOp43
 70
     1
102
RTVSPost2010Prop44ColorIndex
 90
        5
102
RTVSPost2010Prop44ColorRGB
 90
      255
102
RTVSPost2010PropOp44
 70
     1
102
RTVSPost2010Prop45
280
     0
102
RTVSPost2010PropOp45
 70
     1
102
RTVSPost2010Prop46
 90
       50
102
RTVSPost2010PropOp46
 70
     1
102
RTVSPost2010Prop47
 90
       50
102
RTVSPost2010PropOp47
 70
     1
102
RTVSPost2010Prop48
 90
       50
102
RTVSPost2010PropOp48
 70
     1
102
RTVSPost2010Prop49
280
     0
102
RTVSPost2010PropOp49
 70
     1
102
RTVSPost2010Prop50
 90
       50
102
RTVSPost2010PropOp50
 70
     1
102
RTVSPost2010Prop51ColorIndex
 90
      256
102
RTVSPost2010Prop51ColorRGB
 90
-16777216
102
RTVSPost2010PropOp51
 70
     0
102
RTVSPost2010Prop52
140
1.0
102
RTVSPost2010PropOp52
 70
     0
102
RTVSPost2010Prop53
 90
        2
102
RTVSPost2010PropOp53
 70
     1
102
RTVSPost2010Prop54
  1
strokes_ogs.tif
102
RTVSPost2010PropOp54
 70
     1
102
RTVSPost2010Prop55
280
     0
102
RTVSPost2010PropOp55
 70
     1
102
RTVSPost2010Prop56
140
1.0
102
RTVSPost2010PropOp56
 70
     1
102
RTVSPost2010Prop57
140
1.0
102
RTVSPost2010PropOp57
 70
     1
102
RTVSPropertyOp0
 70
     1
102
RTVSPropertyOp1
 70
     1
102
RTVSPropertyOp2
 70
     1
102
RTVSPropertyOp3
 70
     1
102
RTVSPropertyOp4
 70
     1
102
RTVSPropertyOp5
 70
     1
102
RTVSPropertyOp6
 70
     1
102
RTVSPropertyOp7
 70
     1
102
RTVSPropertyOp8
 70
     1
102
RTVSPropertyOp9
 70
     1
102
RTVSPropertyOp10
 70
     1
102
RTVSPropertyOp11
 70
     1
102
RTVSPropertyOp12
 70
     1
102
RTVSPropertyOp13
 70
     1
102
RTVSPropertyOp14
 70
     1
102
RTVSPropertyOp15
 70
     1
102
RTVSPropertyOp16
 70
     1
102
RTVSPropertyOp17
 70
     1
102
RTVSPropertyOp18
 70
     1
102
RTVSPropertyOp19
 70
     1
102
RTVSPropertyOp20
 70
     1
102
RTVSPropertyOp21
 70
     1
102
RTVSPropertyOp22
 70
     1
102
RTVSPropertyOp23
 70
     1
102
RTVSPropertyOp24
 70
     1
102
RTVSPropertyOp25
 70
     1
102
RTVSPropertyOp26
 70
     1
102
RTVSPropertyOp27
 70
     1
102
RTVSPropertyOp28
 70
     1
102
RTVSPropertyOp29
 70
     1
102
RTVSPropertyOp30
 70
     1
102
RTVSPropertyOp31
 70
     1
102
RTVSPropertyOp32
 70
     1
102
RTVSPropertyOp33
 70
     1
102
RTVSPropertyOp34
 70
     1
102
RTVSPropertyOp35
 70
     1
102
RTVSPropertyOp36
 70
     1
102
RTVSPropertyOp37
 70
     1
102
RTVSPropertyOp38
 70
     1
102
RTVSPropertyOp39
 70
     1
102
RTVSPropertyOp40
 70
     1
102
RTVSPropertyOp41
 70
     1
102
RTVSPropertyOp42
 70
     1
102
RTVSPropertyOp43
 70
     1
102
RTVSPropertyOp44
 70
     1
102
RTVSPropertyOp45
 70
     1
102
RTVSPropertyOp46
 70
     1
102
RTVSPropertyOp47
 70
     1
102
RTVSPropertyOp48
 70
     1
102
RTVSPropertyOp49
 70
     1
102
RTVSPropertyOp50
 70
     1
102
RTVSPropertyOp51
 70
     0
102
RTVSPropertyOp52
 70
     0
102
RTVSPropertyOp53
 70
     1
102
RTVSPropertyOp54
 70
     1
102
RTVSPropertyOp55
 70
     1
102
RTVSPropertyOp56
 70
     1
102
RTVSPropertyOp57
 70
     1
102
RTVSPropertyOp58
 70
     1
102
RTVSPropertyOp59
 70
     1
102
RTVSPropertyOp60
 70
     1
102
RTVSPropertyOp61
 70
     1
102
RTVSPropertyOp62
 70
     1
  0
XRECORD
  5
433
102
{ACAD_REACTORS
330
432
102
}
330
432
100
AcDbXrecord
280
     1
102
RTVSPost2010Prop28
280
     0
102
RTVSPost2010PropOp28
 70
     1
102
RTVSPost2010Prop29
280
     1
102
RTVSPost2010PropOp29
 70
     1
102
RTVSPost2010Prop30
280
     1
102
RTVSPost2010PropOp30
 70
     1
102
RTVSPost2010Prop31
280
     0
102
RTVSPost2010PropOp31
 70
     1
102
RTVSPost2010Prop32
280
     0
102
RTVSPost2010PropOp32
 70
     1
102
RTVSPost2010Prop33
280
     0
102
RTVSPost2010PropOp33
 70
     1
102
RTVSPost2010Prop34
280
     0
102
RTVSPost2010PropOp34
 70
     1
102
RTVSPost2010Prop35
280
     0
102
RTVSPost2010PropOp35
 70
     1
102
RTVSPost2010Prop36
280
     0
102
RTVSPost2010PropOp36
 70
     1
102
RTVSPost2010Prop37
 90
       50
102
RTVSPost2010PropOp37
 70
     1
102
RTVSPost2010Prop38
140
0.0
102
RTVSPost2010PropOp38
 70
     1
102
RTVSPost2010Prop39
140
1.0
102
RTVSPost2010PropOp39
 70
     1
102
RTVSPost2010Prop40
 90
        0
102
RTVSPost2010PropOp40
 70
     1
102
RTVSPost2010Prop41ColorIndex
 90
       18
102
RTVSPost2010Prop41ColorRGB
 90
        0
102
RTVSPost2010PropOp41
 70
     1
102
RTVSPost2010Prop42
 90
       50
102
RTVSPost2010PropOp42
 70
     1
102
RTVSPost2010Prop43
 90
        3
102
RTVSPost2010PropOp43
 70
     1
102
RTVSPost2010Prop44ColorIndex
 90
        5
102
RTVSPost2010Prop44ColorRGB
 90
      255
102
RTVSPost2010PropOp44
 70
     1
102
RTVSPost2010Prop45
280
     0
102
RTVSPost2010PropOp45
 70
     1
102
RTVSPost2010Prop46
 90
       50
102
RTVSPost2010PropOp46
 70
     1
102
RTVSPost2010Prop47
 90
       50
102
RTVSPost2010PropOp47
 70
     1
102
RTVSPost2010Prop48
 90
       50
102
RTVSPost2010PropOp48
 70
     1
102
RTVSPost2010Prop49
280
     0
102
RTVSPost2010PropOp49
 70
     1
102
RTVSPost2010Prop50
 90
       50
102
RTVSPost2010PropOp50
 70
     1
102
RTVSPost2010Prop51ColorIndex
 90
      256
102
RTVSPost2010Prop51ColorRGB
 90
-16777216
102
RTVSPost2010PropOp51
 70
     0
102
RTVSPost2010Prop52
140
1.0
102
RTVSPost2010PropOp52
 70
     0
102
RTVSPost2010Prop53
 90
        2
102
RTVSPost2010PropOp53
 70
     1
102
RTVSPost2010Prop54
  1
strokes_ogs.tif
102
RTVSPost2010PropOp54
 70
     1
102
RTVSPost2010Prop55
280
     0
102
RTVSPost2010PropOp55
 70
     1
102
RTVSPost2010Prop56
140
1.0
102
RTVSPost2010PropOp56
 70
     1
102
RTVSPost2010Prop57
140
1.0
102
RTVSPost2010PropOp57
 70
     1
102
RTVSPropertyOp0
 70
     1
102
RTVSPropertyOp1
 70
     1
102
RTVSPropertyOp2
 70
     1
102
RTVSPropertyOp3
 70
     1
102
RTVSPropertyOp4
 70
     1
102
RTVSPropertyOp5
 70
     1
102
RTVSPropertyOp6
 70
     1
102
RTVSPropertyOp7
 70
     1
102
RTVSPropertyOp8
 70
     1
102
RTVSPropertyOp9
 70
     1
102
RTVSPropertyOp10
 70
     1
102
RTVSPropertyOp11
 70
     1
102
RTVSPropertyOp12
 70
     1
102
RTVSPropertyOp13
 70
     1
102
RTVSPropertyOp14
 70
     1
102
RTVSPropertyOp15
 70
     1
102
RTVSPropertyOp16
 70
     1
102
RTVSPropertyOp17
 70
     1
102
RTVSPropertyOp18
 70
     1
102
RTVSPropertyOp19
 70
     1
102
RTVSPropertyOp20
 70
     1
102
RTVSPropertyOp21
 70
     1
102
RTVSPropertyOp22
 70
     1
102
RTVSPropertyOp23
 70
     1
102
RTVSPropertyOp24
 70
     1
102
RTVSPropertyOp25
 70
     1
102
RTVSPropertyOp26
 70
     1
102
RTVSPropertyOp27
 70
     1
102
RTVSPropertyOp28
 70
     1
102
RTVSPropertyOp29
 70
     1
102
RTVSPropertyOp30
 70
     1
102
RTVSPropertyOp31
 70
     1
102
RTVSPropertyOp32
 70
     1
102
RTVSPropertyOp33
 70
     1
102
RTVSPropertyOp34
 70
     1
102
RTVSPropertyOp35
 70
     1
102
RTVSPropertyOp36
 70
     1
102
RTVSPropertyOp37
 70
     1
102
RTVSPropertyOp38
 70
     1
102
RTVSPropertyOp39
 70
     1
102
RTVSPropertyOp40
 70
     1
102
RTVSPropertyOp41
 70
     1
102
RTVSPropertyOp42
 70
     1
102
RTVSPropertyOp43
 70
     1
102
RTVSPropertyOp44
 70
     1
102
RTVSPropertyOp45
 70
     1
102
RTVSPropertyOp46
 70
     1
102
RTVSPropertyOp47
 70
     1
102
RTVSPropertyOp48
 70
     1
102
RTVSPropertyOp49
 70
     1
102
RTVSPropertyOp50
 70
     1
102
RTVSPropertyOp51
 70
     0
102
RTVSPropertyOp52
 70
     0
102
RTVSPropertyOp53
 70
     1
102
RTVSPropertyOp54
 70
     1
102
RTVSPropertyOp55
 70
     1
102
RTVSPropertyOp56
 70
     1
102
RTVSPropertyOp57
 70
     1
102
RTVSPropertyOp58
 70
     1
102
RTVSPropertyOp59
 70
     1
102
RTVSPropertyOp60
 70
     1
102
RTVSPropertyOp61
 70
     1
102
RTVSPropertyOp62
 70
     1
  0
XRECORD
  5
441
102
{ACAD_REACTORS
330
440
102
}
330
440
100
AcDbXrecord
280
     1
102
RTVSPost2010Prop28
280
     0
102
RTVSPost2010PropOp28
 70
     1
102
RTVSPost2010Prop29
280
     1
102
RTVSPost2010PropOp29
 70
     1
102
RTVSPost2010Prop30
280
     1
102
RTVSPost2010PropOp30
 70
     1
102
RTVSPost2010Prop31
280
     0
102
RTVSPost2010PropOp31
 70
     1
102
RTVSPost2010Prop32
280
     0
102
RTVSPost2010PropOp32
 70
     1
102
RTVSPost2010Prop33
280
     0
102
RTVSPost2010PropOp33
 70
     1
102
RTVSPost2010Prop34
280
     0
102
RTVSPost2010PropOp34
 70
     1
102
RTVSPost2010Prop35
280
     0
102
RTVSPost2010PropOp35
 70
     1
102
RTVSPost2010Prop36
280
     0
102
RTVSPost2010PropOp36
 70
     1
102
RTVSPost2010Prop37
 90
       50
102
RTVSPost2010PropOp37
 70
     1
102
RTVSPost2010Prop38
140
0.0
102
RTVSPost2010PropOp38
 70
     1
102
RTVSPost2010Prop39
140
1.0
102
RTVSPost2010PropOp39
 70
     1
102
RTVSPost2010Prop40
 90
        0
102
RTVSPost2010PropOp40
 70
     1
102
RTVSPost2010Prop41ColorIndex
 90
       18
102
RTVSPost2010Prop41ColorRGB
 90
        0
102
RTVSPost2010PropOp41
 70
     1
102
RTVSPost2010Prop42
 90
       50
102
RTVSPost2010PropOp42
 70
     1
102
RTVSPost2010Prop43
 90
        3
102
RTVSPost2010PropOp43
 70
     1
102
RTVSPost2010Prop44ColorIndex
 90
        5
102
RTVSPost2010Prop44ColorRGB
 90
      255
102
RTVSPost2010PropOp44
 70
     1
102
RTVSPost2010Prop45
280
     0
102
RTVSPost2010PropOp45
 70
     1
102
RTVSPost2010Prop46
 90
       50
102
RTVSPost2010PropOp46
 70
     1
102
RTVSPost2010Prop47
 90
       50
102
RTVSPost2010PropOp47
 70
     1
102
RTVSPost2010Prop48
 90
       50
102
RTVSPost2010PropOp48
 70
     1
102
RTVSPost2010Prop49
280
     0
102
RTVSPost2010PropOp49
 70
     1
102
RTVSPost2010Prop50
 90
       50
102
RTVSPost2010PropOp50
 70
     1
102
RTVSPost2010Prop51ColorIndex
 90
      256
102
RTVSPost2010Prop51ColorRGB
 90
-16777216
102
RTVSPost2010PropOp51
 70
     0
102
RTVSPost2010Prop52
140
1.0
102
RTVSPost2010PropOp52
 70
     0
102
RTVSPost2010Prop53
 90
        2
102
RTVSPost2010PropOp53
 70
     1
102
RTVSPost2010Prop54
  1
strokes_ogs.tif
102
RTVSPost2010PropOp54
 70
     1
102
RTVSPost2010Prop55
280
     0
102
RTVSPost2010PropOp55
 70
     1
102
RTVSPost2010Prop56
140
1.0
102
RTVSPost2010PropOp56
 70
     1
102
RTVSPost2010Prop57
140
1.0
102
RTVSPost2010PropOp57
 70
     1
102
RTVSPropertyOp0
 70
     1
102
RTVSPropertyOp1
 70
     1
102
RTVSPropertyOp2
 70
     1
102
RTVSPropertyOp3
 70
     1
102
RTVSPropertyOp4
 70
     1
102
RTVSPropertyOp5
 70
     1
102
RTVSPropertyOp6
 70
     1
102
RTVSPropertyOp7
 70
     1
102
RTVSPropertyOp8
 70
     1
102
RTVSPropertyOp9
 70
     1
102
RTVSPropertyOp10
 70
     1
102
RTVSPropertyOp11
 70
     1
102
RTVSPropertyOp12
 70
     1
102
RTVSPropertyOp13
 70
     1
102
RTVSPropertyOp14
 70
     1
102
RTVSPropertyOp15
 70
     1
102
RTVSPropertyOp16
 70
     1
102
RTVSPropertyOp17
 70
     1
102
RTVSPropertyOp18
 70
     1
102
RTVSPropertyOp19
 70
     1
102
RTVSPropertyOp20
 70
     1
102
RTVSPropertyOp21
 70
     1
102
RTVSPropertyOp22
 70
     1
102
RTVSPropertyOp23
 70
     1
102
RTVSPropertyOp24
 70
     1
102
RTVSPropertyOp25
 70
     1
102
RTVSPropertyOp26
 70
     1
102
RTVSPropertyOp27
 70
     1
102
RTVSPropertyOp28
 70
     1
102
RTVSPropertyOp29
 70
     1
102
RTVSPropertyOp30
 70
     1
102
RTVSPropertyOp31
 70
     1
102
RTVSPropertyOp32
 70
     1
102
RTVSPropertyOp33
 70
     1
102
RTVSPropertyOp34
 70
     1
102
RTVSPropertyOp35
 70
     1
102
RTVSPropertyOp36
 70
     1
102
RTVSPropertyOp37
 70
     1
102
RTVSPropertyOp38
 70
     1
102
RTVSPropertyOp39
 70
     1
102
RTVSPropertyOp40
 70
     1
102
RTVSPropertyOp41
 70
     1
102
RTVSPropertyOp42
 70
     1
102
RTVSPropertyOp43
 70
     1
102
RTVSPropertyOp44
 70
     1
102
RTVSPropertyOp45
 70
     1
102
RTVSPropertyOp46
 70
     1
102
RTVSPropertyOp47
 70
     1
102
RTVSPropertyOp48
 70
     1
102
RTVSPropertyOp49
 70
     1
102
RTVSPropertyOp50
 70
     1
102
RTVSPropertyOp51
 70
     0
102
RTVSPropertyOp52
 70
     0
102
RTVSPropertyOp53
 70
     1
102
RTVSPropertyOp54
 70
     1
102
RTVSPropertyOp55
 70
     1
102
RTVSPropertyOp56
 70
     1
102
RTVSPropertyOp57
 70
     1
102
RTVSPropertyOp58
 70
     1
102
RTVSPropertyOp59
 70
     1
102
RTVSPropertyOp60
 70
     1
102
RTVSPropertyOp61
 70
     1
102
RTVSPropertyOp62
 70
     1
  0
XRECORD
  5
449
102
{ACAD_REACTORS
330
448
102
}
330
448
100
AcDbXrecord
280
     1
102
RTVSPost2010Prop28
280
     0
102
RTVSPost2010PropOp28
 70
     1
102
RTVSPost2010Prop29
280
     1
102
RTVSPost2010PropOp29
 70
     1
102
RTVSPost2010Prop30
280
     1
102
RTVSPost2010PropOp30
 70
     1
102
RTVSPost2010Prop31
280
     0
102
RTVSPost2010PropOp31
 70
     1
102
RTVSPost2010Prop32
280
     0
102
RTVSPost2010PropOp32
 70
     1
102
RTVSPost2010Prop33
280
     0
102
RTVSPost2010PropOp33
 70
     1
102
RTVSPost2010Prop34
280
     0
102
RTVSPost2010PropOp34
 70
     1
102
RTVSPost2010Prop35
280
     0
102
RTVSPost2010PropOp35
 70
     1
102
RTVSPost2010Prop36
280
     0
102
RTVSPost2010PropOp36
 70
     1
102
RTVSPost2010Prop37
 90
       50
102
RTVSPost2010PropOp37
 70
     1
102
RTVSPost2010Prop38
140
0.0
102
RTVSPost2010PropOp38
 70
     1
102
RTVSPost2010Prop39
140
1.0
102
RTVSPost2010PropOp39
 70
     1
102
RTVSPost2010Prop40
 90
        0
102
RTVSPost2010PropOp40
 70
     1
102
RTVSPost2010Prop41ColorIndex
 90
       18
102
RTVSPost2010Prop41ColorRGB
 90
        0
102
RTVSPost2010PropOp41
 70
     1
102
RTVSPost2010Prop42
 90
       50
102
RTVSPost2010PropOp42
 70
     1
102
RTVSPost2010Prop43
 90
        3
102
RTVSPost2010PropOp43
 70
     1
102
RTVSPost2010Prop44ColorIndex
 90
        5
102
RTVSPost2010Prop44ColorRGB
 90
      255
102
RTVSPost2010PropOp44
 70
     1
102
RTVSPost2010Prop45
280
     0
102
RTVSPost2010PropOp45
 70
     1
102
RTVSPost2010Prop46
 90
       50
102
RTVSPost2010PropOp46
 70
     1
102
RTVSPost2010Prop47
 90
       50
102
RTVSPost2010PropOp47
 70
     1
102
RTVSPost2010Prop48
 90
       50
102
RTVSPost2010PropOp48
 70
     1
102
RTVSPost2010Prop49
280
     0
102
RTVSPost2010PropOp49
 70
     1
102
RTVSPost2010Prop50
 90
       50
102
RTVSPost2010PropOp50
 70
     1
102
RTVSPost2010Prop51ColorIndex
 90
      256
102
RTVSPost2010Prop51ColorRGB
 90
-16777216
102
RTVSPost2010PropOp51
 70
     0
102
RTVSPost2010Prop52
140
1.0
102
RTVSPost2010PropOp52
 70
     0
102
RTVSPost2010Prop53
 90
        2
102
RTVSPost2010PropOp53
 70
     1
102
RTVSPost2010Prop54
  1
strokes_ogs.tif
102
RTVSPost2010PropOp54
 70
     1
102
RTVSPost2010Prop55
280
     0
102
RTVSPost2010PropOp55
 70
     1
102
RTVSPost2010Prop56
140
1.0
102
RTVSPost2010PropOp56
 70
     1
102
RTVSPost2010Prop57
140
1.0
102
RTVSPost2010PropOp57
 70
     1
102
RTVSPropertyOp0
 70
     1
102
RTVSPropertyOp1
 70
     1
102
RTVSPropertyOp2
 70
     1
102
RTVSPropertyOp3
 70
     1
102
RTVSPropertyOp4
 70
     1
102
RTVSPropertyOp5
 70
     1
102
RTVSPropertyOp6
 70
     1
102
RTVSPropertyOp7
 70
     1
102
RTVSPropertyOp8
 70
     1
102
RTVSPropertyOp9
 70
     1
102
RTVSPropertyOp10
 70
     1
102
RTVSPropertyOp11
 70
     1
102
RTVSPropertyOp12
 70
     1
102
RTVSPropertyOp13
 70
     1
102
RTVSPropertyOp14
 70
     1
102
RTVSPropertyOp15
 70
     1
102
RTVSPropertyOp16
 70
     1
102
RTVSPropertyOp17
 70
     1
102
RTVSPropertyOp18
 70
     1
102
RTVSPropertyOp19
 70
     1
102
RTVSPropertyOp20
 70
     1
102
RTVSPropertyOp21
 70
     1
102
RTVSPropertyOp22
 70
     1
102
RTVSPropertyOp23
 70
     1
102
RTVSPropertyOp24
 70
     1
102
RTVSPropertyOp25
 70
     1
102
RTVSPropertyOp26
 70
     1
102
RTVSPropertyOp27
 70
     1
102
RTVSPropertyOp28
 70
     1
102
RTVSPropertyOp29
 70
     1
102
RTVSPropertyOp30
 70
     1
102
RTVSPropertyOp31
 70
     1
102
RTVSPropertyOp32
 70
     1
102
RTVSPropertyOp33
 70
     1
102
RTVSPropertyOp34
 70
     1
102
RTVSPropertyOp35
 70
     1
102
RTVSPropertyOp36
 70
     1
102
RTVSPropertyOp37
 70
     1
102
RTVSPropertyOp38
 70
     1
102
RTVSPropertyOp39
 70
     1
102
RTVSPropertyOp40
 70
     1
102
RTVSPropertyOp41
 70
     1
102
RTVSPropertyOp42
 70
     1
102
RTVSPropertyOp43
 70
     1
102
RTVSPropertyOp44
 70
     1
102
RTVSPropertyOp45
 70
     1
102
RTVSPropertyOp46
 70
     1
102
RTVSPropertyOp47
 70
     1
102
RTVSPropertyOp48
 70
     1
102
RTVSPropertyOp49
 70
     1
102
RTVSPropertyOp50
 70
     1
102
RTVSPropertyOp51
 70
     0
102
RTVSPropertyOp52
 70
     0
102
RTVSPropertyOp53
 70
     1
102
RTVSPropertyOp54
 70
     1
102
RTVSPropertyOp55
 70
     1
102
RTVSPropertyOp56
 70
     1
102
RTVSPropertyOp57
 70
     1
102
RTVSPropertyOp58
 70
     1
102
RTVSPropertyOp59
 70
     1
102
RTVSPropertyOp60
 70
     1
102
RTVSPropertyOp61
 70
     1
102
RTVSPropertyOp62
 70
     1
  0
XRECORD
  5
43B
102
{ACAD_REACTORS
330
43A
102
}
330
43A
100
AcDbXrecord
280
     1
102
RTVSPost2010Prop28
280
     0
102
RTVSPost2010PropOp28
 70
     1
102
RTVSPost2010Prop29
280
     1
102
RTVSPost2010PropOp29
 70
     1
102
RTVSPost2010Prop30
280
     1
102
RTVSPost2010PropOp30
 70
     1
102
RTVSPost2010Prop31
280
     0
102
RTVSPost2010PropOp31
 70
     1
102
RTVSPost2010Prop32
280
     0
102
RTVSPost2010PropOp32
 70
     1
102
RTVSPost2010Prop33
280
     0
102
RTVSPost2010PropOp33
 70
     1
102
RTVSPost2010Prop34
280
     0
102
RTVSPost2010PropOp34
 70
     1
102
RTVSPost2010Prop35
280
     0
102
RTVSPost2010PropOp35
 70
     1
102
RTVSPost2010Prop36
280
     0
102
RTVSPost2010PropOp36
 70
     1
102
RTVSPost2010Prop37
 90
       50
102
RTVSPost2010PropOp37
 70
     1
102
RTVSPost2010Prop38
140
0.0
102
RTVSPost2010PropOp38
 70
     1
102
RTVSPost2010Prop39
140
1.0
102
RTVSPost2010PropOp39
 70
     1
102
RTVSPost2010Prop40
 90
        0
102
RTVSPost2010PropOp40
 70
     1
102
RTVSPost2010Prop41ColorIndex
 90
       18
102
RTVSPost2010Prop41ColorRGB
 90
        0
102
RTVSPost2010PropOp41
 70
     1
102
RTVSPost2010Prop42
 90
       50
102
RTVSPost2010PropOp42
 70
     1
102
RTVSPost2010Prop43
 90
        3
102
RTVSPost2010PropOp43
 70
     1
102
RTVSPost2010Prop44ColorIndex
 90
        5
102
RTVSPost2010Prop44ColorRGB
 90
      255
102
RTVSPost2010PropOp44
 70
     1
102
RTVSPost2010Prop45
280
     0
102
RTVSPost2010PropOp45
 70
     1
102
RTVSPost2010Prop46
 90
       50
102
RTVSPost2010PropOp46
 70
     1
102
RTVSPost2010Prop47
 90
       50
102
RTVSPost2010PropOp47
 70
     1
102
RTVSPost2010Prop48
 90
       50
102
RTVSPost2010PropOp48
 70
     1
102
RTVSPost2010Prop49
280
     0
102
RTVSPost2010PropOp49
 70
     1
102
RTVSPost2010Prop50
 90
       50
102
RTVSPost2010PropOp50
 70
     1
102
RTVSPost2010Prop51ColorIndex
 90
      256
102
RTVSPost2010Prop51ColorRGB
 90
-16777216
102
RTVSPost2010PropOp51
 70
     0
102
RTVSPost2010Prop52
140
1.0
102
RTVSPost2010PropOp52
 70
     0
102
RTVSPost2010Prop53
 90
        2
102
RTVSPost2010PropOp53
 70
     1
102
RTVSPost2010Prop54
  1
strokes_ogs.tif
102
RTVSPost2010PropOp54
 70
     1
102
RTVSPost2010Prop55
280
     0
102
RTVSPost2010PropOp55
 70
     1
102
RTVSPost2010Prop56
140
1.0
102
RTVSPost2010PropOp56
 70
     1
102
RTVSPost2010Prop57
140
1.0
102
RTVSPost2010PropOp57
 70
     1
102
RTVSPropertyOp0
 70
     1
102
RTVSPropertyOp1
 70
     1
102
RTVSPropertyOp2
 70
     1
102
RTVSPropertyOp3
 70
     1
102
RTVSPropertyOp4
 70
     1
102
RTVSPropertyOp5
 70
     1
102
RTVSPropertyOp6
 70
     1
102
RTVSPropertyOp7
 70
     1
102
RTVSPropertyOp8
 70
     1
102
RTVSPropertyOp9
 70
     1
102
RTVSPropertyOp10
 70
     1
102
RTVSPropertyOp11
 70
     1
102
RTVSPropertyOp12
 70
     1
102
RTVSPropertyOp13
 70
     1
102
RTVSPropertyOp14
 70
     1
102
RTVSPropertyOp15
 70
     1
102
RTVSPropertyOp16
 70
     1
102
RTVSPropertyOp17
 70
     1
102
RTVSPropertyOp18
 70
     1
102
RTVSPropertyOp19
 70
     1
102
RTVSPropertyOp20
 70
     1
102
RTVSPropertyOp21
 70
     1
102
RTVSPropertyOp22
 70
     1
102
RTVSPropertyOp23
 70
     1
102
RTVSPropertyOp24
 70
     1
102
RTVSPropertyOp25
 70
     1
102
RTVSPropertyOp26
 70
     1
102
RTVSPropertyOp27
 70
     1
102
RTVSPropertyOp28
 70
     1
102
RTVSPropertyOp29
 70
     1
102
RTVSPropertyOp30
 70
     1
102
RTVSPropertyOp31
 70
     1
102
RTVSPropertyOp32
 70
     1
102
RTVSPropertyOp33
 70
     1
102
RTVSPropertyOp34
 70
     1
102
RTVSPropertyOp35
 70
     1
102
RTVSPropertyOp36
 70
     1
102
RTVSPropertyOp37
 70
     1
102
RTVSPropertyOp38
 70
     1
102
RTVSPropertyOp39
 70
     1
102
RTVSPropertyOp40
 70
     1
102
RTVSPropertyOp41
 70
     1
102
RTVSPropertyOp42
 70
     1
102
RTVSPropertyOp43
 70
     1
102
RTVSPropertyOp44
 70
     1
102
RTVSPropertyOp45
 70
     1
102
RTVSPropertyOp46
 70
     1
102
RTVSPropertyOp47
 70
     1
102
RTVSPropertyOp48
 70
     1
102
RTVSPropertyOp49
 70
     1
102
RTVSPropertyOp50
 70
     1
102
RTVSPropertyOp51
 70
     0
102
RTVSPropertyOp52
 70
     0
102
RTVSPropertyOp53
 70
     1
102
RTVSPropertyOp54
 70
     1
102
RTVSPropertyOp55
 70
     1
102
RTVSPropertyOp56
 70
     1
102
RTVSPropertyOp57
 70
     1
102
RTVSPropertyOp58
 70
     1
102
RTVSPropertyOp59
 70
     1
102
RTVSPropertyOp60
 70
     1
102
RTVSPropertyOp61
 70
     1
102
RTVSPropertyOp62
 70
     1
  0
XRECORD
  5
43F
102
{ACAD_REACTORS
330
43E
102
}
330
43E
100
AcDbXrecord
280
     1
102
RTVSPost2010Prop28
280
     0
102
RTVSPost2010PropOp28
 70
     1
102
RTVSPost2010Prop29
280
     1
102
RTVSPost2010PropOp29
 70
     1
102
RTVSPost2010Prop30
280
     1
102
RTVSPost2010PropOp30
 70
     1
102
RTVSPost2010Prop31
280
     0
102
RTVSPost2010PropOp31
 70
     1
102
RTVSPost2010Prop32
280
     0
102
RTVSPost2010PropOp32
 70
     1
102
RTVSPost2010Prop33
280
     0
102
RTVSPost2010PropOp33
 70
     1
102
RTVSPost2010Prop34
280
     0
102
RTVSPost2010PropOp34
 70
     1
102
RTVSPost2010Prop35
280
     0
102
RTVSPost2010PropOp35
 70
     1
102
RTVSPost2010Prop36
280
     0
102
RTVSPost2010PropOp36
 70
     1
102
RTVSPost2010Prop37
 90
       50
102
RTVSPost2010PropOp37
 70
     1
102
RTVSPost2010Prop38
140
0.0
102
RTVSPost2010PropOp38
 70
     1
102
RTVSPost2010Prop39
140
1.0
102
RTVSPost2010PropOp39
 70
     1
102
RTVSPost2010Prop40
 90
        0
102
RTVSPost2010PropOp40
 70
     1
102
RTVSPost2010Prop41ColorIndex
 90
       18
102
RTVSPost2010Prop41ColorRGB
 90
        0
102
RTVSPost2010PropOp41
 70
     1
102
RTVSPost2010Prop42
 90
       50
102
RTVSPost2010PropOp42
 70
     1
102
RTVSPost2010Prop43
 90
        3
102
RTVSPost2010PropOp43
 70
     1
102
RTVSPost2010Prop44ColorIndex
 90
        5
102
RTVSPost2010Prop44ColorRGB
 90
      255
102
RTVSPost2010PropOp44
 70
     1
102
RTVSPost2010Prop45
280
     0
102
RTVSPost2010PropOp45
 70
     1
102
RTVSPost2010Prop46
 90
       50
102
RTVSPost2010PropOp46
 70
     1
102
RTVSPost2010Prop47
 90
       50
102
RTVSPost2010PropOp47
 70
     1
102
RTVSPost2010Prop48
 90
       50
102
RTVSPost2010PropOp48
 70
     1
102
RTVSPost2010Prop49
280
     0
102
RTVSPost2010PropOp49
 70
     1
102
RTVSPost2010Prop50
 90
       50
102
RTVSPost2010PropOp50
 70
     1
102
RTVSPost2010Prop51ColorIndex
 90
      256
102
RTVSPost2010Prop51ColorRGB
 90
-16777216
102
RTVSPost2010PropOp51
 70
     0
102
RTVSPost2010Prop52
140
1.0
102
RTVSPost2010PropOp52
 70
     0
102
RTVSPost2010Prop53
 90
        2
102
RTVSPost2010PropOp53
 70
     1
102
RTVSPost2010Prop54
  1
strokes_ogs.tif
102
RTVSPost2010PropOp54
 70
     1
102
RTVSPost2010Prop55
280
     0
102
RTVSPost2010PropOp55
 70
     1
102
RTVSPost2010Prop56
140
1.0
102
RTVSPost2010PropOp56
 70
     1
102
RTVSPost2010Prop57
140
1.0
102
RTVSPost2010PropOp57
 70
     1
102
RTVSPropertyOp0
 70
     1
102
RTVSPropertyOp1
 70
     1
102
RTVSPropertyOp2
 70
     1
102
RTVSPropertyOp3
 70
     1
102
RTVSPropertyOp4
 70
     1
102
RTVSPropertyOp5
 70
     1
102
RTVSPropertyOp6
 70
     1
102
RTVSPropertyOp7
 70
     1
102
RTVSPropertyOp8
 70
     1
102
RTVSPropertyOp9
 70
     1
102
RTVSPropertyOp10
 70
     1
102
RTVSPropertyOp11
 70
     1
102
RTVSPropertyOp12
 70
     1
102
RTVSPropertyOp13
 70
     1
102
RTVSPropertyOp14
 70
     1
102
RTVSPropertyOp15
 70
     1
102
RTVSPropertyOp16
 70
     1
102
RTVSPropertyOp17
 70
     1
102
RTVSPropertyOp18
 70
     1
102
RTVSPropertyOp19
 70
     1
102
RTVSPropertyOp20
 70
     1
102
RTVSPropertyOp21
 70
     1
102
RTVSPropertyOp22
 70
     1
102
RTVSPropertyOp23
 70
     1
102
RTVSPropertyOp24
 70
     1
102
RTVSPropertyOp25
 70
     1
102
RTVSPropertyOp26
 70
     1
102
RTVSPropertyOp27
 70
     1
102
RTVSPropertyOp28
 70
     1
102
RTVSPropertyOp29
 70
     1
102
RTVSPropertyOp30
 70
     1
102
RTVSPropertyOp31
 70
     1
102
RTVSPropertyOp32
 70
     1
102
RTVSPropertyOp33
 70
     1
102
RTVSPropertyOp34
 70
     1
102
RTVSPropertyOp35
 70
     1
102
RTVSPropertyOp36
 70
     1
102
RTVSPropertyOp37
 70
     1
102
RTVSPropertyOp38
 70
     1
102
RTVSPropertyOp39
 70
     1
102
RTVSPropertyOp40
 70
     1
102
RTVSPropertyOp41
 70
     1
102
RTVSPropertyOp42
 70
     1
102
RTVSPropertyOp43
 70
     1
102
RTVSPropertyOp44
 70
     1
102
RTVSPropertyOp45
 70
     1
102
RTVSPropertyOp46
 70
     1
102
RTVSPropertyOp47
 70
     1
102
RTVSPropertyOp48
 70
     1
102
RTVSPropertyOp49
 70
     1
102
RTVSPropertyOp50
 70
     1
102
RTVSPropertyOp51
 70
     0
102
RTVSPropertyOp52
 70
     0
102
RTVSPropertyOp53
 70
     1
102
RTVSPropertyOp54
 70
     1
102
RTVSPropertyOp55
 70
     1
102
RTVSPropertyOp56
 70
     1
102
RTVSPropertyOp57
 70
     1
102
RTVSPropertyOp58
 70
     1
102
RTVSPropertyOp59
 70
     1
102
RTVSPropertyOp60
 70
     1
102
RTVSPropertyOp61
 70
     1
102
RTVSPropertyOp62
 70
     1
  0
XRECORD
  5
459
102
{ACAD_REACTORS
330
458
102
}
330
458
100
AcDbXrecord
280
     1
102
RTVSPost2010Prop28
280
     0
102
RTVSPost2010PropOp28
 70
     0
102
RTVSPost2010Prop29
280
     1
102
RTVSPost2010PropOp29
 70
     0
102
RTVSPost2010Prop30
280
     1
102
RTVSPost2010PropOp30
 70
     0
102
RTVSPost2010Prop31
280
     0
102
RTVSPost2010PropOp31
 70
     0
102
RTVSPost2010Prop32
280
     0
102
RTVSPost2010PropOp32
 70
     0
102
RTVSPost2010Prop33
280
     0
102
RTVSPost2010PropOp33
 70
     0
102
RTVSPost2010Prop34
280
     0
102
RTVSPost2010PropOp34
 70
     0
102
RTVSPost2010Prop35
280
     0
102
RTVSPost2010PropOp35
 70
     0
102
RTVSPost2010Prop36
280
     0
102
RTVSPost2010PropOp36
 70
     0
102
RTVSPost2010Prop37
 90
       50
102
RTVSPost2010PropOp37
 70
     0
102
RTVSPost2010Prop38
140
0.0
102
RTVSPost2010PropOp38
 70
     0
102
RTVSPost2010Prop39
140
1.0
102
RTVSPost2010PropOp39
 70
     0
102
RTVSPost2010Prop40
 90
        0
102
RTVSPost2010PropOp40
 70
     0
102
RTVSPost2010Prop41ColorIndex
 90
       18
102
RTVSPost2010Prop41ColorRGB
 90
        0
102
RTVSPost2010PropOp41
 70
     0
102
RTVSPost2010Prop42
 90
       50
102
RTVSPost2010PropOp42
 70
     0
102
RTVSPost2010Prop43
 90
        3
102
RTVSPost2010PropOp43
 70
     0
102
RTVSPost2010Prop44ColorIndex
 90
        5
102
RTVSPost2010Prop44ColorRGB
 90
      255
102
RTVSPost2010PropOp44
 70
     0
102
RTVSPost2010Prop45
280
     0
102
RTVSPost2010PropOp45
 70
     0
102
RTVSPost2010Prop46
 90
       50
102
RTVSPost2010PropOp46
 70
     0
102
RTVSPost2010Prop47
 90
       50
102
RTVSPost2010PropOp47
 70
     0
102
RTVSPost2010Prop48
 90
       50
102
RTVSPost2010PropOp48
 70
     0
102
RTVSPost2010Prop49
280
     0
102
RTVSPost2010PropOp49
 70
     0
102
RTVSPost2010Prop50
 90
       50
102
RTVSPost2010PropOp50
 70
     0
102
RTVSPost2010Prop51ColorIndex
 90
      256
102
RTVSPost2010Prop51ColorRGB
 90
-16777216
102
RTVSPost2010PropOp51
 70
     0
102
RTVSPost2010Prop52
140
1.0
102
RTVSPost2010PropOp52
 70
     0
102
RTVSPost2010Prop53
 90
        2
102
RTVSPost2010PropOp53
 70
     0
102
RTVSPost2010Prop54
  1
strokes_ogs.tif
102
RTVSPost2010PropOp54
 70
     0
102
RTVSPost2010Prop55
280
     0
102
RTVSPost2010PropOp55
 70
     0
102
RTVSPost2010Prop56
140
1.0
102
RTVSPost2010PropOp56
 70
     0
102
RTVSPost2010Prop57
140
1.0
102
RTVSPost2010PropOp57
 70
     0
102
RTVSPropertyOp0
 70
     0
102
RTVSPropertyOp1
 70
     0
102
RTVSPropertyOp2
 70
     0
102
RTVSPropertyOp3
 70
     0
102
RTVSPropertyOp4
 70
     0
102
RTVSPropertyOp5
 70
     0
102
RTVSPropertyOp6
 70
     0
102
RTVSPropertyOp7
 70
     0
102
RTVSPropertyOp8
 70
     0
102
RTVSPropertyOp9
 70
     0
102
RTVSPropertyOp10
 70
     0
102
RTVSPropertyOp11
 70
     0
102
RTVSPropertyOp12
 70
     0
102
RTVSPropertyOp13
 70
     0
102
RTVSPropertyOp14
 70
     2
102
RTVSPropertyOp15
 70
     0
102
RTVSPropertyOp16
 70
     0
102
RTVSPropertyOp17
 70
     0
102
RTVSPropertyOp18
 70
     0
102
RTVSPropertyOp19
 70
     0
102
RTVSPropertyOp20
 70
     0
102
RTVSPropertyOp21
 70
     0
102
RTVSPropertyOp22
 70
     0
102
RTVSPropertyOp23
 70
     0
102
RTVSPropertyOp24
 70
     0
102
RTVSPropertyOp25
 70
     0
102
RTVSPropertyOp26
 70
     0
102
RTVSPropertyOp27
 70
     0
102
RTVSPropertyOp28
 70
     0
102
RTVSPropertyOp29
 70
     0
102
RTVSPropertyOp30
 70
     0
102
RTVSPropertyOp31
 70
     0
102
RTVSPropertyOp32
 70
     0
102
RTVSPropertyOp33
 70
     0
102
RTVSPropertyOp34
 70
     0
102
RTVSPropertyOp35
 70
     0
102
RTVSPropertyOp36
 70
     0
102
RTVSPropertyOp37
 70
     0
102
RTVSPropertyOp38
 70
     0
102
RTVSPropertyOp39
 70
     0
102
RTVSPropertyOp40
 70
     0
102
RTVSPropertyOp41
 70
     0
102
RTVSPropertyOp42
 70
     0
102
RTVSPropertyOp43
 70
     0
102
RTVSPropertyOp44
 70
     0
102
RTVSPropertyOp45
 70
     0
102
RTVSPropertyOp46
 70
     0
102
RTVSPropertyOp47
 70
     0
102
RTVSPropertyOp48
 70
     0
102
RTVSPropertyOp49
 70
     0
102
RTVSPropertyOp50
 70
     0
102
RTVSPropertyOp51
 70
     0
102
RTVSPropertyOp52
 70
     0
102
RTVSPropertyOp53
 70
     0
102
RTVSPropertyOp54
 70
     0
102
RTVSPropertyOp55
 70
     0
102
RTVSPropertyOp56
 70
     0
102
RTVSPropertyOp57
 70
     0
102
RTVSPropertyOp58
 70
     1
102
RTVSPropertyOp59
 70
     1
102
RTVSPropertyOp60
 70
     1
102
RTVSPropertyOp61
 70
     1
102
RTVSPropertyOp62
 70
     1
  0
XRECORD
  5
447
102
{ACAD_REACTORS
330
446
102
}
330
446
100
AcDbXrecord
280
     1
102
RTVSPost2010Prop28
280
     0
102
RTVSPost2010PropOp28
 70
     1
102
RTVSPost2010Prop29
280
     1
102
RTVSPost2010PropOp29
 70
     1
102
RTVSPost2010Prop30
280
     1
102
RTVSPost2010PropOp30
 70
     1
102
RTVSPost2010Prop31
280
     0
102
RTVSPost2010PropOp31
 70
     1
102
RTVSPost2010Prop32
280
     0
102
RTVSPost2010PropOp32
 70
     1
102
RTVSPost2010Prop33
280
     0
102
RTVSPost2010PropOp33
 70
     1
102
RTVSPost2010Prop34
280
     0
102
RTVSPost2010PropOp34
 70
     1
102
RTVSPost2010Prop35
280
     0
102
RTVSPost2010PropOp35
 70
     1
102
RTVSPost2010Prop36
280
     0
102
RTVSPost2010PropOp36
 70
     1
102
RTVSPost2010Prop37
 90
       50
102
RTVSPost2010PropOp37
 70
     1
102
RTVSPost2010Prop38
140
0.0
102
RTVSPost2010PropOp38
 70
     1
102
RTVSPost2010Prop39
140
1.0
102
RTVSPost2010PropOp39
 70
     1
102
RTVSPost2010Prop40
 90
        0
102
RTVSPost2010PropOp40
 70
     1
102
RTVSPost2010Prop41ColorIndex
 90
       18
102
RTVSPost2010Prop41ColorRGB
 90
        0
102
RTVSPost2010PropOp41
 70
     1
102
RTVSPost2010Prop42
 90
       50
102
RTVSPost2010PropOp42
 70
     1
102
RTVSPost2010Prop43
 90
        3
102
RTVSPost2010PropOp43
 70
     1
102
RTVSPost2010Prop44ColorIndex
 90
        5
102
RTVSPost2010Prop44ColorRGB
 90
      255
102
RTVSPost2010PropOp44
 70
     1
102
RTVSPost2010Prop45
280
     0
102
RTVSPost2010PropOp45
 70
     1
102
RTVSPost2010Prop46
 90
       50
102
RTVSPost2010PropOp46
 70
     1
102
RTVSPost2010Prop47
 90
       50
102
RTVSPost2010PropOp47
 70
     1
102
RTVSPost2010Prop48
 90
       50
102
RTVSPost2010PropOp48
 70
     1
102
RTVSPost2010Prop49
280
     0
102
RTVSPost2010PropOp49
 70
     1
102
RTVSPost2010Prop50
 90
       50
102
RTVSPost2010PropOp50
 70
     1
102
RTVSPost2010Prop51ColorIndex
 90
      256
102
RTVSPost2010Prop51ColorRGB
 90
-16777216
102
RTVSPost2010PropOp51
 70
     0
102
RTVSPost2010Prop52
140
1.0
102
RTVSPost2010PropOp52
 70
     0
102
RTVSPost2010Prop53
 90
        2
102
RTVSPost2010PropOp53
 70
     1
102
RTVSPost2010Prop54
  1
strokes_ogs.tif
102
RTVSPost2010PropOp54
 70
     1
102
RTVSPost2010Prop55
280
     0
102
RTVSPost2010PropOp55
 70
     1
102
RTVSPost2010Prop56
140
1.0
102
RTVSPost2010PropOp56
 70
     1
102
RTVSPost2010Prop57
140
1.0
102
RTVSPost2010PropOp57
 70
     1
102
RTVSPropertyOp0
 70
     1
102
RTVSPropertyOp1
 70
     1
102
RTVSPropertyOp2
 70
     1
102
RTVSPropertyOp3
 70
     1
102
RTVSPropertyOp4
 70
     1
102
RTVSPropertyOp5
 70
     1
102
RTVSPropertyOp6
 70
     1
102
RTVSPropertyOp7
 70
     1
102
RTVSPropertyOp8
 70
     1
102
RTVSPropertyOp9
 70
     1
102
RTVSPropertyOp10
 70
     1
102
RTVSPropertyOp11
 70
     1
102
RTVSPropertyOp12
 70
     1
102
RTVSPropertyOp13
 70
     1
102
RTVSPropertyOp14
 70
     1
102
RTVSPropertyOp15
 70
     1
102
RTVSPropertyOp16
 70
     1
102
RTVSPropertyOp17
 70
     1
102
RTVSPropertyOp18
 70
     1
102
RTVSPropertyOp19
 70
     1
102
RTVSPropertyOp20
 70
     1
102
RTVSPropertyOp21
 70
     1
102
RTVSPropertyOp22
 70
     1
102
RTVSPropertyOp23
 70
     1
102
RTVSPropertyOp24
 70
     1
102
RTVSPropertyOp25
 70
     1
102
RTVSPropertyOp26
 70
     1
102
RTVSPropertyOp27
 70
     1
102
RTVSPropertyOp28
 70
     1
102
RTVSPropertyOp29
 70
     1
102
RTVSPropertyOp30
 70
     1
102
RTVSPropertyOp31
 70
     1
102
RTVSPropertyOp32
 70
     1
102
RTVSPropertyOp33
 70
     1
102
RTVSPropertyOp34
 70
     1
102
RTVSPropertyOp35
 70
     1
102
RTVSPropertyOp36
 70
     1
102
RTVSPropertyOp37
 70
     1
102
RTVSPropertyOp38
 70
     1
102
RTVSPropertyOp39
 70
     1
102
RTVSPropertyOp40
 70
     1
102
RTVSPropertyOp41
 70
     1
102
RTVSPropertyOp42
 70
     1
102
RTVSPropertyOp43
 70
     1
102
RTVSPropertyOp44
 70
     1
102
RTVSPropertyOp45
 70
     1
102
RTVSPropertyOp46
 70
     1
102
RTVSPropertyOp47
 70
     1
102
RTVSPropertyOp48
 70
     1
102
RTVSPropertyOp49
 70
     1
102
RTVSPropertyOp50
 70
     1
102
RTVSPropertyOp51
 70
     0
102
RTVSPropertyOp52
 70
     0
102
RTVSPropertyOp53
 70
     1
102
RTVSPropertyOp54
 70
     1
102
RTVSPropertyOp55
 70
     1
102
RTVSPropertyOp56
 70
     1
102
RTVSPropertyOp57
 70
     1
102
RTVSPropertyOp58
 70
     1
102
RTVSPropertyOp59
 70
     1
102
RTVSPropertyOp60
 70
     1
102
RTVSPropertyOp61
 70
     1
102
RTVSPropertyOp62
 70
     1
  0
XRECORD
  5
42B
102
{ACAD_REACTORS
330
42A
102
}
330
42A
100
AcDbXrecord
280
     1
102
RTVSPost2010Prop28
280
     0
102
RTVSPost2010PropOp28
 70
     1
102
RTVSPost2010Prop29
280
     1
102
RTVSPost2010PropOp29
 70
     1
102
RTVSPost2010Prop30
280
     1
102
RTVSPost2010PropOp30
 70
     1
102
RTVSPost2010Prop31
280
     0
102
RTVSPost2010PropOp31
 70
     1
102
RTVSPost2010Prop32
280
     0
102
RTVSPost2010PropOp32
 70
     1
102
RTVSPost2010Prop33
280
     0
102
RTVSPost2010PropOp33
 70
     1
102
RTVSPost2010Prop34
280
     0
102
RTVSPost2010PropOp34
 70
     1
102
RTVSPost2010Prop35
280
     0
102
RTVSPost2010PropOp35
 70
     1
102
RTVSPost2010Prop36
280
     0
102
RTVSPost2010PropOp36
 70
     1
102
RTVSPost2010Prop37
 90
       50
102
RTVSPost2010PropOp37
 70
     1
102
RTVSPost2010Prop38
140
0.0
102
RTVSPost2010PropOp38
 70
     1
102
RTVSPost2010Prop39
140
1.0
102
RTVSPost2010PropOp39
 70
     1
102
RTVSPost2010Prop40
 90
        0
102
RTVSPost2010PropOp40
 70
     1
102
RTVSPost2010Prop41ColorIndex
 90
       18
102
RTVSPost2010Prop41ColorRGB
 90
        0
102
RTVSPost2010PropOp41
 70
     1
102
RTVSPost2010Prop42
 90
       50
102
RTVSPost2010PropOp42
 70
     1
102
RTVSPost2010Prop43
 90
        3
102
RTVSPost2010PropOp43
 70
     1
102
RTVSPost2010Prop44ColorIndex
 90
        5
102
RTVSPost2010Prop44ColorRGB
 90
      255
102
RTVSPost2010PropOp44
 70
     1
102
RTVSPost2010Prop45
280
     0
102
RTVSPost2010PropOp45
 70
     1
102
RTVSPost2010Prop46
 90
       50
102
RTVSPost2010PropOp46
 70
     1
102
RTVSPost2010Prop47
 90
       50
102
RTVSPost2010PropOp47
 70
     1
102
RTVSPost2010Prop48
 90
       50
102
RTVSPost2010PropOp48
 70
     1
102
RTVSPost2010Prop49
280
     0
102
RTVSPost2010PropOp49
 70
     1
102
RTVSPost2010Prop50
 90
       50
102
RTVSPost2010PropOp50
 70
     1
102
RTVSPost2010Prop51ColorIndex
 90
      256
102
RTVSPost2010Prop51ColorRGB
 90
-16777216
102
RTVSPost2010PropOp51
 70
     0
102
RTVSPost2010Prop52
140
1.0
102
RTVSPost2010PropOp52
 70
     0
102
RTVSPost2010Prop53
 90
        2
102
RTVSPost2010PropOp53
 70
     1
102
RTVSPost2010Prop54
  1
strokes_ogs.tif
102
RTVSPost2010PropOp54
 70
     1
102
RTVSPost2010Prop55
280
     0
102
RTVSPost2010PropOp55
 70
     1
102
RTVSPost2010Prop56
140
1.0
102
RTVSPost2010PropOp56
 70
     1
102
RTVSPost2010Prop57
140
1.0
102
RTVSPost2010PropOp57
 70
     1
102
RTVSPropertyOp0
 70
     1
102
RTVSPropertyOp1
 70
     1
102
RTVSPropertyOp2
 70
     1
102
RTVSPropertyOp3
 70
     1
102
RTVSPropertyOp4
 70
     1
102
RTVSPropertyOp5
 70
     1
102
RTVSPropertyOp6
 70
     1
102
RTVSPropertyOp7
 70
     1
102
RTVSPropertyOp8
 70
     1
102
RTVSPropertyOp9
 70
     1
102
RTVSPropertyOp10
 70
     1
102
RTVSPropertyOp11
 70
     1
102
RTVSPropertyOp12
 70
     1
102
RTVSPropertyOp13
 70
     1
102
RTVSPropertyOp14
 70
     1
102
RTVSPropertyOp15
 70
     1
102
RTVSPropertyOp16
 70
     1
102
RTVSPropertyOp17
 70
     1
102
RTVSPropertyOp18
 70
     1
102
RTVSPropertyOp19
 70
     1
102
RTVSPropertyOp20
 70
     1
102
RTVSPropertyOp21
 70
     1
102
RTVSPropertyOp22
 70
     1
102
RTVSPropertyOp23
 70
     1
102
RTVSPropertyOp24
 70
     1
102
RTVSPropertyOp25
 70
     1
102
RTVSPropertyOp26
 70
     1
102
RTVSPropertyOp27
 70
     1
102
RTVSPropertyOp28
 70
     1
102
RTVSPropertyOp29
 70
     1
102
RTVSPropertyOp30
 70
     1
102
RTVSPropertyOp31
 70
     1
102
RTVSPropertyOp32
 70
     1
102
RTVSPropertyOp33
 70
     1
102
RTVSPropertyOp34
 70
     1
102
RTVSPropertyOp35
 70
     1
102
RTVSPropertyOp36
 70
     1
102
RTVSPropertyOp37
 70
     1
102
RTVSPropertyOp38
 70
     1
102
RTVSPropertyOp39
 70
     1
102
RTVSPropertyOp40
 70
     1
102
RTVSPropertyOp41
 70
     1
102
RTVSPropertyOp42
 70
     1
102
RTVSPropertyOp43
 70
     1
102
RTVSPropertyOp44
 70
     1
102
RTVSPropertyOp45
 70
     1
102
RTVSPropertyOp46
 70
     1
102
RTVSPropertyOp47
 70
     1
102
RTVSPropertyOp48
 70
     1
102
RTVSPropertyOp49
 70
     1
102
RTVSPropertyOp50
 70
     1
102
RTVSPropertyOp51
 70
     0
102
RTVSPropertyOp52
 70
     0
102
RTVSPropertyOp53
 70
     1
102
RTVSPropertyOp54
 70
     1
102
RTVSPropertyOp55
 70
     1
102
RTVSPropertyOp56
 70
     1
102
RTVSPropertyOp57
 70
     1
102
RTVSPropertyOp58
 70
     1
102
RTVSPropertyOp59
 70
     1
102
RTVSPropertyOp60
 70
     1
102
RTVSPropertyOp61
 70
     1
102
RTVSPropertyOp62
 70
     1
  0
XRECORD
  5
42D
102
{ACAD_REACTORS
330
42C
102
}
330
42C
100
AcDbXrecord
280
     1
102
RTVSPost2010Prop28
280
     0
102
RTVSPost2010PropOp28
 70
     1
102
RTVSPost2010Prop29
280
     1
102
RTVSPost2010PropOp29
 70
     1
102
RTVSPost2010Prop30
280
     1
102
RTVSPost2010PropOp30
 70
     1
102
RTVSPost2010Prop31
280
     0
102
RTVSPost2010PropOp31
 70
     1
102
RTVSPost2010Prop32
280
     0
102
RTVSPost2010PropOp32
 70
     1
102
RTVSPost2010Prop33
280
     0
102
RTVSPost2010PropOp33
 70
     1
102
RTVSPost2010Prop34
280
     0
102
RTVSPost2010PropOp34
 70
     1
102
RTVSPost2010Prop35
280
     0
102
RTVSPost2010PropOp35
 70
     1
102
RTVSPost2010Prop36
280
     0
102
RTVSPost2010PropOp36
 70
     1
102
RTVSPost2010Prop37
 90
       50
102
RTVSPost2010PropOp37
 70
     1
102
RTVSPost2010Prop38
140
0.0
102
RTVSPost2010PropOp38
 70
     1
102
RTVSPost2010Prop39
140
1.0
102
RTVSPost2010PropOp39
 70
     1
102
RTVSPost2010Prop40
 90
        0
102
RTVSPost2010PropOp40
 70
     1
102
RTVSPost2010Prop41ColorIndex
 90
       18
102
RTVSPost2010Prop41ColorRGB
 90
        0
102
RTVSPost2010PropOp41
 70
     1
102
RTVSPost2010Prop42
 90
       50
102
RTVSPost2010PropOp42
 70
     1
102
RTVSPost2010Prop43
 90
        3
102
RTVSPost2010PropOp43
 70
     1
102
RTVSPost2010Prop44ColorIndex
 90
        5
102
RTVSPost2010Prop44ColorRGB
 90
      255
102
RTVSPost2010PropOp44
 70
     1
102
RTVSPost2010Prop45
280
     0
102
RTVSPost2010PropOp45
 70
     1
102
RTVSPost2010Prop46
 90
       50
102
RTVSPost2010PropOp46
 70
     1
102
RTVSPost2010Prop47
 90
       50
102
RTVSPost2010PropOp47
 70
     1
102
RTVSPost2010Prop48
 90
       50
102
RTVSPost2010PropOp48
 70
     1
102
RTVSPost2010Prop49
280
     0
102
RTVSPost2010PropOp49
 70
     1
102
RTVSPost2010Prop50
 90
       50
102
RTVSPost2010PropOp50
 70
     1
102
RTVSPost2010Prop51ColorIndex
 90
      256
102
RTVSPost2010Prop51ColorRGB
 90
-16777216
102
RTVSPost2010PropOp51
 70
     0
102
RTVSPost2010Prop52
140
1.0
102
RTVSPost2010PropOp52
 70
     0
102
RTVSPost2010Prop53
 90
        2
102
RTVSPost2010PropOp53
 70
     1
102
RTVSPost2010Prop54
  1
strokes_ogs.tif
102
RTVSPost2010PropOp54
 70
     1
102
RTVSPost2010Prop55
280
     0
102
RTVSPost2010PropOp55
 70
     1
102
RTVSPost2010Prop56
140
1.0
102
RTVSPost2010PropOp56
 70
     1
102
RTVSPost2010Prop57
140
1.0
102
RTVSPost2010PropOp57
 70
     1
102
RTVSPropertyOp0
 70
     1
102
RTVSPropertyOp1
 70
     1
102
RTVSPropertyOp2
 70
     1
102
RTVSPropertyOp3
 70
     1
102
RTVSPropertyOp4
 70
     1
102
RTVSPropertyOp5
 70
     1
102
RTVSPropertyOp6
 70
     1
102
RTVSPropertyOp7
 70
     1
102
RTVSPropertyOp8
 70
     1
102
RTVSPropertyOp9
 70
     1
102
RTVSPropertyOp10
 70
     1
102
RTVSPropertyOp11
 70
     1
102
RTVSPropertyOp12
 70
     1
102
RTVSPropertyOp13
 70
     1
102
RTVSPropertyOp14
 70
     1
102
RTVSPropertyOp15
 70
     1
102
RTVSPropertyOp16
 70
     1
102
RTVSPropertyOp17
 70
     1
102
RTVSPropertyOp18
 70
     1
102
RTVSPropertyOp19
 70
     1
102
RTVSPropertyOp20
 70
     1
102
RTVSPropertyOp21
 70
     1
102
RTVSPropertyOp22
 70
     1
102
RTVSPropertyOp23
 70
     1
102
RTVSPropertyOp24
 70
     1
102
RTVSPropertyOp25
 70
     1
102
RTVSPropertyOp26
 70
     1
102
RTVSPropertyOp27
 70
     1
102
RTVSPropertyOp28
 70
     1
102
RTVSPropertyOp29
 70
     1
102
RTVSPropertyOp30
 70
     1
102
RTVSPropertyOp31
 70
     1
102
RTVSPropertyOp32
 70
     1
102
RTVSPropertyOp33
 70
     1
102
RTVSPropertyOp34
 70
     1
102
RTVSPropertyOp35
 70
     1
102
RTVSPropertyOp36
 70
     1
102
RTVSPropertyOp37
 70
     1
102
RTVSPropertyOp38
 70
     1
102
RTVSPropertyOp39
 70
     1
102
RTVSPropertyOp40
 70
     1
102
RTVSPropertyOp41
 70
     1
102
RTVSPropertyOp42
 70
     1
102
RTVSPropertyOp43
 70
     1
102
RTVSPropertyOp44
 70
     1
102
RTVSPropertyOp45
 70
     1
102
RTVSPropertyOp46
 70
     1
102
RTVSPropertyOp47
 70
     1
102
RTVSPropertyOp48
 70
     1
102
RTVSPropertyOp49
 70
     1
102
RTVSPropertyOp50
 70
     1
102
RTVSPropertyOp51
 70
     0
102
RTVSPropertyOp52
 70
     0
102
RTVSPropertyOp53
 70
     1
102
RTVSPropertyOp54
 70
     1
102
RTVSPropertyOp55
 70
     1
102
RTVSPropertyOp56
 70
     1
102
RTVSPropertyOp57
 70
     1
102
RTVSPropertyOp58
 70
     1
102
RTVSPropertyOp59
 70
     1
102
RTVSPropertyOp60
 70
     1
102
RTVSPropertyOp61
 70
     1
102
RTVSPropertyOp62
 70
     1
  0
XRECORD
  5
42F
102
{ACAD_REACTORS
330
42E
102
}
330
42E
100
AcDbXrecord
280
     1
102
RTVSPost2010Prop28
280
     0
102
RTVSPost2010PropOp28
 70
     1
102
RTVSPost2010Prop29
280
     1
102
RTVSPost2010PropOp29
 70
     1
102
RTVSPost2010Prop30
280
     1
102
RTVSPost2010PropOp30
 70
     1
102
RTVSPost2010Prop31
280
     0
102
RTVSPost2010PropOp31
 70
     1
102
RTVSPost2010Prop32
280
     0
102
RTVSPost2010PropOp32
 70
     1
102
RTVSPost2010Prop33
280
     0
102
RTVSPost2010PropOp33
 70
     1
102
RTVSPost2010Prop34
280
     0
102
RTVSPost2010PropOp34
 70
     1
102
RTVSPost2010Prop35
280
     0
102
RTVSPost2010PropOp35
 70
     1
102
RTVSPost2010Prop36
280
     0
102
RTVSPost2010PropOp36
 70
     1
102
RTVSPost2010Prop37
 90
       50
102
RTVSPost2010PropOp37
 70
     1
102
RTVSPost2010Prop38
140
0.0
102
RTVSPost2010PropOp38
 70
     1
102
RTVSPost2010Prop39
140
1.0
102
RTVSPost2010PropOp39
 70
     1
102
RTVSPost2010Prop40
 90
        0
102
RTVSPost2010PropOp40
 70
     1
102
RTVSPost2010Prop41ColorIndex
 90
       18
102
RTVSPost2010Prop41ColorRGB
 90
        0
102
RTVSPost2010PropOp41
 70
     1
102
RTVSPost2010Prop42
 90
       50
102
RTVSPost2010PropOp42
 70
     1
102
RTVSPost2010Prop43
 90
        3
102
RTVSPost2010PropOp43
 70
     1
102
RTVSPost2010Prop44ColorIndex
 90
        5
102
RTVSPost2010Prop44ColorRGB
 90
      255
102
RTVSPost2010PropOp44
 70
     1
102
RTVSPost2010Prop45
280
     0
102
RTVSPost2010PropOp45
 70
     1
102
RTVSPost2010Prop46
 90
       50
102
RTVSPost2010PropOp46
 70
     1
102
RTVSPost2010Prop47
 90
       50
102
RTVSPost2010PropOp47
 70
     1
102
RTVSPost2010Prop48
 90
       50
102
RTVSPost2010PropOp48
 70
     1
102
RTVSPost2010Prop49
280
     0
102
RTVSPost2010PropOp49
 70
     1
102
RTVSPost2010Prop50
 90
       50
102
RTVSPost2010PropOp50
 70
     1
102
RTVSPost2010Prop51ColorIndex
 90
      256
102
RTVSPost2010Prop51ColorRGB
 90
-16777216
102
RTVSPost2010PropOp51
 70
     0
102
RTVSPost2010Prop52
140
1.0
102
RTVSPost2010PropOp52
 70
     0
102
RTVSPost2010Prop53
 90
        2
102
RTVSPost2010PropOp53
 70
     1
102
RTVSPost2010Prop54
  1
strokes_ogs.tif
102
RTVSPost2010PropOp54
 70
     1
102
RTVSPost2010Prop55
280
     0
102
RTVSPost2010PropOp55
 70
     1
102
RTVSPost2010Prop56
140
1.0
102
RTVSPost2010PropOp56
 70
     1
102
RTVSPost2010Prop57
140
1.0
102
RTVSPost2010PropOp57
 70
     1
102
RTVSPropertyOp0
 70
     1
102
RTVSPropertyOp1
 70
     1
102
RTVSPropertyOp2
 70
     1
102
RTVSPropertyOp3
 70
     1
102
RTVSPropertyOp4
 70
     1
102
RTVSPropertyOp5
 70
     1
102
RTVSPropertyOp6
 70
     1
102
RTVSPropertyOp7
 70
     1
102
RTVSPropertyOp8
 70
     1
102
RTVSPropertyOp9
 70
     1
102
RTVSPropertyOp10
 70
     1
102
RTVSPropertyOp11
 70
     1
102
RTVSPropertyOp12
 70
     1
102
RTVSPropertyOp13
 70
     1
102
RTVSPropertyOp14
 70
     1
102
RTVSPropertyOp15
 70
     1
102
RTVSPropertyOp16
 70
     1
102
RTVSPropertyOp17
 70
     1
102
RTVSPropertyOp18
 70
     1
102
RTVSPropertyOp19
 70
     1
102
RTVSPropertyOp20
 70
     1
102
RTVSPropertyOp21
 70
     1
102
RTVSPropertyOp22
 70
     1
102
RTVSPropertyOp23
 70
     1
102
RTVSPropertyOp24
 70
     1
102
RTVSPropertyOp25
 70
     1
102
RTVSPropertyOp26
 70
     1
102
RTVSPropertyOp27
 70
     1
102
RTVSPropertyOp28
 70
     1
102
RTVSPropertyOp29
 70
     1
102
RTVSPropertyOp30
 70
     1
102
RTVSPropertyOp31
 70
     1
102
RTVSPropertyOp32
 70
     1
102
RTVSPropertyOp33
 70
     1
102
RTVSPropertyOp34
 70
     1
102
RTVSPropertyOp35
 70
     1
102
RTVSPropertyOp36
 70
     1
102
RTVSPropertyOp37
 70
     1
102
RTVSPropertyOp38
 70
     1
102
RTVSPropertyOp39
 70
     1
102
RTVSPropertyOp40
 70
     1
102
RTVSPropertyOp41
 70
     1
102
RTVSPropertyOp42
 70
     1
102
RTVSPropertyOp43
 70
     1
102
RTVSPropertyOp44
 70
     1
102
RTVSPropertyOp45
 70
     1
102
RTVSPropertyOp46
 70
     1
102
RTVSPropertyOp47
 70
     1
102
RTVSPropertyOp48
 70
     1
102
RTVSPropertyOp49
 70
     1
102
RTVSPropertyOp50
 70
     1
102
RTVSPropertyOp51
 70
     0
102
RTVSPropertyOp52
 70
     0
102
RTVSPropertyOp53
 70
     1
102
RTVSPropertyOp54
 70
     1
102
RTVSPropertyOp55
 70
     1
102
RTVSPropertyOp56
 70
     1
102
RTVSPropertyOp57
 70
     1
102
RTVSPropertyOp58
 70
     1
102
RTVSPropertyOp59
 70
     1
102
RTVSPropertyOp60
 70
     1
102
RTVSPropertyOp61
 70
     1
102
RTVSPropertyOp62
 70
     1
  0
XRECORD
  5
431
102
{ACAD_REACTORS
330
430
102
}
330
430
100
AcDbXrecord
280
     1
102
RTVSPost2010Prop28
280
     0
102
RTVSPost2010PropOp28
 70
     1
102
RTVSPost2010Prop29
280
     1
102
RTVSPost2010PropOp29
 70
     1
102
RTVSPost2010Prop30
280
     1
102
RTVSPost2010PropOp30
 70
     1
102
RTVSPost2010Prop31
280
     0
102
RTVSPost2010PropOp31
 70
     1
102
RTVSPost2010Prop32
280
     0
102
RTVSPost2010PropOp32
 70
     1
102
RTVSPost2010Prop33
280
     0
102
RTVSPost2010PropOp33
 70
     1
102
RTVSPost2010Prop34
280
     0
102
RTVSPost2010PropOp34
 70
     1
102
RTVSPost2010Prop35
280
     0
102
RTVSPost2010PropOp35
 70
     1
102
RTVSPost2010Prop36
280
     0
102
RTVSPost2010PropOp36
 70
     1
102
RTVSPost2010Prop37
 90
       50
102
RTVSPost2010PropOp37
 70
     1
102
RTVSPost2010Prop38
140
0.0
102
RTVSPost2010PropOp38
 70
     1
102
RTVSPost2010Prop39
140
1.0
102
RTVSPost2010PropOp39
 70
     1
102
RTVSPost2010Prop40
 90
        0
102
RTVSPost2010PropOp40
 70
     1
102
RTVSPost2010Prop41ColorIndex
 90
       18
102
RTVSPost2010Prop41ColorRGB
 90
        0
102
RTVSPost2010PropOp41
 70
     1
102
RTVSPost2010Prop42
 90
       50
102
RTVSPost2010PropOp42
 70
     1
102
RTVSPost2010Prop43
 90
        3
102
RTVSPost2010PropOp43
 70
     1
102
RTVSPost2010Prop44ColorIndex
 90
        5
102
RTVSPost2010Prop44ColorRGB
 90
      255
102
RTVSPost2010PropOp44
 70
     1
102
RTVSPost2010Prop45
280
     0
102
RTVSPost2010PropOp45
 70
     1
102
RTVSPost2010Prop46
 90
       50
102
RTVSPost2010PropOp46
 70
     1
102
RTVSPost2010Prop47
 90
       50
102
RTVSPost2010PropOp47
 70
     1
102
RTVSPost2010Prop48
 90
       50
102
RTVSPost2010PropOp48
 70
     1
102
RTVSPost2010Prop49
280
     0
102
RTVSPost2010PropOp49
 70
     1
102
RTVSPost2010Prop50
 90
       50
102
RTVSPost2010PropOp50
 70
     1
102
RTVSPost2010Prop51ColorIndex
 90
      256
102
RTVSPost2010Prop51ColorRGB
 90
-16777216
102
RTVSPost2010PropOp51
 70
     0
102
RTVSPost2010Prop52
140
1.0
102
RTVSPost2010PropOp52
 70
     0
102
RTVSPost2010Prop53
 90
        2
102
RTVSPost2010PropOp53
 70
     1
102
RTVSPost2010Prop54
  1
strokes_ogs.tif
102
RTVSPost2010PropOp54
 70
     1
102
RTVSPost2010Prop55
280
     0
102
RTVSPost2010PropOp55
 70
     1
102
RTVSPost2010Prop56
140
1.0
102
RTVSPost2010PropOp56
 70
     1
102
RTVSPost2010Prop57
140
1.0
102
RTVSPost2010PropOp57
 70
     1
102
RTVSPropertyOp0
 70
     1
102
RTVSPropertyOp1
 70
     1
102
RTVSPropertyOp2
 70
     1
102
RTVSPropertyOp3
 70
     1
102
RTVSPropertyOp4
 70
     1
102
RTVSPropertyOp5
 70
     1
102
RTVSPropertyOp6
 70
     1
102
RTVSPropertyOp7
 70
     1
102
RTVSPropertyOp8
 70
     1
102
RTVSPropertyOp9
 70
     1
102
RTVSPropertyOp10
 70
     1
102
RTVSPropertyOp11
 70
     1
102
RTVSPropertyOp12
 70
     1
102
RTVSPropertyOp13
 70
     1
102
RTVSPropertyOp14
 70
     1
102
RTVSPropertyOp15
 70
     1
102
RTVSPropertyOp16
 70
     1
102
RTVSPropertyOp17
 70
     1
102
RTVSPropertyOp18
 70
     1
102
RTVSPropertyOp19
 70
     1
102
RTVSPropertyOp20
 70
     1
102
RTVSPropertyOp21
 70
     1
102
RTVSPropertyOp22
 70
     1
102
RTVSPropertyOp23
 70
     1
102
RTVSPropertyOp24
 70
     1
102
RTVSPropertyOp25
 70
     1
102
RTVSPropertyOp26
 70
     1
102
RTVSPropertyOp27
 70
     1
102
RTVSPropertyOp28
 70
     1
102
RTVSPropertyOp29
 70
     1
102
RTVSPropertyOp30
 70
     1
102
RTVSPropertyOp31
 70
     1
102
RTVSPropertyOp32
 70
     1
102
RTVSPropertyOp33
 70
     1
102
RTVSPropertyOp34
 70
     1
102
RTVSPropertyOp35
 70
     1
102
RTVSPropertyOp36
 70
     1
102
RTVSPropertyOp37
 70
     1
102
RTVSPropertyOp38
 70
     1
102
RTVSPropertyOp39
 70
     1
102
RTVSPropertyOp40
 70
     1
102
RTVSPropertyOp41
 70
     1
102
RTVSPropertyOp42
 70
     1
102
RTVSPropertyOp43
 70
     1
102
RTVSPropertyOp44
 70
     1
102
RTVSPropertyOp45
 70
     1
102
RTVSPropertyOp46
 70
     1
102
RTVSPropertyOp47
 70
     1
102
RTVSPropertyOp48
 70
     1
102
RTVSPropertyOp49
 70
     1
102
RTVSPropertyOp50
 70
     1
102
RTVSPropertyOp51
 70
     0
102
RTVSPropertyOp52
 70
     0
102
RTVSPropertyOp53
 70
     1
102
RTVSPropertyOp54
 70
     1
102
RTVSPropertyOp55
 70
     1
102
RTVSPropertyOp56
 70
     1
102
RTVSPropertyOp57
 70
     1
102
RTVSPropertyOp58
 70
     1
102
RTVSPropertyOp59
 70
     1
102
RTVSPropertyOp60
 70
     1
102
RTVSPropertyOp61
 70
     1
102
RTVSPropertyOp62
 70
     1
  0
XRECORD
  5
439
102
{ACAD_REACTORS
330
438
102
}
330
438
100
AcDbXrecord
280
     1
102
RTVSPost2010Prop28
280
     0
102
RTVSPost2010PropOp28
 70
     1
102
RTVSPost2010Prop29
280
     1
102
RTVSPost2010PropOp29
 70
     1
102
RTVSPost2010Prop30
280
     1
102
RTVSPost2010PropOp30
 70
     1
102
RTVSPost2010Prop31
280
     0
102
RTVSPost2010PropOp31
 70
     1
102
RTVSPost2010Prop32
280
     0
102
RTVSPost2010PropOp32
 70
     1
102
RTVSPost2010Prop33
280
     0
102
RTVSPost2010PropOp33
 70
     1
102
RTVSPost2010Prop34
280
     0
102
RTVSPost2010PropOp34
 70
     1
102
RTVSPost2010Prop35
280
     0
102
RTVSPost2010PropOp35
 70
     1
102
RTVSPost2010Prop36
280
     0
102
RTVSPost2010PropOp36
 70
     1
102
RTVSPost2010Prop37
 90
       50
102
RTVSPost2010PropOp37
 70
     1
102
RTVSPost2010Prop38
140
0.0
102
RTVSPost2010PropOp38
 70
     1
102
RTVSPost2010Prop39
140
1.0
102
RTVSPost2010PropOp39
 70
     1
102
RTVSPost2010Prop40
 90
        0
102
RTVSPost2010PropOp40
 70
     1
102
RTVSPost2010Prop41ColorIndex
 90
       18
102
RTVSPost2010Prop41ColorRGB
 90
        0
102
RTVSPost2010PropOp41
 70
     1
102
RTVSPost2010Prop42
 90
       50
102
RTVSPost2010PropOp42
 70
     1
102
RTVSPost2010Prop43
 90
        3
102
RTVSPost2010PropOp43
 70
     1
102
RTVSPost2010Prop44ColorIndex
 90
        5
102
RTVSPost2010Prop44ColorRGB
 90
      255
102
RTVSPost2010PropOp44
 70
     1
102
RTVSPost2010Prop45
280
     0
102
RTVSPost2010PropOp45
 70
     1
102
RTVSPost2010Prop46
 90
       50
102
RTVSPost2010PropOp46
 70
     1
102
RTVSPost2010Prop47
 90
       50
102
RTVSPost2010PropOp47
 70
     1
102
RTVSPost2010Prop48
 90
       50
102
RTVSPost2010PropOp48
 70
     1
102
RTVSPost2010Prop49
280
     0
102
RTVSPost2010PropOp49
 70
     1
102
RTVSPost2010Prop50
 90
       50
102
RTVSPost2010PropOp50
 70
     1
102
RTVSPost2010Prop51ColorIndex
 90
      256
102
RTVSPost2010Prop51ColorRGB
 90
-16777216
102
RTVSPost2010PropOp51
 70
     0
102
RTVSPost2010Prop52
140
1.0
102
RTVSPost2010PropOp52
 70
     0
102
RTVSPost2010Prop53
 90
        2
102
RTVSPost2010PropOp53
 70
     1
102
RTVSPost2010Prop54
  1
strokes_ogs.tif
102
RTVSPost2010PropOp54
 70
     1
102
RTVSPost2010Prop55
280
     0
102
RTVSPost2010PropOp55
 70
     1
102
RTVSPost2010Prop56
140
1.0
102
RTVSPost2010PropOp56
 70
     1
102
RTVSPost2010Prop57
140
1.0
102
RTVSPost2010PropOp57
 70
     1
102
RTVSPropertyOp0
 70
     1
102
RTVSPropertyOp1
 70
     1
102
RTVSPropertyOp2
 70
     1
102
RTVSPropertyOp3
 70
     1
102
RTVSPropertyOp4
 70
     1
102
RTVSPropertyOp5
 70
     1
102
RTVSPropertyOp6
 70
     1
102
RTVSPropertyOp7
 70
     1
102
RTVSPropertyOp8
 70
     1
102
RTVSPropertyOp9
 70
     1
102
RTVSPropertyOp10
 70
     1
102
RTVSPropertyOp11
 70
     1
102
RTVSPropertyOp12
 70
     1
102
RTVSPropertyOp13
 70
     1
102
RTVSPropertyOp14
 70
     1
102
RTVSPropertyOp15
 70
     1
102
RTVSPropertyOp16
 70
     1
102
RTVSPropertyOp17
 70
     1
102
RTVSPropertyOp18
 70
     1
102
RTVSPropertyOp19
 70
     1
102
RTVSPropertyOp20
 70
     1
102
RTVSPropertyOp21
 70
     1
102
RTVSPropertyOp22
 70
     1
102
RTVSPropertyOp23
 70
     1
102
RTVSPropertyOp24
 70
     1
102
RTVSPropertyOp25
 70
     1
102
RTVSPropertyOp26
 70
     1
102
RTVSPropertyOp27
 70
     1
102
RTVSPropertyOp28
 70
     1
102
RTVSPropertyOp29
 70
     1
102
RTVSPropertyOp30
 70
     1
102
RTVSPropertyOp31
 70
     1
102
RTVSPropertyOp32
 70
     1
102
RTVSPropertyOp33
 70
     1
102
RTVSPropertyOp34
 70
     1
102
RTVSPropertyOp35
 70
     1
102
RTVSPropertyOp36
 70
     1
102
RTVSPropertyOp37
 70
     1
102
RTVSPropertyOp38
 70
     1
102
RTVSPropertyOp39
 70
     1
102
RTVSPropertyOp40
 70
     1
102
RTVSPropertyOp41
 70
     1
102
RTVSPropertyOp42
 70
     1
102
RTVSPropertyOp43
 70
     1
102
RTVSPropertyOp44
 70
     1
102
RTVSPropertyOp45
 70
     1
102
RTVSPropertyOp46
 70
     1
102
RTVSPropertyOp47
 70
     1
102
RTVSPropertyOp48
 70
     1
102
RTVSPropertyOp49
 70
     1
102
RTVSPropertyOp50
 70
     1
102
RTVSPropertyOp51
 70
     0
102
RTVSPropertyOp52
 70
     0
102
RTVSPropertyOp53
 70
     1
102
RTVSPropertyOp54
 70
     1
102
RTVSPropertyOp55
 70
     1
102
RTVSPropertyOp56
 70
     1
102
RTVSPropertyOp57
 70
     1
102
RTVSPropertyOp58
 70
     1
102
RTVSPropertyOp59
 70
     1
102
RTVSPropertyOp60
 70
     1
102
RTVSPropertyOp61
 70
     1
102
RTVSPropertyOp62
 70
     1
  0
XRECORD
  5
455
102
{ACAD_REACTORS
330
454
102
}
330
454
100
AcDbXrecord
280
     1
102
RTVSPost2010Prop28
280
     0
102
RTVSPost2010PropOp28
 70
     0
102
RTVSPost2010Prop29
280
     1
102
RTVSPost2010PropOp29
 70
     0
102
RTVSPost2010Prop30
280
     1
102
RTVSPost2010PropOp30
 70
     0
102
RTVSPost2010Prop31
280
     0
102
RTVSPost2010PropOp31
 70
     0
102
RTVSPost2010Prop32
280
     0
102
RTVSPost2010PropOp32
 70
     0
102
RTVSPost2010Prop33
280
     0
102
RTVSPost2010PropOp33
 70
     0
102
RTVSPost2010Prop34
280
     0
102
RTVSPost2010PropOp34
 70
     0
102
RTVSPost2010Prop35
280
     0
102
RTVSPost2010PropOp35
 70
     0
102
RTVSPost2010Prop36
280
     0
102
RTVSPost2010PropOp36
 70
     0
102
RTVSPost2010Prop37
 90
       50
102
RTVSPost2010PropOp37
 70
     0
102
RTVSPost2010Prop38
140
0.0
102
RTVSPost2010PropOp38
 70
     0
102
RTVSPost2010Prop39
140
1.0
102
RTVSPost2010PropOp39
 70
     0
102
RTVSPost2010Prop40
 90
        0
102
RTVSPost2010PropOp40
 70
     0
102
RTVSPost2010Prop41ColorIndex
 90
       18
102
RTVSPost2010Prop41ColorRGB
 90
        0
102
RTVSPost2010PropOp41
 70
     0
102
RTVSPost2010Prop42
 90
       50
102
RTVSPost2010PropOp42
 70
     0
102
RTVSPost2010Prop43
 90
        3
102
RTVSPost2010PropOp43
 70
     0
102
RTVSPost2010Prop44ColorIndex
 90
        5
102
RTVSPost2010Prop44ColorRGB
 90
      255
102
RTVSPost2010PropOp44
 70
     0
102
RTVSPost2010Prop45
280
     0
102
RTVSPost2010PropOp45
 70
     0
102
RTVSPost2010Prop46
 90
       50
102
RTVSPost2010PropOp46
 70
     0
102
RTVSPost2010Prop47
 90
       50
102
RTVSPost2010PropOp47
 70
     0
102
RTVSPost2010Prop48
 90
       50
102
RTVSPost2010PropOp48
 70
     0
102
RTVSPost2010Prop49
280
     0
102
RTVSPost2010PropOp49
 70
     0
102
RTVSPost2010Prop50
 90
       50
102
RTVSPost2010PropOp50
 70
     0
102
RTVSPost2010Prop51ColorIndex
 90
      256
102
RTVSPost2010Prop51ColorRGB
 90
-16777216
102
RTVSPost2010PropOp51
 70
     0
102
RTVSPost2010Prop52
140
1.0
102
RTVSPost2010PropOp52
 70
     0
102
RTVSPost2010Prop53
 90
        2
102
RTVSPost2010PropOp53
 70
     0
102
RTVSPost2010Prop54
  1
strokes_ogs.tif
102
RTVSPost2010PropOp54
 70
     0
102
RTVSPost2010Prop55
280
     0
102
RTVSPost2010PropOp55
 70
     0
102
RTVSPost2010Prop56
140
1.0
102
RTVSPost2010PropOp56
 70
     0
102
RTVSPost2010Prop57
140
1.0
102
RTVSPost2010PropOp57
 70
     0
102
RTVSPropertyOp0
 70
     0
102
RTVSPropertyOp1
 70
     0
102
RTVSPropertyOp2
 70
     0
102
RTVSPropertyOp3
 70
     0
102
RTVSPropertyOp4
 70
     0
102
RTVSPropertyOp5
 70
     0
102
RTVSPropertyOp6
 70
     0
102
RTVSPropertyOp7
 70
     0
102
RTVSPropertyOp8
 70
     0
102
RTVSPropertyOp9
 70
     0
102
RTVSPropertyOp10
 70
     0
102
RTVSPropertyOp11
 70
     0
102
RTVSPropertyOp12
 70
     0
102
RTVSPropertyOp13
 70
     0
102
RTVSPropertyOp14
 70
     2
102
RTVSPropertyOp15
 70
     0
102
RTVSPropertyOp16
 70
     0
102
RTVSPropertyOp17
 70
     0
102
RTVSPropertyOp18
 70
     0
102
RTVSPropertyOp19
 70
     0
102
RTVSPropertyOp20
 70
     0
102
RTVSPropertyOp21
 70
     0
102
RTVSPropertyOp22
 70
     0
102
RTVSPropertyOp23
 70
     0
102
RTVSPropertyOp24
 70
     0
102
RTVSPropertyOp25
 70
     0
102
RTVSPropertyOp26
 70
     0
102
RTVSPropertyOp27
 70
     0
102
RTVSPropertyOp28
 70
     0
102
RTVSPropertyOp29
 70
     0
102
RTVSPropertyOp30
 70
     0
102
RTVSPropertyOp31
 70
     0
102
RTVSPropertyOp32
 70
     0
102
RTVSPropertyOp33
 70
     0
102
RTVSPropertyOp34
 70
     0
102
RTVSPropertyOp35
 70
     0
102
RTVSPropertyOp36
 70
     0
102
RTVSPropertyOp37
 70
     0
102
RTVSPropertyOp38
 70
     0
102
RTVSPropertyOp39
 70
     0
102
RTVSPropertyOp40
 70
     0
102
RTVSPropertyOp41
 70
     0
102
RTVSPropertyOp42
 70
     0
102
RTVSPropertyOp43
 70
     0
102
RTVSPropertyOp44
 70
     0
102
RTVSPropertyOp45
 70
     0
102
RTVSPropertyOp46
 70
     0
102
RTVSPropertyOp47
 70
     0
102
RTVSPropertyOp48
 70
     0
102
RTVSPropertyOp49
 70
     0
102
RTVSPropertyOp50
 70
     0
102
RTVSPropertyOp51
 70
     0
102
RTVSPropertyOp52
 70
     0
102
RTVSPropertyOp53
 70
     0
102
RTVSPropertyOp54
 70
     0
102
RTVSPropertyOp55
 70
     0
102
RTVSPropertyOp56
 70
     0
102
RTVSPropertyOp57
 70
     0
102
RTVSPropertyOp58
 70
     1
102
RTVSPropertyOp59
 70
     1
102
RTVSPropertyOp60
 70
     1
102
RTVSPropertyOp61
 70
     1
102
RTVSPropertyOp62
 70
     1
  0
XRECORD
  5
445
102
{ACAD_REACTORS
330
444
102
}
330
444
100
AcDbXrecord
280
     1
102
RTVSPost2010Prop28
280
     0
102
RTVSPost2010PropOp28
 70
     1
102
RTVSPost2010Prop29
280
     1
102
RTVSPost2010PropOp29
 70
     1
102
RTVSPost2010Prop30
280
     1
102
RTVSPost2010PropOp30
 70
     1
102
RTVSPost2010Prop31
280
     0
102
RTVSPost2010PropOp31
 70
     1
102
RTVSPost2010Prop32
280
     0
102
RTVSPost2010PropOp32
 70
     1
102
RTVSPost2010Prop33
280
     0
102
RTVSPost2010PropOp33
 70
     1
102
RTVSPost2010Prop34
280
     0
102
RTVSPost2010PropOp34
 70
     1
102
RTVSPost2010Prop35
280
     0
102
RTVSPost2010PropOp35
 70
     1
102
RTVSPost2010Prop36
280
     0
102
RTVSPost2010PropOp36
 70
     1
102
RTVSPost2010Prop37
 90
       50
102
RTVSPost2010PropOp37
 70
     1
102
RTVSPost2010Prop38
140
0.0
102
RTVSPost2010PropOp38
 70
     1
102
RTVSPost2010Prop39
140
1.0
102
RTVSPost2010PropOp39
 70
     1
102
RTVSPost2010Prop40
 90
        0
102
RTVSPost2010PropOp40
 70
     1
102
RTVSPost2010Prop41ColorIndex
 90
       18
102
RTVSPost2010Prop41ColorRGB
 90
        0
102
RTVSPost2010PropOp41
 70
     1
102
RTVSPost2010Prop42
 90
       50
102
RTVSPost2010PropOp42
 70
     1
102
RTVSPost2010Prop43
 90
        3
102
RTVSPost2010PropOp43
 70
     1
102
RTVSPost2010Prop44ColorIndex
 90
        5
102
RTVSPost2010Prop44ColorRGB
 90
      255
102
RTVSPost2010PropOp44
 70
     1
102
RTVSPost2010Prop45
280
     0
102
RTVSPost2010PropOp45
 70
     1
102
RTVSPost2010Prop46
 90
       50
102
RTVSPost2010PropOp46
 70
     1
102
RTVSPost2010Prop47
 90
       50
102
RTVSPost2010PropOp47
 70
     1
102
RTVSPost2010Prop48
 90
       50
102
RTVSPost2010PropOp48
 70
     1
102
RTVSPost2010Prop49
280
     0
102
RTVSPost2010PropOp49
 70
     1
102
RTVSPost2010Prop50
 90
       50
102
RTVSPost2010PropOp50
 70
     1
102
RTVSPost2010Prop51ColorIndex
 90
      256
102
RTVSPost2010Prop51ColorRGB
 90
-16777216
102
RTVSPost2010PropOp51
 70
     0
102
RTVSPost2010Prop52
140
1.0
102
RTVSPost2010PropOp52
 70
     0
102
RTVSPost2010Prop53
 90
        2
102
RTVSPost2010PropOp53
 70
     1
102
RTVSPost2010Prop54
  1
strokes_ogs.tif
102
RTVSPost2010PropOp54
 70
     1
102
RTVSPost2010Prop55
280
     0
102
RTVSPost2010PropOp55
 70
     1
102
RTVSPost2010Prop56
140
1.0
102
RTVSPost2010PropOp56
 70
     1
102
RTVSPost2010Prop57
140
1.0
102
RTVSPost2010PropOp57
 70
     1
102
RTVSPropertyOp0
 70
     1
102
RTVSPropertyOp1
 70
     1
102
RTVSPropertyOp2
 70
     1
102
RTVSPropertyOp3
 70
     1
102
RTVSPropertyOp4
 70
     1
102
RTVSPropertyOp5
 70
     1
102
RTVSPropertyOp6
 70
     1
102
RTVSPropertyOp7
 70
     1
102
RTVSPropertyOp8
 70
     1
102
RTVSPropertyOp9
 70
     1
102
RTVSPropertyOp10
 70
     1
102
RTVSPropertyOp11
 70
     1
102
RTVSPropertyOp12
 70
     1
102
RTVSPropertyOp13
 70
     1
102
RTVSPropertyOp14
 70
     1
102
RTVSPropertyOp15
 70
     1
102
RTVSPropertyOp16
 70
     1
102
RTVSPropertyOp17
 70
     1
102
RTVSPropertyOp18
 70
     1
102
RTVSPropertyOp19
 70
     1
102
RTVSPropertyOp20
 70
     1
102
RTVSPropertyOp21
 70
     1
102
RTVSPropertyOp22
 70
     1
102
RTVSPropertyOp23
 70
     1
102
RTVSPropertyOp24
 70
     1
102
RTVSPropertyOp25
 70
     1
102
RTVSPropertyOp26
 70
     1
102
RTVSPropertyOp27
 70
     1
102
RTVSPropertyOp28
 70
     1
102
RTVSPropertyOp29
 70
     1
102
RTVSPropertyOp30
 70
     1
102
RTVSPropertyOp31
 70
     1
102
RTVSPropertyOp32
 70
     1
102
RTVSPropertyOp33
 70
     1
102
RTVSPropertyOp34
 70
     1
102
RTVSPropertyOp35
 70
     1
102
RTVSPropertyOp36
 70
     1
102
RTVSPropertyOp37
 70
     1
102
RTVSPropertyOp38
 70
     1
102
RTVSPropertyOp39
 70
     1
102
RTVSPropertyOp40
 70
     1
102
RTVSPropertyOp41
 70
     1
102
RTVSPropertyOp42
 70
     1
102
RTVSPropertyOp43
 70
     1
102
RTVSPropertyOp44
 70
     1
102
RTVSPropertyOp45
 70
     1
102
RTVSPropertyOp46
 70
     1
102
RTVSPropertyOp47
 70
     1
102
RTVSPropertyOp48
 70
     1
102
RTVSPropertyOp49
 70
     1
102
RTVSPropertyOp50
 70
     1
102
RTVSPropertyOp51
 70
     0
102
RTVSPropertyOp52
 70
     0
102
RTVSPropertyOp53
 70
     1
102
RTVSPropertyOp54
 70
     1
102
RTVSPropertyOp55
 70
     1
102
RTVSPropertyOp56
 70
     1
102
RTVSPropertyOp57
 70
     1
102
RTVSPropertyOp58
 70
     1
102
RTVSPropertyOp59
 70
     1
102
RTVSPropertyOp60
 70
     1
102
RTVSPropertyOp61
 70
     1
102
RTVSPropertyOp62
 70
     1
  0
XRECORD
  5
457
102
{ACAD_REACTORS
330
456
102
}
330
456
100
AcDbXrecord
280
     1
102
RTVSPost2010Prop28
280
     0
102
RTVSPost2010PropOp28
 70
     0
102
RTVSPost2010Prop29
280
     1
102
RTVSPost2010PropOp29
 70
     0
102
RTVSPost2010Prop30
280
     1
102
RTVSPost2010PropOp30
 70
     0
102
RTVSPost2010Prop31
280
     0
102
RTVSPost2010PropOp31
 70
     0
102
RTVSPost2010Prop32
280
     0
102
RTVSPost2010PropOp32
 70
     0
102
RTVSPost2010Prop33
280
     0
102
RTVSPost2010PropOp33
 70
     0
102
RTVSPost2010Prop34
280
     0
102
RTVSPost2010PropOp34
 70
     0
102
RTVSPost2010Prop35
280
     0
102
RTVSPost2010PropOp35
 70
     0
102
RTVSPost2010Prop36
280
     0
102
RTVSPost2010PropOp36
 70
     0
102
RTVSPost2010Prop37
 90
       50
102
RTVSPost2010PropOp37
 70
     0
102
RTVSPost2010Prop38
140
0.0
102
RTVSPost2010PropOp38
 70
     0
102
RTVSPost2010Prop39
140
1.0
102
RTVSPost2010PropOp39
 70
     0
102
RTVSPost2010Prop40
 90
        0
102
RTVSPost2010PropOp40
 70
     0
102
RTVSPost2010Prop41ColorIndex
 90
       18
102
RTVSPost2010Prop41ColorRGB
 90
        0
102
RTVSPost2010PropOp41
 70
     0
102
RTVSPost2010Prop42
 90
       50
102
RTVSPost2010PropOp42
 70
     0
102
RTVSPost2010Prop43
 90
        3
102
RTVSPost2010PropOp43
 70
     0
102
RTVSPost2010Prop44ColorIndex
 90
        5
102
RTVSPost2010Prop44ColorRGB
 90
      255
102
RTVSPost2010PropOp44
 70
     0
102
RTVSPost2010Prop45
280
     0
102
RTVSPost2010PropOp45
 70
     0
102
RTVSPost2010Prop46
 90
       50
102
RTVSPost2010PropOp46
 70
     0
102
RTVSPost2010Prop47
 90
       50
102
RTVSPost2010PropOp47
 70
     0
102
RTVSPost2010Prop48
 90
       50
102
RTVSPost2010PropOp48
 70
     0
102
RTVSPost2010Prop49
280
     0
102
RTVSPost2010PropOp49
 70
     0
102
RTVSPost2010Prop50
 90
       50
102
RTVSPost2010PropOp50
 70
     0
102
RTVSPost2010Prop51ColorIndex
 90
      256
102
RTVSPost2010Prop51ColorRGB
 90
-16777216
102
RTVSPost2010PropOp51
 70
     0
102
RTVSPost2010Prop52
140
1.0
102
RTVSPost2010PropOp52
 70
     0
102
RTVSPost2010Prop53
 90
        2
102
RTVSPost2010PropOp53
 70
     0
102
RTVSPost2010Prop54
  1
strokes_ogs.tif
102
RTVSPost2010PropOp54
 70
     0
102
RTVSPost2010Prop55
280
     0
102
RTVSPost2010PropOp55
 70
     0
102
RTVSPost2010Prop56
140
1.0
102
RTVSPost2010PropOp56
 70
     0
102
RTVSPost2010Prop57
140
1.0
102
RTVSPost2010PropOp57
 70
     0
102
RTVSPropertyOp0
 70
     0
102
RTVSPropertyOp1
 70
     0
102
RTVSPropertyOp2
 70
     0
102
RTVSPropertyOp3
 70
     0
102
RTVSPropertyOp4
 70
     0
102
RTVSPropertyOp5
 70
     0
102
RTVSPropertyOp6
 70
     0
102
RTVSPropertyOp7
 70
     0
102
RTVSPropertyOp8
 70
     0
102
RTVSPropertyOp9
 70
     0
102
RTVSPropertyOp10
 70
     0
102
RTVSPropertyOp11
 70
     0
102
RTVSPropertyOp12
 70
     0
102
RTVSPropertyOp13
 70
     0
102
RTVSPropertyOp14
 70
     2
102
RTVSPropertyOp15
 70
     0
102
RTVSPropertyOp16
 70
     0
102
RTVSPropertyOp17
 70
     0
102
RTVSPropertyOp18
 70
     0
102
RTVSPropertyOp19
 70
     0
102
RTVSPropertyOp20
 70
     0
102
RTVSPropertyOp21
 70
     0
102
RTVSPropertyOp22
 70
     0
102
RTVSPropertyOp23
 70
     0
102
RTVSPropertyOp24
 70
     0
102
RTVSPropertyOp25
 70
     0
102
RTVSPropertyOp26
 70
     0
102
RTVSPropertyOp27
 70
     0
102
RTVSPropertyOp28
 70
     0
102
RTVSPropertyOp29
 70
     0
102
RTVSPropertyOp30
 70
     0
102
RTVSPropertyOp31
 70
     0
102
RTVSPropertyOp32
 70
     0
102
RTVSPropertyOp33
 70
     0
102
RTVSPropertyOp34
 70
     0
102
RTVSPropertyOp35
 70
     0
102
RTVSPropertyOp36
 70
     0
102
RTVSPropertyOp37
 70
     0
102
RTVSPropertyOp38
 70
     0
102
RTVSPropertyOp39
 70
     0
102
RTVSPropertyOp40
 70
     0
102
RTVSPropertyOp41
 70
     0
102
RTVSPropertyOp42
 70
     0
102
RTVSPropertyOp43
 70
     0
102
RTVSPropertyOp44
 70
     0
102
RTVSPropertyOp45
 70
     0
102
RTVSPropertyOp46
 70
     0
102
RTVSPropertyOp47
 70
     0
102
RTVSPropertyOp48
 70
     0
102
RTVSPropertyOp49
 70
     0
102
RTVSPropertyOp50
 70
     0
102
RTVSPropertyOp51
 70
     0
102
RTVSPropertyOp52
 70
     0
102
RTVSPropertyOp53
 70
     0
102
RTVSPropertyOp54
 70
     0
102
RTVSPropertyOp55
 70
     0
102
RTVSPropertyOp56
 70
     0
102
RTVSPropertyOp57
 70
     0
102
RTVSPropertyOp58
 70
     1
102
RTVSPropertyOp59
 70
     1
102
RTVSPropertyOp60
 70
     1
102
RTVSPropertyOp61
 70
     1
102
RTVSPropertyOp62
 70
     1
  0
XRECORD
  5
43D
102
{ACAD_REACTORS
330
43C
102
}
330
43C
100
AcDbXrecord
280
     1
102
RTVSPost2010Prop28
280
     0
102
RTVSPost2010PropOp28
 70
     1
102
RTVSPost2010Prop29
280
     1
102
RTVSPost2010PropOp29
 70
     1
102
RTVSPost2010Prop30
280
     1
102
RTVSPost2010PropOp30
 70
     1
102
RTVSPost2010Prop31
280
     0
102
RTVSPost2010PropOp31
 70
     1
102
RTVSPost2010Prop32
280
     0
102
RTVSPost2010PropOp32
 70
     1
102
RTVSPost2010Prop33
280
     0
102
RTVSPost2010PropOp33
 70
     1
102
RTVSPost2010Prop34
280
     0
102
RTVSPost2010PropOp34
 70
     1
102
RTVSPost2010Prop35
280
     0
102
RTVSPost2010PropOp35
 70
     1
102
RTVSPost2010Prop36
280
     0
102
RTVSPost2010PropOp36
 70
     1
102
RTVSPost2010Prop37
 90
       50
102
RTVSPost2010PropOp37
 70
     1
102
RTVSPost2010Prop38
140
0.0
102
RTVSPost2010PropOp38
 70
     1
102
RTVSPost2010Prop39
140
1.0
102
RTVSPost2010PropOp39
 70
     1
102
RTVSPost2010Prop40
 90
        0
102
RTVSPost2010PropOp40
 70
     1
102
RTVSPost2010Prop41ColorIndex
 90
       18
102
RTVSPost2010Prop41ColorRGB
 90
        0
102
RTVSPost2010PropOp41
 70
     1
102
RTVSPost2010Prop42
 90
       50
102
RTVSPost2010PropOp42
 70
     1
102
RTVSPost2010Prop43
 90
        3
102
RTVSPost2010PropOp43
 70
     1
102
RTVSPost2010Prop44ColorIndex
 90
        5
102
RTVSPost2010Prop44ColorRGB
 90
      255
102
RTVSPost2010PropOp44
 70
     1
102
RTVSPost2010Prop45
280
     0
102
RTVSPost2010PropOp45
 70
     1
102
RTVSPost2010Prop46
 90
       50
102
RTVSPost2010PropOp46
 70
     1
102
RTVSPost2010Prop47
 90
       50
102
RTVSPost2010PropOp47
 70
     1
102
RTVSPost2010Prop48
 90
       50
102
RTVSPost2010PropOp48
 70
     1
102
RTVSPost2010Prop49
280
     0
102
RTVSPost2010PropOp49
 70
     1
102
RTVSPost2010Prop50
 90
       50
102
RTVSPost2010PropOp50
 70
     1
102
RTVSPost2010Prop51ColorIndex
 90
      256
102
RTVSPost2010Prop51ColorRGB
 90
-16777216
102
RTVSPost2010PropOp51
 70
     0
102
RTVSPost2010Prop52
140
1.0
102
RTVSPost2010PropOp52
 70
     0
102
RTVSPost2010Prop53
 90
        2
102
RTVSPost2010PropOp53
 70
     1
102
RTVSPost2010Prop54
  1
strokes_ogs.tif
102
RTVSPost2010PropOp54
 70
     1
102
RTVSPost2010Prop55
280
     0
102
RTVSPost2010PropOp55
 70
     1
102
RTVSPost2010Prop56
140
1.0
102
RTVSPost2010PropOp56
 70
     1
102
RTVSPost2010Prop57
140
1.0
102
RTVSPost2010PropOp57
 70
     1
102
RTVSPropertyOp0
 70
     1
102
RTVSPropertyOp1
 70
     1
102
RTVSPropertyOp2
 70
     1
102
RTVSPropertyOp3
 70
     1
102
RTVSPropertyOp4
 70
     1
102
RTVSPropertyOp5
 70
     1
102
RTVSPropertyOp6
 70
     1
102
RTVSPropertyOp7
 70
     1
102
RTVSPropertyOp8
 70
     1
102
RTVSPropertyOp9
 70
     1
102
RTVSPropertyOp10
 70
     1
102
RTVSPropertyOp11
 70
     1
102
RTVSPropertyOp12
 70
     1
102
RTVSPropertyOp13
 70
     1
102
RTVSPropertyOp14
 70
     1
102
RTVSPropertyOp15
 70
     1
102
RTVSPropertyOp16
 70
     1
102
RTVSPropertyOp17
 70
     1
102
RTVSPropertyOp18
 70
     1
102
RTVSPropertyOp19
 70
     1
102
RTVSPropertyOp20
 70
     1
102
RTVSPropertyOp21
 70
     1
102
RTVSPropertyOp22
 70
     1
102
RTVSPropertyOp23
 70
     1
102
RTVSPropertyOp24
 70
     1
102
RTVSPropertyOp25
 70
     1
102
RTVSPropertyOp26
 70
     1
102
RTVSPropertyOp27
 70
     1
102
RTVSPropertyOp28
 70
     1
102
RTVSPropertyOp29
 70
     1
102
RTVSPropertyOp30
 70
     1
102
RTVSPropertyOp31
 70
     1
102
RTVSPropertyOp32
 70
     1
102
RTVSPropertyOp33
 70
     1
102
RTVSPropertyOp34
 70
     1
102
RTVSPropertyOp35
 70
     1
102
RTVSPropertyOp36
 70
     1
102
RTVSPropertyOp37
 70
     1
102
RTVSPropertyOp38
 70
     1
102
RTVSPropertyOp39
 70
     1
102
RTVSPropertyOp40
 70
     1
102
RTVSPropertyOp41
 70
     1
102
RTVSPropertyOp42
 70
     1
102
RTVSPropertyOp43
 70
     1
102
RTVSPropertyOp44
 70
     1
102
RTVSPropertyOp45
 70
     1
102
RTVSPropertyOp46
 70
     1
102
RTVSPropertyOp47
 70
     1
102
RTVSPropertyOp48
 70
     1
102
RTVSPropertyOp49
 70
     1
102
RTVSPropertyOp50
 70
     1
102
RTVSPropertyOp51
 70
     0
102
RTVSPropertyOp52
 70
     0
102
RTVSPropertyOp53
 70
     1
102
RTVSPropertyOp54
 70
     1
102
RTVSPropertyOp55
 70
     1
102
RTVSPropertyOp56
 70
     1
102
RTVSPropertyOp57
 70
     1
102
RTVSPropertyOp58
 70
     1
102
RTVSPropertyOp59
 70
     1
102
RTVSPropertyOp60
 70
     1
102
RTVSPropertyOp61
 70
     1
102
RTVSPropertyOp62
 70
     1
  0
XRECORD
  5
453
102
{ACAD_REACTORS
330
452
102
}
330
452
100
AcDbXrecord
280
     1
102
RTVSPost2010Prop28
280
     0
102
RTVSPost2010PropOp28
 70
     1
102
RTVSPost2010Prop29
280
     1
102
RTVSPost2010PropOp29
 70
     1
102
RTVSPost2010Prop30
280
     1
102
RTVSPost2010PropOp30
 70
     1
102
RTVSPost2010Prop31
280
     0
102
RTVSPost2010PropOp31
 70
     1
102
RTVSPost2010Prop32
280
     0
102
RTVSPost2010PropOp32
 70
     1
102
RTVSPost2010Prop33
280
     0
102
RTVSPost2010PropOp33
 70
     1
102
RTVSPost2010Prop34
280
     0
102
RTVSPost2010PropOp34
 70
     1
102
RTVSPost2010Prop35
280
     0
102
RTVSPost2010PropOp35
 70
     1
102
RTVSPost2010Prop36
280
     0
102
RTVSPost2010PropOp36
 70
     1
102
RTVSPost2010Prop37
 90
       50
102
RTVSPost2010PropOp37
 70
     1
102
RTVSPost2010Prop38
140
0.0
102
RTVSPost2010PropOp38
 70
     1
102
RTVSPost2010Prop39
140
1.0
102
RTVSPost2010PropOp39
 70
     1
102
RTVSPost2010Prop40
 90
        0
102
RTVSPost2010PropOp40
 70
     1
102
RTVSPost2010Prop41ColorIndex
 90
       18
102
RTVSPost2010Prop41ColorRGB
 90
        0
102
RTVSPost2010PropOp41
 70
     1
102
RTVSPost2010Prop42
 90
       50
102
RTVSPost2010PropOp42
 70
     1
102
RTVSPost2010Prop43
 90
        3
102
RTVSPost2010PropOp43
 70
     1
102
RTVSPost2010Prop44ColorIndex
 90
        5
102
RTVSPost2010Prop44ColorRGB
 90
      255
102
RTVSPost2010PropOp44
 70
     1
102
RTVSPost2010Prop45
280
     0
102
RTVSPost2010PropOp45
 70
     1
102
RTVSPost2010Prop46
 90
       50
102
RTVSPost2010PropOp46
 70
     1
102
RTVSPost2010Prop47
 90
       50
102
RTVSPost2010PropOp47
 70
     1
102
RTVSPost2010Prop48
 90
       50
102
RTVSPost2010PropOp48
 70
     1
102
RTVSPost2010Prop49
280
     0
102
RTVSPost2010PropOp49
 70
     1
102
RTVSPost2010Prop50
 90
       50
102
RTVSPost2010PropOp50
 70
     1
102
RTVSPost2010Prop51ColorIndex
 90
      256
102
RTVSPost2010Prop51ColorRGB
 90
-16777216
102
RTVSPost2010PropOp51
 70
     0
102
RTVSPost2010Prop52
140
1.0
102
RTVSPost2010PropOp52
 70
     0
102
RTVSPost2010Prop53
 90
        2
102
RTVSPost2010PropOp53
 70
     1
102
RTVSPost2010Prop54
  1
strokes_ogs.tif
102
RTVSPost2010PropOp54
 70
     1
102
RTVSPost2010Prop55
280
     0
102
RTVSPost2010PropOp55
 70
     1
102
RTVSPost2010Prop56
140
1.0
102
RTVSPost2010PropOp56
 70
     1
102
RTVSPost2010Prop57
140
1.0
102
RTVSPost2010PropOp57
 70
     1
102
RTVSPropertyOp0
 70
     1
102
RTVSPropertyOp1
 70
     1
102
RTVSPropertyOp2
 70
     1
102
RTVSPropertyOp3
 70
     1
102
RTVSPropertyOp4
 70
     1
102
RTVSPropertyOp5
 70
     1
102
RTVSPropertyOp6
 70
     1
102
RTVSPropertyOp7
 70
     1
102
RTVSPropertyOp8
 70
     1
102
RTVSPropertyOp9
 70
     1
102
RTVSPropertyOp10
 70
     1
102
RTVSPropertyOp11
 70
     1
102
RTVSPropertyOp12
 70
     1
102
RTVSPropertyOp13
 70
     1
102
RTVSPropertyOp14
 70
     1
102
RTVSPropertyOp15
 70
     1
102
RTVSPropertyOp16
 70
     1
102
RTVSPropertyOp17
 70
     1
102
RTVSPropertyOp18
 70
     1
102
RTVSPropertyOp19
 70
     1
102
RTVSPropertyOp20
 70
     1
102
RTVSPropertyOp21
 70
     1
102
RTVSPropertyOp22
 70
     1
102
RTVSPropertyOp23
 70
     1
102
RTVSPropertyOp24
 70
     1
102
RTVSPropertyOp25
 70
     1
102
RTVSPropertyOp26
 70
     1
102
RTVSPropertyOp27
 70
     1
102
RTVSPropertyOp28
 70
     1
102
RTVSPropertyOp29
 70
     1
102
RTVSPropertyOp30
 70
     1
102
RTVSPropertyOp31
 70
     1
102
RTVSPropertyOp32
 70
     1
102
RTVSPropertyOp33
 70
     1
102
RTVSPropertyOp34
 70
     1
102
RTVSPropertyOp35
 70
     1
102
RTVSPropertyOp36
 70
     1
102
RTVSPropertyOp37
 70
     1
102
RTVSPropertyOp38
 70
     1
102
RTVSPropertyOp39
 70
     1
102
RTVSPropertyOp40
 70
     1
102
RTVSPropertyOp41
 70
     1
102
RTVSPropertyOp42
 70
     1
102
RTVSPropertyOp43
 70
     1
102
RTVSPropertyOp44
 70
     1
102
RTVSPropertyOp45
 70
     1
102
RTVSPropertyOp46
 70
     1
102
RTVSPropertyOp47
 70
     1
102
RTVSPropertyOp48
 70
     1
102
RTVSPropertyOp49
 70
     1
102
RTVSPropertyOp50
 70
     1
102
RTVSPropertyOp51
 70
     0
102
RTVSPropertyOp52
 70
     0
102
RTVSPropertyOp53
 70
     1
102
RTVSPropertyOp54
 70
     1
102
RTVSPropertyOp55
 70
     1
102
RTVSPropertyOp56
 70
     1
102
RTVSPropertyOp57
 70
     1
102
RTVSPropertyOp58
 70
     1
102
RTVSPropertyOp59
 70
     1
102
RTVSPropertyOp60
 70
     1
102
RTVSPropertyOp61
 70
     1
102
RTVSPropertyOp62
 70
     1
  0
XRECORD
  5
451
102
{ACAD_REACTORS
330
450
102
}
330
450
100
AcDbXrecord
280
     1
102
RTVSPost2010Prop28
280
     0
102
RTVSPost2010PropOp28
 70
     1
102
RTVSPost2010Prop29
280
     1
102
RTVSPost2010PropOp29
 70
     1
102
RTVSPost2010Prop30
280
     1
102
RTVSPost2010PropOp30
 70
     1
102
RTVSPost2010Prop31
280
     0
102
RTVSPost2010PropOp31
 70
     1
102
RTVSPost2010Prop32
280
     0
102
RTVSPost2010PropOp32
 70
     1
102
RTVSPost2010Prop33
280
     0
102
RTVSPost2010PropOp33
 70
     1
102
RTVSPost2010Prop34
280
     0
102
RTVSPost2010PropOp34
 70
     1
102
RTVSPost2010Prop35
280
     0
102
RTVSPost2010PropOp35
 70
     1
102
RTVSPost2010Prop36
280
     0
102
RTVSPost2010PropOp36
 70
     1
102
RTVSPost2010Prop37
 90
       50
102
RTVSPost2010PropOp37
 70
     1
102
RTVSPost2010Prop38
140
0.0
102
RTVSPost2010PropOp38
 70
     1
102
RTVSPost2010Prop39
140
1.0
102
RTVSPost2010PropOp39
 70
     1
102
RTVSPost2010Prop40
 90
        0
102
RTVSPost2010PropOp40
 70
     1
102
RTVSPost2010Prop41ColorIndex
 90
       18
102
RTVSPost2010Prop41ColorRGB
 90
        0
102
RTVSPost2010PropOp41
 70
     1
102
RTVSPost2010Prop42
 90
       50
102
RTVSPost2010PropOp42
 70
     1
102
RTVSPost2010Prop43
 90
        3
102
RTVSPost2010PropOp43
 70
     1
102
RTVSPost2010Prop44ColorIndex
 90
        5
102
RTVSPost2010Prop44ColorRGB
 90
      255
102
RTVSPost2010PropOp44
 70
     1
102
RTVSPost2010Prop45
280
     0
102
RTVSPost2010PropOp45
 70
     1
102
RTVSPost2010Prop46
 90
       50
102
RTVSPost2010PropOp46
 70
     1
102
RTVSPost2010Prop47
 90
       50
102
RTVSPost2010PropOp47
 70
     1
102
RTVSPost2010Prop48
 90
       50
102
RTVSPost2010PropOp48
 70
     1
102
RTVSPost2010Prop49
280
     0
102
RTVSPost2010PropOp49
 70
     1
102
RTVSPost2010Prop50
 90
       50
102
RTVSPost2010PropOp50
 70
     1
102
RTVSPost2010Prop51ColorIndex
 90
      256
102
RTVSPost2010Prop51ColorRGB
 90
-16777216
102
RTVSPost2010PropOp51
 70
     0
102
RTVSPost2010Prop52
140
1.0
102
RTVSPost2010PropOp52
 70
     0
102
RTVSPost2010Prop53
 90
        2
102
RTVSPost2010PropOp53
 70
     1
102
RTVSPost2010Prop54
  1
strokes_ogs.tif
102
RTVSPost2010PropOp54
 70
     1
102
RTVSPost2010Prop55
280
     0
102
RTVSPost2010PropOp55
 70
     1
102
RTVSPost2010Prop56
140
1.0
102
RTVSPost2010PropOp56
 70
     1
102
RTVSPost2010Prop57
140
1.0
102
RTVSPost2010PropOp57
 70
     1
102
RTVSPropertyOp0
 70
     1
102
RTVSPropertyOp1
 70
     1
102
RTVSPropertyOp2
 70
     1
102
RTVSPropertyOp3
 70
     1
102
RTVSPropertyOp4
 70
     1
102
RTVSPropertyOp5
 70
     1
102
RTVSPropertyOp6
 70
     1
102
RTVSPropertyOp7
 70
     1
102
RTVSPropertyOp8
 70
     1
102
RTVSPropertyOp9
 70
     1
102
RTVSPropertyOp10
 70
     1
102
RTVSPropertyOp11
 70
     1
102
RTVSPropertyOp12
 70
     1
102
RTVSPropertyOp13
 70
     1
102
RTVSPropertyOp14
 70
     1
102
RTVSPropertyOp15
 70
     1
102
RTVSPropertyOp16
 70
     1
102
RTVSPropertyOp17
 70
     1
102
RTVSPropertyOp18
 70
     1
102
RTVSPropertyOp19
 70
     1
102
RTVSPropertyOp20
 70
     1
102
RTVSPropertyOp21
 70
     1
102
RTVSPropertyOp22
 70
     1
102
RTVSPropertyOp23
 70
     1
102
RTVSPropertyOp24
 70
     1
102
RTVSPropertyOp25
 70
     1
102
RTVSPropertyOp26
 70
     1
102
RTVSPropertyOp27
 70
     1
102
RTVSPropertyOp28
 70
     1
102
RTVSPropertyOp29
 70
     1
102
RTVSPropertyOp30
 70
     1
102
RTVSPropertyOp31
 70
     1
102
RTVSPropertyOp32
 70
     1
102
RTVSPropertyOp33
 70
     1
102
RTVSPropertyOp34
 70
     1
102
RTVSPropertyOp35
 70
     1
102
RTVSPropertyOp36
 70
     1
102
RTVSPropertyOp37
 70
     1
102
RTVSPropertyOp38
 70
     1
102
RTVSPropertyOp39
 70
     1
102
RTVSPropertyOp40
 70
     1
102
RTVSPropertyOp41
 70
     1
102
RTVSPropertyOp42
 70
     1
102
RTVSPropertyOp43
 70
     1
102
RTVSPropertyOp44
 70
     1
102
RTVSPropertyOp45
 70
     1
102
RTVSPropertyOp46
 70
     1
102
RTVSPropertyOp47
 70
     1
102
RTVSPropertyOp48
 70
     1
102
RTVSPropertyOp49
 70
     1
102
RTVSPropertyOp50
 70
     1
102
RTVSPropertyOp51
 70
     0
102
RTVSPropertyOp52
 70
     0
102
RTVSPropertyOp53
 70
     1
102
RTVSPropertyOp54
 70
     1
102
RTVSPropertyOp55
 70
     1
102
RTVSPropertyOp56
 70
     1
102
RTVSPropertyOp57
 70
     1
102
RTVSPropertyOp58
 70
     1
102
RTVSPropertyOp59
 70
     1
102
RTVSPropertyOp60
 70
     1
102
RTVSPropertyOp61
 70
     1
102
RTVSPropertyOp62
 70
     1
  0
XRECORD
  5
44B
102
{ACAD_REACTORS
330
44A
102
}
330
44A
100
AcDbXrecord
280
     1
102
RTVSPost2010Prop28
280
     0
102
RTVSPost2010PropOp28
 70
     1
102
RTVSPost2010Prop29
280
     1
102
RTVSPost2010PropOp29
 70
     1
102
RTVSPost2010Prop30
280
     1
102
RTVSPost2010PropOp30
 70
     1
102
RTVSPost2010Prop31
280
     0
102
RTVSPost2010PropOp31
 70
     1
102
RTVSPost2010Prop32
280
     0
102
RTVSPost2010PropOp32
 70
     1
102
RTVSPost2010Prop33
280
     0
102
RTVSPost2010PropOp33
 70
     1
102
RTVSPost2010Prop34
280
     0
102
RTVSPost2010PropOp34
 70
     1
102
RTVSPost2010Prop35
280
     0
102
RTVSPost2010PropOp35
 70
     1
102
RTVSPost2010Prop36
280
     0
102
RTVSPost2010PropOp36
 70
     1
102
RTVSPost2010Prop37
 90
       50
102
RTVSPost2010PropOp37
 70
     1
102
RTVSPost2010Prop38
140
0.0
102
RTVSPost2010PropOp38
 70
     1
102
RTVSPost2010Prop39
140
1.0
102
RTVSPost2010PropOp39
 70
     1
102
RTVSPost2010Prop40
 90
        0
102
RTVSPost2010PropOp40
 70
     1
102
RTVSPost2010Prop41ColorIndex
 90
       18
102
RTVSPost2010Prop41ColorRGB
 90
        0
102
RTVSPost2010PropOp41
 70
     1
102
RTVSPost2010Prop42
 90
       50
102
RTVSPost2010PropOp42
 70
     1
102
RTVSPost2010Prop43
 90
        3
102
RTVSPost2010PropOp43
 70
     1
102
RTVSPost2010Prop44ColorIndex
 90
        5
102
RTVSPost2010Prop44ColorRGB
 90
      255
102
RTVSPost2010PropOp44
 70
     1
102
RTVSPost2010Prop45
280
     0
102
RTVSPost2010PropOp45
 70
     1
102
RTVSPost2010Prop46
 90
       50
102
RTVSPost2010PropOp46
 70
     1
102
RTVSPost2010Prop47
 90
       50
102
RTVSPost2010PropOp47
 70
     1
102
RTVSPost2010Prop48
 90
       50
102
RTVSPost2010PropOp48
 70
     1
102
RTVSPost2010Prop49
280
     0
102
RTVSPost2010PropOp49
 70
     1
102
RTVSPost2010Prop50
 90
       50
102
RTVSPost2010PropOp50
 70
     1
102
RTVSPost2010Prop51ColorIndex
 90
      256
102
RTVSPost2010Prop51ColorRGB
 90
-16777216
102
RTVSPost2010PropOp51
 70
     0
102
RTVSPost2010Prop52
140
1.0
102
RTVSPost2010PropOp52
 70
     0
102
RTVSPost2010Prop53
 90
        2
102
RTVSPost2010PropOp53
 70
     1
102
RTVSPost2010Prop54
  1
strokes_ogs.tif
102
RTVSPost2010PropOp54
 70
     1
102
RTVSPost2010Prop55
280
     0
102
RTVSPost2010PropOp55
 70
     1
102
RTVSPost2010Prop56
140
1.0
102
RTVSPost2010PropOp56
 70
     1
102
RTVSPost2010Prop57
140
1.0
102
RTVSPost2010PropOp57
 70
     1
102
RTVSPropertyOp0
 70
     1
102
RTVSPropertyOp1
 70
     1
102
RTVSPropertyOp2
 70
     1
102
RTVSPropertyOp3
 70
     1
102
RTVSPropertyOp4
 70
     1
102
RTVSPropertyOp5
 70
     1
102
RTVSPropertyOp6
 70
     1
102
RTVSPropertyOp7
 70
     1
102
RTVSPropertyOp8
 70
     1
102
RTVSPropertyOp9
 70
     1
102
RTVSPropertyOp10
 70
     1
102
RTVSPropertyOp11
 70
     1
102
RTVSPropertyOp12
 70
     1
102
RTVSPropertyOp13
 70
     1
102
RTVSPropertyOp14
 70
     1
102
RTVSPropertyOp15
 70
     1
102
RTVSPropertyOp16
 70
     1
102
RTVSPropertyOp17
 70
     1
102
RTVSPropertyOp18
 70
     1
102
RTVSPropertyOp19
 70
     1
102
RTVSPropertyOp20
 70
     1
102
RTVSPropertyOp21
 70
     1
102
RTVSPropertyOp22
 70
     1
102
RTVSPropertyOp23
 70
     1
102
RTVSPropertyOp24
 70
     1
102
RTVSPropertyOp25
 70
     1
102
RTVSPropertyOp26
 70
     1
102
RTVSPropertyOp27
 70
     1
102
RTVSPropertyOp28
 70
     1
102
RTVSPropertyOp29
 70
     1
102
RTVSPropertyOp30
 70
     1
102
RTVSPropertyOp31
 70
     1
102
RTVSPropertyOp32
 70
     1
102
RTVSPropertyOp33
 70
     1
102
RTVSPropertyOp34
 70
     1
102
RTVSPropertyOp35
 70
     1
102
RTVSPropertyOp36
 70
     1
102
RTVSPropertyOp37
 70
     1
102
RTVSPropertyOp38
 70
     1
102
RTVSPropertyOp39
 70
     1
102
RTVSPropertyOp40
 70
     1
102
RTVSPropertyOp41
 70
     1
102
RTVSPropertyOp42
 70
     1
102
RTVSPropertyOp43
 70
     1
102
RTVSPropertyOp44
 70
     1
102
RTVSPropertyOp45
 70
     1
102
RTVSPropertyOp46
 70
     1
102
RTVSPropertyOp47
 70
     1
102
RTVSPropertyOp48
 70
     1
102
RTVSPropertyOp49
 70
     1
102
RTVSPropertyOp50
 70
     1
102
RTVSPropertyOp51
 70
     0
102
RTVSPropertyOp52
 70
     0
102
RTVSPropertyOp53
 70
     1
102
RTVSPropertyOp54
 70
     1
102
RTVSPropertyOp55
 70
     1
102
RTVSPropertyOp56
 70
     1
102
RTVSPropertyOp57
 70
     1
102
RTVSPropertyOp58
 70
     1
102
RTVSPropertyOp59
 70
     1
102
RTVSPropertyOp60
 70
     1
102
RTVSPropertyOp61
 70
     1
102
RTVSPropertyOp62
 70
     1
  0
XRECORD
  5
44D
102
{ACAD_REACTORS
330
44C
102
}
330
44C
100
AcDbXrecord
280
     1
102
RTVSPost2010Prop28
280
     0
102
RTVSPost2010PropOp28
 70
     1
102
RTVSPost2010Prop29
280
     1
102
RTVSPost2010PropOp29
 70
     1
102
RTVSPost2010Prop30
280
     1
102
RTVSPost2010PropOp30
 70
     1
102
RTVSPost2010Prop31
280
     0
102
RTVSPost2010PropOp31
 70
     1
102
RTVSPost2010Prop32
280
     0
102
RTVSPost2010PropOp32
 70
     1
102
RTVSPost2010Prop33
280
     0
102
RTVSPost2010PropOp33
 70
     1
102
RTVSPost2010Prop34
280
     0
102
RTVSPost2010PropOp34
 70
     1
102
RTVSPost2010Prop35
280
     0
102
RTVSPost2010PropOp35
 70
     1
102
RTVSPost2010Prop36
280
     0
102
RTVSPost2010PropOp36
 70
     1
102
RTVSPost2010Prop37
 90
       50
102
RTVSPost2010PropOp37
 70
     1
102
RTVSPost2010Prop38
140
0.0
102
RTVSPost2010PropOp38
 70
     1
102
RTVSPost2010Prop39
140
1.0
102
RTVSPost2010PropOp39
 70
     1
102
RTVSPost2010Prop40
 90
        0
102
RTVSPost2010PropOp40
 70
     1
102
RTVSPost2010Prop41ColorIndex
 90
       18
102
RTVSPost2010Prop41ColorRGB
 90
        0
102
RTVSPost2010PropOp41
 70
     1
102
RTVSPost2010Prop42
 90
       50
102
RTVSPost2010PropOp42
 70
     1
102
RTVSPost2010Prop43
 90
        3
102
RTVSPost2010PropOp43
 70
     1
102
RTVSPost2010Prop44ColorIndex
 90
        5
102
RTVSPost2010Prop44ColorRGB
 90
      255
102
RTVSPost2010PropOp44
 70
     1
102
RTVSPost2010Prop45
280
     0
102
RTVSPost2010PropOp45
 70
     1
102
RTVSPost2010Prop46
 90
       50
102
RTVSPost2010PropOp46
 70
     1
102
RTVSPost2010Prop47
 90
       50
102
RTVSPost2010PropOp47
 70
     1
102
RTVSPost2010Prop48
 90
       50
102
RTVSPost2010PropOp48
 70
     1
102
RTVSPost2010Prop49
280
     0
102
RTVSPost2010PropOp49
 70
     1
102
RTVSPost2010Prop50
 90
       50
102
RTVSPost2010PropOp50
 70
     1
102
RTVSPost2010Prop51ColorIndex
 90
      256
102
RTVSPost2010Prop51ColorRGB
 90
-16777216
102
RTVSPost2010PropOp51
 70
     0
102
RTVSPost2010Prop52
140
1.0
102
RTVSPost2010PropOp52
 70
     0
102
RTVSPost2010Prop53
 90
        2
102
RTVSPost2010PropOp53
 70
     1
102
RTVSPost2010Prop54
  1
strokes_ogs.tif
102
RTVSPost2010PropOp54
 70
     1
102
RTVSPost2010Prop55
280
     0
102
RTVSPost2010PropOp55
 70
     1
102
RTVSPost2010Prop56
140
1.0
102
RTVSPost2010PropOp56
 70
     1
102
RTVSPost2010Prop57
140
1.0
102
RTVSPost2010PropOp57
 70
     1
102
RTVSPropertyOp0
 70
     1
102
RTVSPropertyOp1
 70
     1
102
RTVSPropertyOp2
 70
     1
102
RTVSPropertyOp3
 70
     1
102
RTVSPropertyOp4
 70
     1
102
RTVSPropertyOp5
 70
     1
102
RTVSPropertyOp6
 70
     1
102
RTVSPropertyOp7
 70
     1
102
RTVSPropertyOp8
 70
     1
102
RTVSPropertyOp9
 70
     1
102
RTVSPropertyOp10
 70
     1
102
RTVSPropertyOp11
 70
     1
102
RTVSPropertyOp12
 70
     1
102
RTVSPropertyOp13
 70
     1
102
RTVSPropertyOp14
 70
     1
102
RTVSPropertyOp15
 70
     1
102
RTVSPropertyOp16
 70
     1
102
RTVSPropertyOp17
 70
     1
102
RTVSPropertyOp18
 70
     1
102
RTVSPropertyOp19
 70
     1
102
RTVSPropertyOp20
 70
     1
102
RTVSPropertyOp21
 70
     1
102
RTVSPropertyOp22
 70
     1
102
RTVSPropertyOp23
 70
     1
102
RTVSPropertyOp24
 70
     1
102
RTVSPropertyOp25
 70
     1
102
RTVSPropertyOp26
 70
     1
102
RTVSPropertyOp27
 70
     1
102
RTVSPropertyOp28
 70
     1
102
RTVSPropertyOp29
 70
     1
102
RTVSPropertyOp30
 70
     1
102
RTVSPropertyOp31
 70
     1
102
RTVSPropertyOp32
 70
     1
102
RTVSPropertyOp33
 70
     1
102
RTVSPropertyOp34
 70
     1
102
RTVSPropertyOp35
 70
     1
102
RTVSPropertyOp36
 70
     1
102
RTVSPropertyOp37
 70
     1
102
RTVSPropertyOp38
 70
     1
102
RTVSPropertyOp39
 70
     1
102
RTVSPropertyOp40
 70
     1
102
RTVSPropertyOp41
 70
     1
102
RTVSPropertyOp42
 70
     1
102
RTVSPropertyOp43
 70
     1
102
RTVSPropertyOp44
 70
     1
102
RTVSPropertyOp45
 70
     1
102
RTVSPropertyOp46
 70
     1
102
RTVSPropertyOp47
 70
     1
102
RTVSPropertyOp48
 70
     1
102
RTVSPropertyOp49
 70
     1
102
RTVSPropertyOp50
 70
     1
102
RTVSPropertyOp51
 70
     0
102
RTVSPropertyOp52
 70
     0
102
RTVSPropertyOp53
 70
     1
102
RTVSPropertyOp54
 70
     1
102
RTVSPropertyOp55
 70
     1
102
RTVSPropertyOp56
 70
     1
102
RTVSPropertyOp57
 70
     1
102
RTVSPropertyOp58
 70
     1
102
RTVSPropertyOp59
 70
     1
102
RTVSPropertyOp60
 70
     1
102
RTVSPropertyOp61
 70
     1
102
RTVSPropertyOp62
 70
     1
  0
XRECORD
  5
443
102
{ACAD_REACTORS
330
442
102
}
330
442
100
AcDbXrecord
280
     1
102
RTVSPost2010Prop28
280
     0
102
RTVSPost2010PropOp28
 70
     1
102
RTVSPost2010Prop29
280
     1
102
RTVSPost2010PropOp29
 70
     1
102
RTVSPost2010Prop30
280
     1
102
RTVSPost2010PropOp30
 70
     1
102
RTVSPost2010Prop31
280
     0
102
RTVSPost2010PropOp31
 70
     1
102
RTVSPost2010Prop32
280
     0
102
RTVSPost2010PropOp32
 70
     1
102
RTVSPost2010Prop33
280
     0
102
RTVSPost2010PropOp33
 70
     1
102
RTVSPost2010Prop34
280
     0
102
RTVSPost2010PropOp34
 70
     1
102
RTVSPost2010Prop35
280
     0
102
RTVSPost2010PropOp35
 70
     1
102
RTVSPost2010Prop36
280
     0
102
RTVSPost2010PropOp36
 70
     1
102
RTVSPost2010Prop37
 90
       50
102
RTVSPost2010PropOp37
 70
     1
102
RTVSPost2010Prop38
140
0.0
102
RTVSPost2010PropOp38
 70
     1
102
RTVSPost2010Prop39
140
1.0
102
RTVSPost2010PropOp39
 70
     1
102
RTVSPost2010Prop40
 90
        0
102
RTVSPost2010PropOp40
 70
     1
102
RTVSPost2010Prop41ColorIndex
 90
       18
102
RTVSPost2010Prop41ColorRGB
 90
        0
102
RTVSPost2010PropOp41
 70
     1
102
RTVSPost2010Prop42
 90
       50
102
RTVSPost2010PropOp42
 70
     1
102
RTVSPost2010Prop43
 90
        3
102
RTVSPost2010PropOp43
 70
     1
102
RTVSPost2010Prop44ColorIndex
 90
        5
102
RTVSPost2010Prop44ColorRGB
 90
      255
102
RTVSPost2010PropOp44
 70
     1
102
RTVSPost2010Prop45
280
     0
102
RTVSPost2010PropOp45
 70
     1
102
RTVSPost2010Prop46
 90
       50
102
RTVSPost2010PropOp46
 70
     1
102
RTVSPost2010Prop47
 90
       50
102
RTVSPost2010PropOp47
 70
     1
102
RTVSPost2010Prop48
 90
       50
102
RTVSPost2010PropOp48
 70
     1
102
RTVSPost2010Prop49
280
     0
102
RTVSPost2010PropOp49
 70
     1
102
RTVSPost2010Prop50
 90
       50
102
RTVSPost2010PropOp50
 70
     1
102
RTVSPost2010Prop51ColorIndex
 90
      256
102
RTVSPost2010Prop51ColorRGB
 90
-16777216
102
RTVSPost2010PropOp51
 70
     0
102
RTVSPost2010Prop52
140
1.0
102
RTVSPost2010PropOp52
 70
     0
102
RTVSPost2010Prop53
 90
        2
102
RTVSPost2010PropOp53
 70
     1
102
RTVSPost2010Prop54
  1
strokes_ogs.tif
102
RTVSPost2010PropOp54
 70
     1
102
RTVSPost2010Prop55
280
     0
102
RTVSPost2010PropOp55
 70
     1
102
RTVSPost2010Prop56
140
1.0
102
RTVSPost2010PropOp56
 70
     1
102
RTVSPost2010Prop57
140
1.0
102
RTVSPost2010PropOp57
 70
     1
102
RTVSPropertyOp0
 70
     1
102
RTVSPropertyOp1
 70
     1
102
RTVSPropertyOp2
 70
     1
102
RTVSPropertyOp3
 70
     1
102
RTVSPropertyOp4
 70
     1
102
RTVSPropertyOp5
 70
     1
102
RTVSPropertyOp6
 70
     1
102
RTVSPropertyOp7
 70
     1
102
RTVSPropertyOp8
 70
     1
102
RTVSPropertyOp9
 70
     1
102
RTVSPropertyOp10
 70
     1
102
RTVSPropertyOp11
 70
     1
102
RTVSPropertyOp12
 70
     1
102
RTVSPropertyOp13
 70
     1
102
RTVSPropertyOp14
 70
     1
102
RTVSPropertyOp15
 70
     1
102
RTVSPropertyOp16
 70
     1
102
RTVSPropertyOp17
 70
     1
102
RTVSPropertyOp18
 70
     1
102
RTVSPropertyOp19
 70
     1
102
RTVSPropertyOp20
 70
     1
102
RTVSPropertyOp21
 70
     1
102
RTVSPropertyOp22
 70
     1
102
RTVSPropertyOp23
 70
     1
102
RTVSPropertyOp24
 70
     1
102
RTVSPropertyOp25
 70
     1
102
RTVSPropertyOp26
 70
     1
102
RTVSPropertyOp27
 70
     1
102
RTVSPropertyOp28
 70
     1
102
RTVSPropertyOp29
 70
     1
102
RTVSPropertyOp30
 70
     1
102
RTVSPropertyOp31
 70
     1
102
RTVSPropertyOp32
 70
     1
102
RTVSPropertyOp33
 70
     1
102
RTVSPropertyOp34
 70
     1
102
RTVSPropertyOp35
 70
     1
102
RTVSPropertyOp36
 70
     1
102
RTVSPropertyOp37
 70
     1
102
RTVSPropertyOp38
 70
     1
102
RTVSPropertyOp39
 70
     1
102
RTVSPropertyOp40
 70
     1
102
RTVSPropertyOp41
 70
     1
102
RTVSPropertyOp42
 70
     1
102
RTVSPropertyOp43
 70
     1
102
RTVSPropertyOp44
 70
     1
102
RTVSPropertyOp45
 70
     1
102
RTVSPropertyOp46
 70
     1
102
RTVSPropertyOp47
 70
     1
102
RTVSPropertyOp48
 70
     1
102
RTVSPropertyOp49
 70
     1
102
RTVSPropertyOp50
 70
     1
102
RTVSPropertyOp51
 70
     0
102
RTVSPropertyOp52
 70
     0
102
RTVSPropertyOp53
 70
     1
102
RTVSPropertyOp54
 70
     1
102
RTVSPropertyOp55
 70
     1
102
RTVSPropertyOp56
 70
     1
102
RTVSPropertyOp57
 70
     1
102
RTVSPropertyOp58
 70
     1
102
RTVSPropertyOp59
 70
     1
102
RTVSPropertyOp60
 70
     1
102
RTVSPropertyOp61
 70
     1
102
RTVSPropertyOp62
 70
     1
  0
XRECORD
  5
437
102
{ACAD_REACTORS
330
436
102
}
330
436
100
AcDbXrecord
280
     1
102
RTVSPost2010Prop28
280
     0
102
RTVSPost2010PropOp28
 70
     1
102
RTVSPost2010Prop29
280
     1
102
RTVSPost2010PropOp29
 70
     1
102
RTVSPost2010Prop30
280
     1
102
RTVSPost2010PropOp30
 70
     1
102
RTVSPost2010Prop31
280
     0
102
RTVSPost2010PropOp31
 70
     1
102
RTVSPost2010Prop32
280
     0
102
RTVSPost2010PropOp32
 70
     1
102
RTVSPost2010Prop33
280
     0
102
RTVSPost2010PropOp33
 70
     1
102
RTVSPost2010Prop34
280
     0
102
RTVSPost2010PropOp34
 70
     1
102
RTVSPost2010Prop35
280
     0
102
RTVSPost2010PropOp35
 70
     1
102
RTVSPost2010Prop36
280
     0
102
RTVSPost2010PropOp36
 70
     1
102
RTVSPost2010Prop37
 90
       50
102
RTVSPost2010PropOp37
 70
     1
102
RTVSPost2010Prop38
140
0.0
102
RTVSPost2010PropOp38
 70
     1
102
RTVSPost2010Prop39
140
1.0
102
RTVSPost2010PropOp39
 70
     1
102
RTVSPost2010Prop40
 90
        0
102
RTVSPost2010PropOp40
 70
     1
102
RTVSPost2010Prop41ColorIndex
 90
       18
102
RTVSPost2010Prop41ColorRGB
 90
        0
102
RTVSPost2010PropOp41
 70
     1
102
RTVSPost2010Prop42
 90
       50
102
RTVSPost2010PropOp42
 70
     1
102
RTVSPost2010Prop43
 90
        3
102
RTVSPost2010PropOp43
 70
     1
102
RTVSPost2010Prop44ColorIndex
 90
        5
102
RTVSPost2010Prop44ColorRGB
 90
      255
102
RTVSPost2010PropOp44
 70
     1
102
RTVSPost2010Prop45
280
     0
102
RTVSPost2010PropOp45
 70
     1
102
RTVSPost2010Prop46
 90
       50
102
RTVSPost2010PropOp46
 70
     1
102
RTVSPost2010Prop47
 90
       50
102
RTVSPost2010PropOp47
 70
     1
102
RTVSPost2010Prop48
 90
       50
102
RTVSPost2010PropOp48
 70
     1
102
RTVSPost2010Prop49
280
     0
102
RTVSPost2010PropOp49
 70
     1
102
RTVSPost2010Prop50
 90
       50
102
RTVSPost2010PropOp50
 70
     1
102
RTVSPost2010Prop51ColorIndex
 90
      256
102
RTVSPost2010Prop51ColorRGB
 90
-16777216
102
RTVSPost2010PropOp51
 70
     0
102
RTVSPost2010Prop52
140
1.0
102
RTVSPost2010PropOp52
 70
     0
102
RTVSPost2010Prop53
 90
        2
102
RTVSPost2010PropOp53
 70
     1
102
RTVSPost2010Prop54
  1
strokes_ogs.tif
102
RTVSPost2010PropOp54
 70
     1
102
RTVSPost2010Prop55
280
     0
102
RTVSPost2010PropOp55
 70
     1
102
RTVSPost2010Prop56
140
1.0
102
RTVSPost2010PropOp56
 70
     1
102
RTVSPost2010Prop57
140
1.0
102
RTVSPost2010PropOp57
 70
     1
102
RTVSPropertyOp0
 70
     1
102
RTVSPropertyOp1
 70
     1
102
RTVSPropertyOp2
 70
     1
102
RTVSPropertyOp3
 70
     1
102
RTVSPropertyOp4
 70
     1
102
RTVSPropertyOp5
 70
     1
102
RTVSPropertyOp6
 70
     1
102
RTVSPropertyOp7
 70
     1
102
RTVSPropertyOp8
 70
     1
102
RTVSPropertyOp9
 70
     1
102
RTVSPropertyOp10
 70
     1
102
RTVSPropertyOp11
 70
     1
102
RTVSPropertyOp12
 70
     1
102
RTVSPropertyOp13
 70
     1
102
RTVSPropertyOp14
 70
     1
102
RTVSPropertyOp15
 70
     1
102
RTVSPropertyOp16
 70
     1
102
RTVSPropertyOp17
 70
     1
102
RTVSPropertyOp18
 70
     1
102
RTVSPropertyOp19
 70
     1
102
RTVSPropertyOp20
 70
     1
102
RTVSPropertyOp21
 70
     1
102
RTVSPropertyOp22
 70
     1
102
RTVSPropertyOp23
 70
     1
102
RTVSPropertyOp24
 70
     1
102
RTVSPropertyOp25
 70
     1
102
RTVSPropertyOp26
 70
     1
102
RTVSPropertyOp27
 70
     1
102
RTVSPropertyOp28
 70
     1
102
RTVSPropertyOp29
 70
     1
102
RTVSPropertyOp30
 70
     1
102
RTVSPropertyOp31
 70
     1
102
RTVSPropertyOp32
 70
     1
102
RTVSPropertyOp33
 70
     1
102
RTVSPropertyOp34
 70
     1
102
RTVSPropertyOp35
 70
     1
102
RTVSPropertyOp36
 70
     1
102
RTVSPropertyOp37
 70
     1
102
RTVSPropertyOp38
 70
     1
102
RTVSPropertyOp39
 70
     1
102
RTVSPropertyOp40
 70
     1
102
RTVSPropertyOp41
 70
     1
102
RTVSPropertyOp42
 70
     1
102
RTVSPropertyOp43
 70
     1
102
RTVSPropertyOp44
 70
     1
102
RTVSPropertyOp45
 70
     1
102
RTVSPropertyOp46
 70
     1
102
RTVSPropertyOp47
 70
     1
102
RTVSPropertyOp48
 70
     1
102
RTVSPropertyOp49
 70
     1
102
RTVSPropertyOp50
 70
     1
102
RTVSPropertyOp51
 70
     0
102
RTVSPropertyOp52
 70
     0
102
RTVSPropertyOp53
 70
     1
102
RTVSPropertyOp54
 70
     1
102
RTVSPropertyOp55
 70
     1
102
RTVSPropertyOp56
 70
     1
102
RTVSPropertyOp57
 70
     1
102
RTVSPropertyOp58
 70
     1
102
RTVSPropertyOp59
 70
     1
102
RTVSPropertyOp60
 70
     1
102
RTVSPropertyOp61
 70
     1
102
RTVSPropertyOp62
 70
     1
  0
XRECORD
  5
44F
102
{ACAD_REACTORS
330
44E
102
}
330
44E
100
AcDbXrecord
280
     1
102
RTVSPost2010Prop28
280
     0
102
RTVSPost2010PropOp28
 70
     1
102
RTVSPost2010Prop29
280
     1
102
RTVSPost2010PropOp29
 70
     1
102
RTVSPost2010Prop30
280
     1
102
RTVSPost2010PropOp30
 70
     1
102
RTVSPost2010Prop31
280
     0
102
RTVSPost2010PropOp31
 70
     1
102
RTVSPost2010Prop32
280
     0
102
RTVSPost2010PropOp32
 70
     1
102
RTVSPost2010Prop33
280
     0
102
RTVSPost2010PropOp33
 70
     1
102
RTVSPost2010Prop34
280
     0
102
RTVSPost2010PropOp34
 70
     1
102
RTVSPost2010Prop35
280
     0
102
RTVSPost2010PropOp35
 70
     1
102
RTVSPost2010Prop36
280
     0
102
RTVSPost2010PropOp36
 70
     1
102
RTVSPost2010Prop37
 90
       50
102
RTVSPost2010PropOp37
 70
     1
102
RTVSPost2010Prop38
140
0.0
102
RTVSPost2010PropOp38
 70
     1
102
RTVSPost2010Prop39
140
1.0
102
RTVSPost2010PropOp39
 70
     1
102
RTVSPost2010Prop40
 90
        0
102
RTVSPost2010PropOp40
 70
     1
102
RTVSPost2010Prop41ColorIndex
 90
       18
102
RTVSPost2010Prop41ColorRGB
 90
        0
102
RTVSPost2010PropOp41
 70
     1
102
RTVSPost2010Prop42
 90
       50
102
RTVSPost2010PropOp42
 70
     1
102
RTVSPost2010Prop43
 90
        3
102
RTVSPost2010PropOp43
 70
     1
102
RTVSPost2010Prop44ColorIndex
 90
        5
102
RTVSPost2010Prop44ColorRGB
 90
      255
102
RTVSPost2010PropOp44
 70
     1
102
RTVSPost2010Prop45
280
     0
102
RTVSPost2010PropOp45
 70
     1
102
RTVSPost2010Prop46
 90
       50
102
RTVSPost2010PropOp46
 70
     1
102
RTVSPost2010Prop47
 90
       50
102
RTVSPost2010PropOp47
 70
     1
102
RTVSPost2010Prop48
 90
       50
102
RTVSPost2010PropOp48
 70
     1
102
RTVSPost2010Prop49
280
     0
102
RTVSPost2010PropOp49
 70
     1
102
RTVSPost2010Prop50
 90
       50
102
RTVSPost2010PropOp50
 70
     1
102
RTVSPost2010Prop51ColorIndex
 90
      256
102
RTVSPost2010Prop51ColorRGB
 90
-16777216
102
RTVSPost2010PropOp51
 70
     0
102
RTVSPost2010Prop52
140
1.0
102
RTVSPost2010PropOp52
 70
     0
102
RTVSPost2010Prop53
 90
        2
102
RTVSPost2010PropOp53
 70
     1
102
RTVSPost2010Prop54
  1
strokes_ogs.tif
102
RTVSPost2010PropOp54
 70
     1
102
RTVSPost2010Prop55
280
     0
102
RTVSPost2010PropOp55
 70
     1
102
RTVSPost2010Prop56
140
1.0
102
RTVSPost2010PropOp56
 70
     1
102
RTVSPost2010Prop57
140
1.0
102
RTVSPost2010PropOp57
 70
     1
102
RTVSPropertyOp0
 70
     1
102
RTVSPropertyOp1
 70
     1
102
RTVSPropertyOp2
 70
     1
102
RTVSPropertyOp3
 70
     1
102
RTVSPropertyOp4
 70
     1
102
RTVSPropertyOp5
 70
     1
102
RTVSPropertyOp6
 70
     1
102
RTVSPropertyOp7
 70
     1
102
RTVSPropertyOp8
 70
     1
102
RTVSPropertyOp9
 70
     1
102
RTVSPropertyOp10
 70
     1
102
RTVSPropertyOp11
 70
     1
102
RTVSPropertyOp12
 70
     1
102
RTVSPropertyOp13
 70
     1
102
RTVSPropertyOp14
 70
     1
102
RTVSPropertyOp15
 70
     1
102
RTVSPropertyOp16
 70
     1
102
RTVSPropertyOp17
 70
     1
102
RTVSPropertyOp18
 70
     1
102
RTVSPropertyOp19
 70
     1
102
RTVSPropertyOp20
 70
     1
102
RTVSPropertyOp21
 70
     1
102
RTVSPropertyOp22
 70
     1
102
RTVSPropertyOp23
 70
     1
102
RTVSPropertyOp24
 70
     1
102
RTVSPropertyOp25
 70
     1
102
RTVSPropertyOp26
 70
     1
102
RTVSPropertyOp27
 70
     1
102
RTVSPropertyOp28
 70
     1
102
RTVSPropertyOp29
 70
     1
102
RTVSPropertyOp30
 70
     1
102
RTVSPropertyOp31
 70
     1
102
RTVSPropertyOp32
 70
     1
102
RTVSPropertyOp33
 70
     1
102
RTVSPropertyOp34
 70
     1
102
RTVSPropertyOp35
 70
     1
102
RTVSPropertyOp36
 70
     1
102
RTVSPropertyOp37
 70
     1
102
RTVSPropertyOp38
 70
     1
102
RTVSPropertyOp39
 70
     1
102
RTVSPropertyOp40
 70
     1
102
RTVSPropertyOp41
 70
     1
102
RTVSPropertyOp42
 70
     1
102
RTVSPropertyOp43
 70
     1
102
RTVSPropertyOp44
 70
     1
102
RTVSPropertyOp45
 70
     1
102
RTVSPropertyOp46
 70
     1
102
RTVSPropertyOp47
 70
     1
102
RTVSPropertyOp48
 70
     1
102
RTVSPropertyOp49
 70
     1
102
RTVSPropertyOp50
 70
     1
102
RTVSPropertyOp51
 70
     0
102
RTVSPropertyOp52
 70
     0
102
RTVSPropertyOp53
 70
     1
102
RTVSPropertyOp54
 70
     1
102
RTVSPropertyOp55
 70
     1
102
RTVSPropertyOp56
 70
     1
102
RTVSPropertyOp57
 70
     1
102
RTVSPropertyOp58
 70
     1
102
RTVSPropertyOp59
 70
     1
102
RTVSPropertyOp60
 70
     1
102
RTVSPropertyOp61
 70
     1
102
RTVSPropertyOp62
 70
     1
  0
ENDSEC
  0
EOF
