  0
SECTION
  2
HEADER
  9
$ACADVER
  1
AC1015
  9
$ACADMAINTVER
 70
    20
  9
$DWGCODEPAGE
  3
ANSI_932
  9
$INSBASE
 10
0.0
 20
0.0
 30
0.0
  9
$EXTMIN
 10
0.0
 20
-0.0000000000000041
 30
0.0
  9
$EXTMAX
 10
410.1334344920537
 20
334.035298064682
 30
0.0
  9
$LIMMIN
 10
0.0
 20
0.0
  9
$LIMMAX
 10
12.0
 20
9.0
  9
$ORTHOMODE
 70
     0
  9
$REGENMODE
 70
     1
  9
$FILLMODE
 70
     1
  9
$QTEXTMODE
 70
     0
  9
$MIRRTEXT
 70
     1
  9
$LTSCALE
 40
1.0
  9
$ATTMODE
 70
     1
  9
$TEXTSIZE
 40
0.2
  9
$TRACEWID
 40
0.05
  9
$TEXTSTYLE
  7
STANDARD
  9
$CLAYER
  8
0
  9
$CELTYPE
  6
CONTINUOUS
  9
$CECOLOR
 62
   256
  9
$CELTSCALE
 40
1.0
  9
$DISPSILH
 70
     0
  9
$DIMSCALE
 40
1.0
  9
$DIMASZ
 40
0.18
  9
$DIMEXO
 40
0.0625
  9
$DIMDLI
 40
0.38
  9
$DIMRND
 40
0.0
  9
$DIMDLE
 40
0.0
  9
$DIMEXE
 40
0.18
  9
$DIMTP
 40
0.0
  9
$DIMTM
 40
0.0
  9
$DIMTXT
 40
0.18
  9
$DIMCEN
 40
0.09
  9
$DIMTSZ
 40
0.0
  9
$DIMTOL
 70
     0
  9
$DIMLIM
 70
     0
  9
$DIMTIH
 70
     1
  9
$DIMTOH
 70
     1
  9
$DIMSE1
 70
     0
  9
$DIMSE2
 70
     0
  9
$DIMTAD
 70
     0
  9
$DIMZIN
 70
     0
  9
$DIMBLK
  1

  9
$DIMASO
 70
     1
  9
$DIMSHO
 70
     1
  9
$DIMPOST
  1

  9
$DIMAPOST
  1

  9
$DIMALT
 70
     0
  9
$DIMALTD
 70
     2
  9
$DIMALTF
 40
25.4
  9
$DIMLFAC
 40
1.0
  9
$DIMTOFL
 70
     0
  9
$DIMTVP
 40
0.0
  9
$DIMTIX
 70
     0
  9
$DIMSOXD
 70
     0
  9
$DIMSAH
 70
     0
  9
$DIMBLK1
  1

  9
$DIMBLK2
  1

  9
$DIMSTYLE
  2
STANDARD
  9
$DIMCLRD
 70
     0
  9
$DIMCLRE
 70
     0
  9
$DIMCLRT
 70
     0
  9
$DIMTFAC
 40
1.0
  9
$DIMGAP
 40
0.09
  9
$DIMJUST
 70
     0
  9
$DIMSD1
 70
     0
  9
$DIMSD2
 70
     0
  9
$DIMTOLJ
 70
     1
  9
$DIMTZIN
 70
     0
  9
$DIMALTZ
 70
     0
  9
$DIMALTTZ
 70
     0
  9
$DIMUPT
 70
     0
  9
$DIMDEC
 70
     4
  9
$DIMTDEC
 70
     4
  9
$DIMALTU
 70
     2
  9
$DIMALTTD
 70
     2
  9
$DIMTXSTY
  7
STANDARD
  9
$DIMAUNIT
 70
     0
  9
$DIMADEC
 70
     0
  9
$DIMALTRND
 40
0.0
  9
$DIMAZIN
 70
     0
  9
$DIMDSEP
 70
    46
  9
$DIMATFIT
 70
     3
  9
$DIMFRAC
 70
     0
  9
$DIMLDRBLK
  1

  9
$DIMLUNIT
 70
     2
  9
$DIMLWD
 70
    -2
  9
$DIMLWE
 70
    -2
  9
$DIMTMOVE
 70
     0
  9
$LUNITS
 70
     2
  9
$LUPREC
 70
     4
  9
$SKETCHINC
 40
0.1
  9
$FILLETRAD
 40
0.0
  9
$AUNITS
 70
     0
  9
$AUPREC
 70
     0
  9
$MENU
  1
.
  9
$ELEVATION
 40
0.0
  9
$PELEVATION
 40
0.0
  9
$THICKNESS
 40
0.0
  9
$LIMCHECK
 70
     0
  9
$CHAMFERA
 40
0.0
  9
$CHAMFERB
 40
0.0
  9
$CHAMFERC
 40
0.0
  9
$CHAMFERD
 40
0.0
  9
$SKPOLY
 70
     0
  9
$TDCREATE
 40
2454674.581715128
  9
$TDUCREATE
 40
2454674.206715128
  9
$TDUPDATE
 40
2457354.739951215
  9
$TDUUPDATE
 40
2457354.364951215
  9
$TDINDWG
 40
0.0034998148
  9
$TDUSRTIMER
 40
0.0034998148
  9
$USRTIMER
 70
     1
  9
$ANGBASE
 50
0.0
  9
$ANGDIR
 70
     0
  9
$PDMODE
 70
     0
  9
$PDSIZE
 40
0.0
  9
$PLINEWID
 40
0.0
  9
$SPLFRAME
 70
     0
  9
$SPLINETYPE
 70
     6
  9
$SPLINESEGS
 70
     8
  9
$HANDSEED
  5
5C7
  9
$SURFTAB1
 70
     6
  9
$SURFTAB2
 70
     6
  9
$SURFTYPE
 70
     6
  9
$SURFU
 70
     6
  9
$SURFV
 70
     6
  9
$UCSBASE
  2

  9
$UCSNAME
  2

  9
$UCSORG
 10
0.0
 20
0.0
 30
0.0
  9
$UCSXDIR
 10
1.0
 20
0.0
 30
0.0
  9
$UCSYDIR
 10
0.0
 20
1.0
 30
0.0
  9
$UCSORTHOREF
  2

  9
$UCSORTHOVIEW
 70
     0
  9
$UCSORGTOP
 10
0.0
 20
0.0
 30
0.0
  9
$UCSORGBOTTOM
 10
0.0
 20
0.0
 30
0.0
  9
$UCSORGLEFT
 10
0.0
 20
0.0
 30
0.0
  9
$UCSORGRIGHT
 10
0.0
 20
0.0
 30
0.0
  9
$UCSORGFRONT
 10
0.0
 20
0.0
 30
0.0
  9
$UCSORGBACK
 10
0.0
 20
0.0
 30
0.0
  9
$PUCSBASE
  2

  9
$PUCSNAME
  2

  9
$PUCSORG
 10
0.0
 20
0.0
 30
0.0
  9
$PUCSXDIR
 10
1.0
 20
0.0
 30
0.0
  9
$PUCSYDIR
 10
0.0
 20
1.0
 30
0.0
  9
$PUCSORTHOREF
  2

  9
$PUCSORTHOVIEW
 70
     0
  9
$PUCSORGTOP
 10
0.0
 20
0.0
 30
0.0
  9
$PUCSORGBOTTOM
 10
0.0
 20
0.0
 30
0.0
  9
$PUCSORGLEFT
 10
0.0
 20
0.0
 30
0.0
  9
$PUCSORGRIGHT
 10
0.0
 20
0.0
 30
0.0
  9
$PUCSORGFRONT
 10
0.0
 20
0.0
 30
0.0
  9
$PUCSORGBACK
 10
0.0
 20
0.0
 30
0.0
  9
$USERI1
 70
     0
  9
$USERI2
 70
     0
  9
$USERI3
 70
     0
  9
$USERI4
 70
     0
  9
$USERI5
 70
     0
  9
$USERR1
 40
0.0
  9
$USERR2
 40
0.0
  9
$USERR3
 40
0.0
  9
$USERR4
 40
0.0
  9
$USERR5
 40
0.0
  9
$WORLDVIEW
 70
     1
  9
$SHADEDGE
 70
     3
  9
$SHADEDIF
 70
    70
  9
$TILEMODE
 70
     1
  9
$MAXACTVP
 70
    64
  9
$PINSBASE
 10
0.0
 20
0.0
 30
0.0
  9
$PLIMCHECK
 70
     0
  9
$PEXTMIN
 10
1.000000000000000E+20
 20
1.000000000000000E+20
 30
1.000000000000000E+20
  9
$PEXTMAX
 10
-1.000000000000000E+20
 20
-1.000000000000000E+20
 30
-1.000000000000000E+20
  9
$PLIMMIN
 10
0.0
 20
0.0
  9
$PLIMMAX
 10
12.0
 20
9.0
  9
$UNITMODE
 70
     0
  9
$VISRETAIN
 70
     1
  9
$PLINEGEN
 70
     0
  9
$PSLTSCALE
 70
     1
  9
$TREEDEPTH
 70
  3020
  9
$CMLSTYLE
  2
Standard
  9
$CMLJUST
 70
     0
  9
$CMLSCALE
 40
1.0
  9
$PROXYGRAPHICS
 70
     1
  9
$MEASUREMENT
 70
     0
  9
$CELWEIGHT
370
    -1
  9
$ENDCAPS
280
     0
  9
$JOINSTYLE
280
     0
  9
$LWDISPLAY
290
     0
  9
$INSUNITS
 70
     0
  9
$HYPERLINKBASE
  1

  9
$STYLESHEET
  1

  9
$XEDIT
290
     1
  9
$CEPSNTYPE
380
     0
  9
$PSTYLEMODE
290
     1
  9
$FINGERPRINTGUID
  2
{91CDCDB7-9FD6-4C6C-9926-EFE0AE96A1DA}
  9
$VERSIONGUID
  2
{ABA3E89D-B6BC-44ED-B5E2-DE88FF45CD57}
  9
$EXTNAMES
290
     1
  9
$PSVPSCALE
 40
0.0
  9
$OLESTARTUP
290
     0
  0
ENDSEC
  0
SECTION
  2
CLASSES
  0
CLASS
  1
ACDBDICTIONARYWDFLT
  2
AcDbDictionaryWithDefault
  3
ObjectDBX Classes
 90
        0
280
     0
281
     0
  0
CLASS
  1
MATERIAL
  2
AcDbMaterial
  3
ObjectDBX Classes
 90
     1153
280
     0
281
     0
  0
CLASS
  1
VISUALSTYLE
  2
AcDbVisualStyle
  3
ObjectDBX Classes
 90
     4095
280
     0
281
     0
  0
CLASS
  1
SCALE
  2
AcDbScale
  3
ObjectDBX Classes
 90
     1153
280
     0
281
     0
  0
CLASS
  1
TABLESTYLE
  2
AcDbTableStyle
  3
ObjectDBX Classes
 90
     4095
280
     0
281
     0
  0
CLASS
  1
MLEADERSTYLE
  2
AcDbMLeaderStyle
  3
ACDB_MLEADERSTYLE_CLASS
 90
     4095
280
     0
281
     0
  0
CLASS
  1
ACDBSECTIONVIEWSTYLE
  2
AcDbSectionViewStyle
  3
ObjectDBX Classes
 90
     1025
280
     0
281
     0
  0
CLASS
  1
ACDBDETAILVIEWSTYLE
  2
AcDbDetailViewStyle
  3
ObjectDBX Classes
 90
     1025
280
     0
281
     0
  0
CLASS
  1
AMGSETTINGSOBJ
  2
AmgSettingsObj
  3
"AcadM|Product Description: AutoCAD Mechanical|Company: Autodesk, Inc."
 90
     1024
280
     0
281
     0
  0
CLASS
  1
ACME_DOCUMENT
  2
AcMeDbDoc
  3
AcMeServices
 90
     1024
280
     0
281
     0
  0
CLASS
  1
ACMESCOPE
  2
AcMeScope
  3
AcMeServices
 90
     1024
280
     0
281
     0
  0
CLASS
  1
ACMECOMMANDHISTORY
  2
AcMeCommandHistory
  3
AcMeServices
 90
     1024
280
     0
281
     0
  0
CLASS
  1
ACIMSYSVARMAN
  2
AcImSysVarManager
  3
AcMeServices
 90
     1024
280
     0
281
     0
  0
CLASS
  1
ACIMINTSYSVAR
  2
AcImIntSysVar
  3
AcMeServices
 90
     1024
280
     0
281
     0
  0
CLASS
  1
ACMESTATEMGR
  2
AcMeStateMgr
  3
AcMeServices
 90
     1024
280
     0
281
     0
  0
CLASS
  1
ACDBENTITYCACHE
  2
AcMeEntityCache
  3
AcMeServices
 90
     1024
280
     0
281
     0
  0
CLASS
  1
ACGREFMASTER
  2
AcGrefMaster
  3
AcAttribServices
 90
     1024
280
     0
281
     0
  0
CLASS
  1
ACME_DATABASE
  2
AcMeDbDatabase
  3
AcMeServices
 90
     1024
280
     0
281
     0
  0
CLASS
  1
ACRFINSADJUSTERMGR
  2
AcRfInsAdjusterMgr
  3
AcMeServices
 90
     1024
280
     0
281
     0
  0
CLASS
  1
ACGREFACADMASTER
  2
AcGrefacadMaster
  3
AcGrefServices
 90
     1024
280
     0
281
     0
  0
CLASS
  1
AMDTMENUSTATEMGR
  2
AmdtMenuStateMgr
  3
McadcomServices
 90
     1024
280
     0
281
     0
  0
CLASS
  1
AMDTMCOMMENUSTATE
  2
AmdtMcomMenuState
  3
McadcomServices
 90
     1024
280
     0
281
     0
  0
CLASS
  1
AMIMASTER
  2
AmiMaster
  3
AmiServices
 90
     1024
280
     0
281
     0
  0
CLASS
  1
MAPIAMMOUDLE
  2
MApiAmModule
  3
MApiAmServices
 90
     1024
280
     0
281
     0
  0
CLASS
  1
ACIMSTRSYSVAR
  2
AcImStrSysVar
  3
AcMeServices
 90
     1024
280
     0
281
     0
  0
CLASS
  1
AMDTAMMENUSTATE
  2
AmdtAmMenuState
  3
DesignerAssemblies
 90
     1024
280
     0
281
     0
  0
CLASS
  1
ACAMPROJECT
  2
AcAmProject
  3
DesignerAssemblies
 90
     1024
280
     0
281
     0
  0
CLASS
  1
ACAMGRCOMPDEF
  2
AcAmGrCompDef
  3
DesignerAssemblies
 90
     1024
280
     0
281
     0
  0
CLASS
  1
ACAMCOMPDEF
  2
AcAmCompDef
  3
DesignerAssemblies
 90
     1024
280
     0
281
     0
  0
CLASS
  1
ACAMCOMPDEFMGR
  2
AcAmCompDefMgr
  3
DesignerAssemblies
 90
     1024
280
     0
281
     0
  0
CLASS
  1
AMCONTEXTMGR
  2
AcAmContextMgr
  3
DesignerAssemblies
 90
     1024
280
     0
281
     0
  0
CLASS
  1
ACAMCONTEXTMODELER
  2
AcAmContextModeler
  3
DesignerAssemblies
 90
     1024
280
     0
281
     0
  0
CLASS
  1
ACMDATADICTIONARY
  2
AcmDataDictionary
  3
"AcmSymBB|Product Description: AutoCAD Mechanical|Company: Autodesk, Inc."
 90
     1024
280
     0
281
     0
  0
CLASS
  1
ACAMGRCOMPDEFSET
  2
AcAmGrCompDefSet
  3
DesignerAssemblies
 90
     1024
280
     0
281
     0
  0
CLASS
  1
AMDTBROWSERDBTAB
  2
AmdtBrowserDbTab
  3
McadcomServices
 90
     1024
280
     0
281
     0
  0
CLASS
  1
CBROWSERAPPOBJECT
  2
CBrowserAppObject
  3
McadcomServices
 90
     1024
280
     0
281
     0
  0
CLASS
  1
DM_PLACEHOLDER
  2
AcDmSelsetPlaceholder
  3
McadcomServices
 90
     1024
280
     0
281
     0
  0
CLASS
  1
ACMSTANDARDANSI
  2
AcmStandardANSI
  3
"Amdt_StdImp|Product Description: AutoCAD Mechanical|Company: Autodesk, Inc."
 90
     1024
280
     0
281
     0
  0
CLASS
  1
ACMSURFSTANDARDANSI
  2
AcmSurfTextStdANSI
  3
"Amdt_StdImp|Product Description: AutoCAD Mechanical|Company: Autodesk, Inc."
 90
     1024
280
     0
281
     0
  0
CLASS
  1
ACMFCFSTANDARDANSI
  2
AcmFCFStdANSI
  3
"Amdt_StdImp|Product Description: AutoCAD Mechanical|Company: Autodesk, Inc."
 90
     1024
280
     0
281
     0
  0
CLASS
  1
ACMWELDSTANDARDANSI
  2
AcmWeldingStdANSI
  3
"Amdt_StdImp|Product Description: AutoCAD Mechanical|Company: Autodesk, Inc."
 90
     1024
280
     0
281
     0
  0
CLASS
  1
ACMIDSTANDARDANSI
  2
AcmIdStdANSI
  3
"Amdt_StdImp|Product Description: AutoCAD Mechanical|Company: Autodesk, Inc."
 90
     1024
280
     0
281
     0
  0
CLASS
  1
ACMDATUMSTANDARDANSI
  2
AcmDatumStdANSI
  3
"Amdt_StdImp|Product Description: AutoCAD Mechanical|Company: Autodesk, Inc."
 90
     1024
280
     0
281
     0
  0
CLASS
  1
ACMBOMSTANDARDANSI
  2
AcmBOMStdANSI
  3
"Amdt_StdImp|Product Description: AutoCAD Mechanical|Company: Autodesk, Inc."
 90
     1024
280
     0
281
     0
  0
CLASS
  1
ACMDETAILSTANDARDANSI
  2
AmdtDetailSymStdANSI
  3
"Amdt_StdImp|Product Description: AutoCAD Mechanical|Company: Autodesk, Inc."
 90
     1024
280
     0
281
     0
  0
CLASS
  1
ACMSECTIONSTANDARDANSI
  2
AmdtSectionSymStdANSI
  3
"Amdt_StdImp|Product Description: AutoCAD Mechanical|Company: Autodesk, Inc."
 90
     1024
280
     0
281
     0
  0
CLASS
  1
ACMCENTERLINESTANDARDANSI
  2
AmdtCenterLineStdANSI
  3
"Amdt_StdImp|Product Description: AutoCAD Mechanical|Company: Autodesk, Inc."
 90
     1024
280
     0
281
     0
  0
CLASS
  1
ACMTHREADLINESTANDARDANSI
  2
AmdtThreadLineStdANSI
  3
"Amdt_StdImp|Product Description: AutoCAD Mechanical|Company: Autodesk, Inc."
 90
     1024
280
     0
281
     0
  0
CLASS
  1
ACMNOTESTANDARDANSI
  2
AmdtNoteStdANSI
  3
"Amdt_StdImp|Product Description: AutoCAD Mechanical|Company: Autodesk, Inc."
 90
     1024
280
     0
281
     0
  0
CLASS
  1
ACMTAPERSTANDARDANSI
  2
AcmTaperStdANSI
  3
"Amdt_StdImp|Product Description: AutoCAD Mechanical|Company: Autodesk, Inc."
 90
     1024
280
     0
281
     0
  0
CLASS
  1
ACMANOOTATIONVIEWSTANDARDANSI
  2
AmdtAnViewStdANSI
  3
"Amdt_StdImp|Product Description: AutoCAD Mechanical|Company: Autodesk, Inc."
 90
     1024
280
     0
281
     0
  0
CLASS
  1
ACAMGLAYSTD
  2
AcAmgLayStd
  3
"AmgLay|Product Description: AutoCAD Mechanical|Company: Autodesk, Inc."
 90
     1024
280
     0
281
     0
  0
CLASS
  1
ACAMGDIMSTD
  2
AcAmgDimStd
  3
"AmgDim|Product Description: AutoCAD Mechanical|Company: Autodesk, Inc."
 90
     1024
280
     0
281
     0
  0
CLASS
  1
AMGOBJPROPCFG
  2
AmgObjPropCfg
  3
"AmgLay|Product Description: AutoCAD Mechanical|Company: Autodesk, Inc."
 90
     1024
280
     0
281
     0
  0
CLASS
  1
ACAMGHOLECHARTSTDANSI
  2
AcAmgHoleChartStdANSI
  3
AmgDim|Product Description: AutoCAD Mechanical|Company: Autodesk, Inc.
 90
     1024
280
     0
281
     0
  0
CLASS
  1
ACAMGTITLESTD
  2
AcAmgTitleStd
  3
"AmgTitle|Product Description: AutoCAD Mechanical|Company: Autodesk, Inc."
 90
     1024
280
     0
281
     0
  0
CLASS
  1
AMDTNOTETEMPLATEDB
  2
AmdtNoteTemplateDB
  3
AcmSymBB|Product Description: AutoCAD Mechanical|Company: Autodesk, Inc.
 90
     1024
280
     0
281
     0
  0
CLASS
  1
ACAMGFILTERDAT
  2
AcAmgFilterDat
  3
"AcadM|Product Description: AutoCAD Mechanical|Company: Autodesk, Inc."
 90
     1024
280
     0
281
     0
  0
CLASS
  1
SORTENTSTABLE
  2
AcDbSortentsTable
  3
ObjectDBX Classes
 90
        0
280
     0
281
     0
  0
CLASS
  1
CELLSTYLEMAP
  2
AcDbCellStyleMap
  3
ObjectDBX Classes
 90
     1152
280
     0
281
     0
  0
CLASS
  1
DICTIONARYVAR
  2
AcDbDictionaryVar
  3
ObjectDBX Classes
 90
        0
280
     0
281
     0
  0
CLASS
  1
ACDBPLACEHOLDER
  2
AcDbPlaceHolder
  3
ObjectDBX Classes
 90
        0
280
     0
281
     0
  0
CLASS
  1
LAYOUT
  2
AcDbLayout
  3
ObjectDBX Classes
 90
        0
280
     0
281
     0
  0
ENDSEC
  0
SECTION
  2
TABLES
  0
TABLE
  2
VPORT
  5
BD
330
0
100
AcDbSymbolTable
 70
     1
  0
VPORT
  5
129
330
BD
100
AcDbSymbolTableRecord
100
AcDbViewportTableRecord
  2
*ACTIVE
 70
     0
 10
0.0
 20
0.0
 11
1.0
 21
1.0
 12
225.13730513292
 22
184.8570534426839
 13
0.0
 23
0.0
 14
1.0
 24
1.0
 15
0.0
 25
0.0
 16
0.0
 26
0.0
 36
1.0
 17
0.0
 27
0.0
 37
0.0
 40
860.3327572873061
 41
1.681623931623931
 42
50.0
 43
0.0
 44
0.0
 50
0.0
 51
0.0
 71
     0
 72
   100
 73
     1
 74
     3
 75
     0
 76
     0
 77
     0
 78
     0
281
     0
 65
     0
110
0.0
120
0.0
130
0.0
111
1.0
121
0.0
131
0.0
112
0.0
122
1.0
132
0.0
 79
     0
146
0.0
1001
ACAD_NAV_VCDISPLAY
1070
     3
  0
ENDTAB
  0
TABLE
  2
LTYPE
  5
BA
330
0
100
AcDbSymbolTable
 70
     8
  0
LTYPE
  5
10F
330
BA
100
AcDbSymbolTableRecord
100
AcDbLinetypeTableRecord
  2
ByBlock
 70
     0
  3

 72
    65
 73
     0
 40
0.0
  0
LTYPE
  5
110
330
BA
100
AcDbSymbolTableRecord
100
AcDbLinetypeTableRecord
  2
ByLayer
 70
     0
  3

 72
    65
 73
     0
 40
0.0
  0
LTYPE
  5
111
330
BA
100
AcDbSymbolTableRecord
100
AcDbLinetypeTableRecord
  2
CONTINUOUS
 70
     0
  3
Solid line
 72
    65
 73
     0
 40
0.0
  0
LTYPE
  5
11D
330
BA
100
AcDbSymbolTableRecord
100
AcDbLinetypeTableRecord
  2
PHANTOM2
 70
     0
  3
Phantom (.5x) ___ _ _ ___ _ _ ___ _ _ ___ _ _
 72
    65
 73
     6
 40
1.25
 49
0.625
 74
     0
 49
-0.125
 74
     0
 49
0.125
 74
     0
 49
-0.125
 74
     0
 49
0.125
 74
     0
 49
-0.125
 74
     0
  0
LTYPE
  5
13D
330
BA
100
AcDbSymbolTableRecord
100
AcDbLinetypeTableRecord
  2
HIDDEN
 70
     0
  3
Hidden __ __ __ __ __ __ __ __ __ __ __ __ __ _
 72
    65
 73
     2
 40
0.375
 49
0.25
 74
     0
 49
-0.125
 74
     0
  0
LTYPE
  5
13E
330
BA
100
AcDbSymbolTableRecord
100
AcDbLinetypeTableRecord
  2
CENTER
 70
     0
  3
Center ____ _ ____ _ ____ _ ____ _ ____ _ ____
 72
    65
 73
     4
 40
2.0
 49
1.25
 74
     0
 49
-0.25
 74
     0
 49
0.25
 74
     0
 49
-0.25
 74
     0
  0
LTYPE
  5
178
330
BA
100
AcDbSymbolTableRecord
100
AcDbLinetypeTableRecord
  2
CENTER2
 70
     0
  3
Center (.5x) ___ _ ___ _ ___ _ ___ _ ___ _ ___
 72
    65
 73
     4
 40
1.125
 49
0.75
 74
     0
 49
-0.125
 74
     0
 49
0.125
 74
     0
 49
-0.125
 74
     0
  0
LTYPE
  5
179
330
BA
100
AcDbSymbolTableRecord
100
AcDbLinetypeTableRecord
  2
HIDDEN2
 70
     0
  3
Hidden (.5x) _ _ _ _ _ _ _ _ _ _ _ _ _ _ _ _ _
 72
    65
 73
     2
 40
0.1875
 49
0.125
 74
     0
 49
-0.0625
 74
     0
  0
LTYPE
  5
187
330
BA
100
AcDbSymbolTableRecord
100
AcDbLinetypeTableRecord
  2
ACANSTGB
 70
     0
  3
__ . . __ . .
 72
    65
 73
     6
 40
0.35433070866
 49
0.15748031496
 74
     0
 49
-0.03937007874
 74
     0
 49
0.03937007874
 74
     0
 49
-0.03937007874
 74
     0
 49
0.03937007874
 74
     0
 49
-0.03937007874
 74
     0
  0
LTYPE
  5
188
330
BA
100
AcDbSymbolTableRecord
100
AcDbLinetypeTableRecord
  2
ACANSTGL
 70
     0
  3
_ _ _ _ _
 72
    65
 73
     2
 40
0.11811023622
 49
0.07874015748
 74
     0
 49
-0.03937007874
 74
     0
  0
ENDTAB
  0
TABLE
  2
LAYER
  5
B7
330
0
100
AcDbSymbolTable
 70
     2
  0
LAYER
  5
109
102
{ACAD_XDICTIONARY
360
578
102
}
330
B7
100
AcDbSymbolTableRecord
100
AcDbLayerTableRecord
  2
0
 70
     0
 62
     7
  6
CONTINUOUS
370
    -3
390
C4
  0
LAYER
  5
51B
102
{ACAD_XDICTIONARY
360
57A
102
}
330
B7
100
AcDbSymbolTableRecord
100
AcDbLayerTableRecord
  2
AM_CL
 70
     0
 62
     1
  6
CONTINUOUS
370
    15
390
C4
1001
AcAecLayerStandard
1000

1000

  0
ENDTAB
  0
TABLE
  2
STYLE
  5
B8
330
0
100
AcDbSymbolTable
 70
     4
  0
STYLE
  5
10A
330
B8
100
AcDbSymbolTableRecord
100
AcDbTextStyleTableRecord
  2
STANDARD
 70
     0
 40
0.0
 41
1.0
 50
0.0
 71
     0
 42
0.2
  3
txt
  4

  0
STYLE
  5
10E
330
B8
100
AcDbSymbolTableRecord
100
AcDbTextStyleTableRecord
  2
Annotative
 70
     0
 40
0.0
 41
1.0
 50
0.0
 71
     0
 42
0.2
  3
txt
  4

1001
AcadAnnotative
1000
AnnotativeData
1002
{
1070
     1
1070
     1
1002
}
  0
STYLE
  5
185
330
B8
100
AcDbSymbolTableRecord
100
AcDbTextStyleTableRecord
  2
ACANSTS
 70
     0
 40
1.0
 41
1.0
 50
0.0
 71
     0
 42
0.2
  3
romans.shx
  4
extfont.shx
  0
STYLE
  5
186
330
B8
100
AcDbSymbolTableRecord
100
AcDbTextStyleTableRecord
  2
ACANSGDT
 70
     0
 40
0.0
 41
1.0
 50
0.0
 71
     0
 42
0.2
  3
amgdt.shx
  4

  0
ENDTAB
  0
TABLE
  2
VIEW
  5
BB
330
0
100
AcDbSymbolTable
 70
     0
  0
ENDTAB
  0
TABLE
  2
UCS
  5
BC
330
0
100
AcDbSymbolTable
 70
     0
  0
ENDTAB
  0
TABLE
  2
APPID
  5
BE
330
0
100
AcDbSymbolTable
 70
    15
  0
APPID
  5
10B
330
BE
100
AcDbSymbolTableRecord
100
AcDbRegAppTableRecord
  2
ACAD
 70
     0
  0
APPID
  5
112
330
BE
100
AcDbSymbolTableRecord
100
AcDbRegAppTableRecord
  2
AcadAnnotative
 70
     0
  0
APPID
  5
136
330
BE
100
AcDbSymbolTableRecord
100
AcDbRegAppTableRecord
  2
MCAD_NO_VIS
 70
     0
  0
APPID
  5
137
330
BE
100
AcDbSymbolTableRecord
100
AcDbRegAppTableRecord
  2
ACAD_TEMP_GRAPHIC
 70
     0
  0
APPID
  5
143
330
BE
100
AcDbSymbolTableRecord
100
AcDbRegAppTableRecord
  2
ACATTRIBSERVICES
 70
     0
  0
APPID
  5
15B
330
BE
100
AcDbSymbolTableRecord
100
AcDbRegAppTableRecord
  2
DESIGNERASSEMBLIES
 70
     0
  0
APPID
  5
175
330
BE
100
AcDbSymbolTableRecord
100
AcDbRegAppTableRecord
  2
ACAD_DSTYLE_DIMJAG
 70
     0
  0
APPID
  5
176
330
BE
100
AcDbSymbolTableRecord
100
AcDbRegAppTableRecord
  2
ACAD_DSTYLE_DIMBREAK
 70
     0
  0
APPID
  5
190
330
BE
100
AcDbSymbolTableRecord
100
AcDbRegAppTableRecord
  2
ACAD_NAV_VCDISPLAY
 70
     0
  0
APPID
  5
51C
330
BE
100
AcDbSymbolTableRecord
100
AcDbRegAppTableRecord
  2
AcAecLayerStandard
 70
     0
  0
APPID
  5
5BE
330
BE
100
AcDbSymbolTableRecord
100
AcDbRegAppTableRecord
  2
ACAD_MLEADERVER
 70
     0
  0
APPID
  5
5C3
330
BE
100
AcDbSymbolTableRecord
100
AcDbRegAppTableRecord
  2
ACAD_DSTYLE_DIMARC_LENGTH_SYMBOL
 70
     0
  0
APPID
  5
5C4
330
BE
100
AcDbSymbolTableRecord
100
AcDbRegAppTableRecord
  2
ACAD_DSTYLE_DIM_LINETYPE
 70
     0
  0
APPID
  5
5C5
330
BE
100
AcDbSymbolTableRecord
100
AcDbRegAppTableRecord
  2
ACAD_DSTYLE_DIM_EXT1_LINETYPE
 70
     0
  0
APPID
  5
5C6
330
BE
100
AcDbSymbolTableRecord
100
AcDbRegAppTableRecord
  2
ACAD_DSTYLE_DIM_EXT2_LINETYPE
 70
     0
  0
ENDTAB
  0
TABLE
  2
DIMSTYLE
  5
BF
330
0
100
AcDbSymbolTable
 70
     8
100
AcDbDimStyleTable
 71
     0
  0
DIMSTYLE
105
10C
330
BF
100
AcDbSymbolTableRecord
100
AcDbDimStyleTableRecord
  2
STANDARD
 70
     0
279
     2
340
10A
  0
DIMSTYLE
105
10D
330
BF
100
AcDbSymbolTableRecord
100
AcDbDimStyleTableRecord
  2
Annotative
 70
     0
340
10A
1001
AcadAnnotative
1000
AnnotativeData
1002
{
1070
     1
1070
     1
1002
}
  0
DIMSTYLE
105
174
102
{ACAD_REACTORS
330
164
102
}
330
BF
100
AcDbSymbolTableRecord
100
AcDbDimStyleTableRecord
  2
AM_ANSI
 70
     0
  4
mm
 41
0.12
 42
0.05
 43
0.5
 44
0.1
 47
0.1
 48
0.1
 78
     7
 79
     2
140
0.12
141
0.0
146
0.71
147
0.06
176
   256
177
   256
178
     2
274
     4
284
     7
340
10A
371
    -1
372
    -1
1001
ACAD_DSTYLE_DIMJAG
1070
   388
1040
1.5
1001
ACAD_DSTYLE_DIMBREAK
1070
   391
1040
0.125
1001
ACAD_DSTYLE_DIMARC_LENGTH_SYMBOL
1070
   379
1070
     1
1001
ACAD_DSTYLE_DIM_LINETYPE
1070
   380
1005
10F
1001
ACAD_DSTYLE_DIM_EXT1_LINETYPE
1070
   381
1005
10F
1001
ACAD_DSTYLE_DIM_EXT2_LINETYPE
1070
   382
1005
10F
  0
DIMSTYLE
105
17A
330
BF
100
AcDbSymbolTableRecord
100
AcDbDimStyleTableRecord
  2
AM_ANSI$3
 70
     0
  4
mm
 41
0.12
 42
0.05
 43
0.5
 44
0.1
 47
0.1
 48
0.1
 78
     7
 79
     2
140
0.12
141
0.0
146
0.71
147
0.06
176
   256
177
   256
178
     2
274
     4
284
     7
288
     1
289
     0
340
10A
371
    -1
372
    -1
1001
ACAD_DSTYLE_DIMBREAK
1070
   391
1040
0.125
1001
ACAD_DSTYLE_DIMJAG
1070
   388
1040
1.5
1001
ACAD_DSTYLE_DIMARC_LENGTH_SYMBOL
1070
   379
1070
     1
1001
ACAD_DSTYLE_DIM_LINETYPE
1070
   380
1005
10F
1001
ACAD_DSTYLE_DIM_EXT1_LINETYPE
1070
   381
1005
10F
1001
ACAD_DSTYLE_DIM_EXT2_LINETYPE
1070
   382
1005
10F
  0
DIMSTYLE
105
17B
330
BF
100
AcDbSymbolTableRecord
100
AcDbDimStyleTableRecord
  2
AM_ANSI$4
 70
     0
  4
mm
 41
0.12
 42
0.05
 43
0.5
 44
0.1
 47
0.1
 48
0.1
 78
     7
 79
     2
140
0.12
141
0.0
146
0.71
147
0.06
176
   256
177
   256
178
     2
274
     4
284
     7
288
     1
289
     0
340
10A
371
    -1
372
    -1
1001
ACAD_DSTYLE_DIMBREAK
1070
   391
1040
0.125
1001
ACAD_DSTYLE_DIMJAG
1070
   388
1040
1.5
1001
ACAD_DSTYLE_DIMARC_LENGTH_SYMBOL
1070
   379
1070
     1
1001
ACAD_DSTYLE_DIM_LINETYPE
1070
   380
1005
10F
1001
ACAD_DSTYLE_DIM_EXT1_LINETYPE
1070
   381
1005
10F
1001
ACAD_DSTYLE_DIM_EXT2_LINETYPE
1070
   382
1005
10F
  0
DIMSTYLE
105
17C
330
BF
100
AcDbSymbolTableRecord
100
AcDbDimStyleTableRecord
  2
AM_ANSI$7
 70
     0
  4
mm
 41
0.12
 42
0.05
 43
0.5
 44
0.1
 47
0.1
 48
0.1
 78
     7
 79
     2
140
0.12
141
0.0
146
0.71
147
0.06
176
   256
177
   256
178
     2
274
     4
284
     7
340
10A
371
    -1
372
    -1
1001
ACAD_DSTYLE_DIMBREAK
1070
   391
1040
0.125
1001
ACAD_DSTYLE_DIMJAG
1070
   388
1040
1.5
1001
ACAD_DSTYLE_DIMARC_LENGTH_SYMBOL
1070
   379
1070
     1
1001
ACAD_DSTYLE_DIM_LINETYPE
1070
   380
1005
10F
1001
ACAD_DSTYLE_DIM_EXT1_LINETYPE
1070
   381
1005
10F
1001
ACAD_DSTYLE_DIM_EXT2_LINETYPE
1070
   382
1005
10F
  0
DIMSTYLE
105
17D
330
BF
100
AcDbSymbolTableRecord
100
AcDbDimStyleTableRecord
  2
AM_ANSI$SF
 70
     0
  4
mm
 41
0.12
 42
0.05
 43
0.5
 44
0.1
 47
0.1
 48
0.1
 75
     1
 76
     1
 78
     7
 79
     2
140
0.12
141
0.0
146
0.71
147
0.06
176
   256
177
   256
178
     2
274
     4
284
     7
340
10A
371
    -1
372
    -1
1001
ACAD_DSTYLE_DIMBREAK
1070
   391
1040
0.125
1001
ACAD_DSTYLE_DIMJAG
1070
   388
1040
1.5
1001
ACAD_DSTYLE_DIMARC_LENGTH_SYMBOL
1070
   379
1070
     1
1001
ACAD_DSTYLE_DIM_LINETYPE
1070
   380
1005
10F
1001
ACAD_DSTYLE_DIM_EXT1_LINETYPE
1070
   381
1005
10F
1001
ACAD_DSTYLE_DIM_EXT2_LINETYPE
1070
   382
1005
10F
  0
DIMSTYLE
105
182
330
BF
100
AcDbSymbolTableRecord
100
AcDbDimStyleTableRecord
  2
AM_ANSI$SH
 70
     0
  4
mm
 41
0.12
 42
0.05
 43
0.5
 44
0.1
 47
0.1
 48
0.1
 75
     1
 76
     1
 78
     7
 79
     2
140
0.12
141
0.0
146
0.71
147
0.06
173
     1
176
   256
177
   256
178
     2
274
     4
284
     7
340
10A
343
17E
371
    -1
372
    -1
1001
ACAD_DSTYLE_DIMBREAK
1070
   391
1040
0.125
1001
ACAD_DSTYLE_DIMJAG
1070
   388
1040
1.5
1001
ACAD_DSTYLE_DIMARC_LENGTH_SYMBOL
1070
   379
1070
     1
1001
ACAD_DSTYLE_DIM_LINETYPE
1070
   380
1005
10F
1001
ACAD_DSTYLE_DIM_EXT1_LINETYPE
1070
   381
1005
10F
1001
ACAD_DSTYLE_DIM_EXT2_LINETYPE
1070
   382
1005
10F
  0
ENDTAB
  0
TABLE
  2
BLOCK_RECORD
  5
B6
330
0
100
AcDbSymbolTable
 70
     6
  0
BLOCK_RECORD
  5
125
102
{ACAD_XDICTIONARY
360
51E
102
}
330
B6
100
AcDbSymbolTableRecord
100
AcDbBlockTableRecord
  2
*Model_Space
340
128
  0
BLOCK_RECORD
  5
121
330
B6
100
AcDbSymbolTableRecord
100
AcDbBlockTableRecord
  2
*Paper_Space
340
124
  0
BLOCK_RECORD
  5
12B
330
B6
100
AcDbSymbolTableRecord
100
AcDbBlockTableRecord
  2
$MODEL_SPACE
340
0
  0
BLOCK_RECORD
  5
12D
330
B6
100
AcDbSymbolTableRecord
100
AcDbBlockTableRecord
  2
$PAPER_SPACE
340
0
  0
BLOCK_RECORD
  5
17E
330
B6
100
AcDbSymbolTableRecord
100
AcDbBlockTableRecord
  2
GENAXEH
340
0
  0
ENDTAB
  0
ENDSEC
  0
SECTION
  2
BLOCKS
  0
BLOCK
  5
126
330
125
100
AcDbEntity
  8
0
100
AcDbBlockBegin
  2
*Model_Space
 70
     0
 10
0.0
 20
0.0
 30
0.0
  3
*Model_Space
  1

  0
ENDBLK
  5
127
330
125
100
AcDbEntity
  8
0
100
AcDbBlockEnd
  0
BLOCK
  5
122
330
121
100
AcDbEntity
 67
     1
  8
0
100
AcDbBlockBegin
  2
*Paper_Space
 70
     0
 10
0.0
 20
0.0
 30
0.0
  3
*Paper_Space
  1

  0
ENDBLK
  5
123
330
121
100
AcDbEntity
 67
     1
  8
0
100
AcDbBlockEnd
  0
BLOCK
  5
12C
330
12B
100
AcDbEntity
  8
0
100
AcDbBlockBegin
  2
$MODEL_SPACE
 70
     0
 10
0.0
 20
0.0
 30
0.0
  3
$MODEL_SPACE
  1

  0
ENDBLK
  5
20
330
12B
100
AcDbEntity
  8
0
100
AcDbBlockEnd
  0
BLOCK
  5
12E
330
12D
100
AcDbEntity
  8
0
100
AcDbBlockBegin
  2
$PAPER_SPACE
 70
     0
 10
0.0
 20
0.0
 30
0.0
  3
$PAPER_SPACE
  1

  0
ENDBLK
  5
1C
330
12D
100
AcDbEntity
  8
0
100
AcDbBlockEnd
  0
BLOCK
  5
180
330
17E
100
AcDbEntity
  8
0
100
AcDbBlockBegin
  2
GENAXEH
 70
     0
 10
0.0
 20
0.0
 30
0.0
  3
GENAXEH
  1

  0
LINE
  5
17F
330
17E
100
AcDbEntity
  8
0
100
AcDbLine
 10
-1.0
 20
0.0
 30
0.0
 11
1.0
 21
0.0
 31
0.0
  0
ENDBLK
  5
181
330
17E
100
AcDbEntity
  8
0
100
AcDbBlockEnd
  0
ENDSEC
  0
SECTION
  2
ENTITIES
  0
LINE
  5
22
330
125
100
AcDbEntity
  8
0
100
AcDbLine
 10
0.3
 20
0.299999999999996
 30
0.0
 11
1.0
 21
-0.0000000000000041
 31
0.0
  0
LINE
  5
23
330
125
100
AcDbEntity
  8
0
100
AcDbLine
 10
0.3
 20
0.299999999999996
 30
0.0
 11
1.0
 21
-0.0000000000000041
 31
0.0
  0
LINE
  5
24
330
125
100
AcDbEntity
  8
0
100
AcDbLine
 10
0.3
 20
0.2999999999999971
 30
0.0
 11
0.5
 21
0.2999999999999971
 31
0.0
  0
LINE
  5
25
330
125
100
AcDbEntity
  8
0
100
AcDbLine
 10
0.0
 20
0.999999999999996
 30
0.0
 11
0.3
 21
0.299999999999996
 31
0.0
  0
LINE
  5
26
330
125
100
AcDbEntity
  8
0
100
AcDbLine
 10
0.0
 20
0.9999999999999968
 30
0.0
 11
0.0
 21
119.0
 31
0.0
  0
LINE
  5
27
330
125
100
AcDbEntity
  8
0
100
AcDbLine
 10
1.0
 20
-0.0000000000000041
 30
0.0
 11
119.0
 21
-0.0000000000000041
 31
0.0
  0
LINE
  5
28
330
125
100
AcDbEntity
  8
0
100
AcDbLine
 10
0.999999999999996
 20
-0.0000000000000041
 30
0.0
 11
119.0
 21
-0.0000000000000041
 31
0.0
  0
LINE
  5
29
330
125
100
AcDbEntity
  8
0
100
AcDbLine
 10
0.999999999999996
 20
0.2999999999999971
 30
0.0
 11
119.0
 21
0.2999999999999971
 31
0.0
  0
LINE
  5
2A
330
125
100
AcDbEntity
  8
0
100
AcDbLine
 10
1.0
 20
0.2999999999999971
 30
0.0
 11
119.0
 21
0.2999999999999971
 31
0.0
  0
LINE
  5
2B
330
125
100
AcDbEntity
  8
0
100
AcDbLine
 10
0.5
 20
0.2999999999999971
 30
0.0
 11
1.0
 21
0.2999999999999971
 31
0.0
  0
LINE
  5
2C
330
125
100
AcDbEntity
  8
0
100
AcDbLine
 10
0.3
 20
0.9999999999999968
 30
0.0
 11
0.3
 21
119.0
 31
0.0
  0
LINE
  5
2D
330
125
100
AcDbEntity
  8
0
100
AcDbLine
 10
0.3
 20
0.9999999999999968
 30
0.0
 11
0.5
 21
0.2999999999999971
 31
0.0
  0
LINE
  5
2E
330
125
100
AcDbEntity
  8
0
100
AcDbLine
 10
53.95199999999999
 20
37.43999999999999
 30
0.0
 11
60.0
 21
36.576
 31
0.0
  0
LINE
  5
2F
330
125
100
AcDbEntity
  8
0
100
AcDbLine
 10
53.856
 20
36.864
 30
0.0
 11
60.0
 21
36.0
 31
0.0
  0
LINE
  5
30
330
125
100
AcDbEntity
  8
0
100
AcDbLine
 10
60.0
 20
36.576
 30
0.0
 11
66.048
 21
37.43999999999999
 31
0.0
  0
LINE
  5
32
330
125
100
AcDbEntity
  8
0
100
AcDbLine
 10
0.0
 20
119.0
 30
0.0
 11
0.3
 21
119.7
 31
0.0
  0
LINE
  5
33
330
125
100
AcDbEntity
  8
0
100
AcDbLine
 10
0.0
 20
119.0
 30
0.0
 11
0.0
 21
0.999999999999996
 31
0.0
  0
LINE
  5
34
330
125
100
AcDbEntity
  8
0
100
AcDbLine
 10
0.3
 20
119.0
 30
0.0
 11
0.5
 21
119.7
 31
0.0
  0
LINE
  5
35
330
125
100
AcDbEntity
  8
0
100
AcDbLine
 10
0.3
 20
119.0
 30
0.0
 11
0.3
 21
0.999999999999996
 31
0.0
  0
LINE
  5
36
330
125
100
AcDbEntity
  8
0
100
AcDbLine
 10
0.999999999999996
 20
119.7
 30
0.0
 11
119.0
 21
119.7
 31
0.0
  0
LINE
  5
37
330
125
100
AcDbEntity
  8
0
100
AcDbLine
 10
1.0
 20
119.7
 30
0.0
 11
119.0
 21
119.7
 31
0.0
  0
LINE
  5
38
330
125
100
AcDbEntity
  8
0
100
AcDbLine
 10
0.5
 20
119.7
 30
0.0
 11
1.0
 21
119.7
 31
0.0
  0
LINE
  5
39
330
125
100
AcDbEntity
  8
0
100
AcDbLine
 10
1.0
 20
120.0
 30
0.0
 11
119.0
 21
120.0
 31
0.0
  0
LINE
  5
3A
330
125
100
AcDbEntity
  8
0
100
AcDbLine
 10
0.999999999999996
 20
120.0
 30
0.0
 11
119.0
 21
120.0
 31
0.0
  0
LINE
  5
3B
330
125
100
AcDbEntity
  8
0
100
AcDbLine
 10
0.3
 20
119.7
 30
0.0
 11
0.5
 21
119.7
 31
0.0
  0
LINE
  5
3C
330
125
100
AcDbEntity
  8
0
100
AcDbLine
 10
0.3
 20
119.7
 30
0.0
 11
1.0
 21
120.0
 31
0.0
  0
LINE
  5
3D
330
125
100
AcDbEntity
  8
0
100
AcDbLine
 10
0.3
 20
119.7
 30
0.0
 11
1.0
 21
120.0
 31
0.0
  0
LINE
  5
4B
330
125
100
AcDbEntity
  8
0
100
AcDbLine
 10
36.84463415858989
 20
66.0062873499724
 30
0.0
 11
36.864
 21
66.14399999999999
 31
0.0
  0
LINE
  5
4C
330
125
100
AcDbEntity
  8
0
100
AcDbLine
 10
36.864
 20
66.14399999999999
 30
0.0
 11
39.168
 21
71.904
 31
0.0
  0
LINE
  5
4D
330
125
100
AcDbEntity
  8
0
100
AcDbLine
 10
36.576
 20
60.0
 30
0.0
 11
37.43999999999999
 21
53.95199999999999
 31
0.0
  0
LINE
  5
4E
330
125
100
AcDbEntity
  8
0
100
AcDbLine
 10
36.576
 20
60.0
 30
0.0
 11
37.43999999999999
 21
66.048
 31
0.0
  0
LINE
  5
4F
330
125
100
AcDbEntity
  8
0
100
AcDbLine
 10
36.0
 20
60.0
 30
0.0
 11
36.864
 21
53.856
 31
0.0
  0
LINE
  5
50
330
125
100
AcDbEntity
  8
0
100
AcDbLine
 10
36.0
 20
60.0
 30
0.0
 11
36.864
 21
66.14399999999999
 31
0.0
  0
LINE
  5
51
330
125
100
AcDbEntity
  8
0
100
AcDbLine
 10
36.84463415858989
 20
53.99371265002759
 30
0.0
 11
36.864
 21
53.856
 31
0.0
  0
LINE
  5
52
330
125
100
AcDbEntity
  8
0
100
AcDbLine
 10
37.43999999999999
 20
66.048
 30
0.0
 11
39.744
 21
71.61599999999999
 31
0.0
  0
LINE
  5
53
330
125
100
AcDbEntity
  8
0
100
AcDbLine
 10
39.744
 20
71.61599999999999
 30
0.0
 11
43.48799999999999
 21
76.512
 31
0.0
  0
LINE
  5
54
330
125
100
AcDbEntity
  8
0
100
AcDbLine
 10
39.168
 20
71.904
 30
0.0
 11
43.008
 21
76.99200000000001
 31
0.0
  0
LINE
  5
55
330
125
100
AcDbEntity
  8
0
100
AcDbLine
 10
43.008
 20
76.99200000000001
 30
0.0
 11
48.09599999999999
 21
80.83199999999997
 31
0.0
  0
LINE
  5
56
330
125
100
AcDbEntity
  8
0
100
AcDbLine
 10
37.43999999999999
 20
53.95199999999999
 30
0.0
 11
39.744
 21
48.384
 31
0.0
  0
LINE
  5
57
330
125
100
AcDbEntity
  8
0
100
AcDbLine
 10
39.744
 20
48.384
 30
0.0
 11
43.48799999999999
 21
43.48799999999999
 31
0.0
  0
LINE
  5
58
330
125
100
AcDbEntity
  8
0
100
AcDbLine
 10
36.864
 20
53.856
 30
0.0
 11
39.168
 21
48.09599999999999
 31
0.0
  0
LINE
  5
59
330
125
100
AcDbEntity
  8
0
100
AcDbLine
 10
39.168
 20
48.09599999999999
 30
0.0
 11
43.008
 21
43.008
 31
0.0
  0
LINE
  5
5A
330
125
100
AcDbEntity
  8
0
100
AcDbLine
 10
43.48799999999999
 20
76.512
 30
0.0
 11
48.384
 21
80.256
 31
0.0
  0
LINE
  5
5B
330
125
100
AcDbEntity
  8
0
100
AcDbLine
 10
48.384
 20
80.256
 30
0.0
 11
53.95199999999999
 21
82.56
 31
0.0
  0
LINE
  5
5C
330
125
100
AcDbEntity
  8
0
100
AcDbLine
 10
53.95199999999999
 20
82.56
 30
0.0
 11
60.0
 21
83.42399999999997
 31
0.0
  0
LINE
  5
5D
330
125
100
AcDbEntity
  8
0
100
AcDbLine
 10
48.09599999999999
 20
80.83199999999997
 30
0.0
 11
53.856
 21
83.13599999999999
 31
0.0
  0
LINE
  5
65
330
125
100
AcDbEntity
  8
0
100
AcDbLine
 10
53.856
 20
83.13599999999999
 30
0.0
 11
53.99371265002759
 21
83.15536584141007
 31
0.0
  0
LINE
  5
66
330
125
100
AcDbEntity
  8
0
100
AcDbLine
 10
53.856
 20
83.13599999999999
 30
0.0
 11
60.0
 21
84.0
 31
0.0
  0
LINE
  5
67
330
125
100
AcDbEntity
  8
0
100
AcDbLine
 10
60.0
 20
83.42399999999997
 30
0.0
 11
66.048
 21
82.56
 31
0.0
  0
LINE
  5
69
330
125
100
AcDbEntity
  8
0
100
AcDbLine
 10
60.0
 20
84.0
 30
0.0
 11
66.14399999999999
 21
83.13599999999999
 31
0.0
  0
LINE
  5
6A
330
125
100
AcDbEntity
  8
0
100
AcDbLine
 10
43.48799999999999
 20
43.48799999999999
 30
0.0
 11
48.384
 21
39.744
 31
0.0
  0
LINE
  5
6B
330
125
100
AcDbEntity
  8
0
100
AcDbLine
 10
48.384
 20
39.744
 30
0.0
 11
53.95199999999999
 21
37.43999999999999
 31
0.0
  0
LINE
  5
6C
330
125
100
AcDbEntity
  8
0
100
AcDbLine
 10
43.008
 20
43.008
 30
0.0
 11
48.09599999999999
 21
39.168
 31
0.0
  0
LINE
  5
6D
330
125
100
AcDbEntity
  8
0
100
AcDbLine
 10
48.09599999999999
 20
39.168
 30
0.0
 11
53.856
 21
36.864
 31
0.0
  0
LINE
  5
6E
330
125
100
AcDbEntity
  8
0
100
AcDbLine
 10
66.048
 20
37.43999999999999
 30
0.0
 11
71.61599999999999
 21
39.744
 31
0.0
  0
LINE
  5
6F
330
125
100
AcDbEntity
  8
0
100
AcDbLine
 10
119.7
 20
0.299999999999996
 30
0.0
 11
120.0
 21
0.999999999999996
 31
0.0
  0
LINE
  5
70
330
125
100
AcDbEntity
  8
0
100
AcDbLine
 10
119.5
 20
0.2999999999999971
 30
0.0
 11
119.7
 21
0.9999999999999968
 31
0.0
  0
LINE
  5
71
330
125
100
AcDbEntity
  8
0
100
AcDbLine
 10
119.5
 20
0.2999999999999971
 30
0.0
 11
119.7
 21
0.2999999999999971
 31
0.0
  0
LINE
  5
72
330
125
100
AcDbEntity
  8
0
100
AcDbLine
 10
119.0
 20
0.2999999999999971
 30
0.0
 11
119.5
 21
0.2999999999999971
 31
0.0
  0
LINE
  5
73
330
125
100
AcDbEntity
  8
0
100
AcDbLine
 10
120.0
 20
0.9999999999999968
 30
0.0
 11
120.0
 21
119.0
 31
0.0
  0
LINE
  5
74
330
125
100
AcDbEntity
  8
0
100
AcDbLine
 10
119.7
 20
0.9999999999999968
 30
0.0
 11
119.7
 21
119.0
 31
0.0
  0
LINE
  5
75
330
125
100
AcDbEntity
  8
0
100
AcDbLine
 10
71.61599999999999
 20
39.744
 30
0.0
 11
76.512
 21
43.48799999999999
 31
0.0
  0
LINE
  5
76
330
125
100
AcDbEntity
  8
0
100
AcDbLine
 10
71.904
 20
39.168
 30
0.0
 11
76.99200000000001
 21
43.008
 31
0.0
  0
LINE
  5
77
330
125
100
AcDbEntity
  8
0
100
AcDbLine
 10
66.14399999999999
 20
36.864
 30
0.0
 11
71.904
 21
39.168
 31
0.0
  0
LINE
  5
78
330
125
100
AcDbEntity
  8
0
100
AcDbLine
 10
71.61599999999999
 20
80.256
 30
0.0
 11
76.512
 21
76.512
 31
0.0
  0
LINE
  5
79
330
125
100
AcDbEntity
  8
0
100
AcDbLine
 10
66.048
 20
82.56
 30
0.0
 11
71.61599999999999
 21
80.256
 31
0.0
  0
LINE
  5
7A
330
125
100
AcDbEntity
  8
0
100
AcDbLine
 10
80.256
 20
71.61599999999999
 30
0.0
 11
82.56
 21
66.048
 31
0.0
  0
LINE
  5
7B
330
125
100
AcDbEntity
  8
0
100
AcDbLine
 10
76.512
 20
76.512
 30
0.0
 11
80.256
 21
71.61599999999999
 31
0.0
  0
LINE
  5
7C
330
125
100
AcDbEntity
  8
0
100
AcDbLine
 10
76.99200000000001
 20
76.99200000000001
 30
0.0
 11
80.83199999999997
 21
71.904
 31
0.0
  0
LINE
  5
7D
330
125
100
AcDbEntity
  8
0
100
AcDbLine
 10
71.904
 20
80.83199999999997
 30
0.0
 11
76.99200000000001
 21
76.99200000000001
 31
0.0
  0
LINE
  5
84
330
125
100
AcDbEntity
  8
0
100
AcDbLine
 10
66.14399999999999
 20
83.13599999999999
 30
0.0
 11
71.904
 21
80.83199999999997
 31
0.0
  0
LINE
  5
85
330
125
100
AcDbEntity
  8
0
100
AcDbLine
 10
80.83199999999997
 20
71.904
 30
0.0
 11
83.13599999999999
 21
66.14399999999999
 31
0.0
  0
LINE
  5
86
330
125
100
AcDbEntity
  8
0
100
AcDbLine
 10
80.256
 20
48.384
 30
0.0
 11
82.56
 21
53.95199999999999
 31
0.0
  0
LINE
  5
87
330
125
100
AcDbEntity
  8
0
100
AcDbLine
 10
76.512
 20
43.48799999999999
 30
0.0
 11
80.256
 21
48.384
 31
0.0
  0
LINE
  5
88
330
125
100
AcDbEntity
  8
0
100
AcDbLine
 10
82.56
 20
66.048
 30
0.0
 11
83.42399999999997
 21
60.0
 31
0.0
  0
LINE
  5
97
330
125
100
AcDbEntity
  8
0
100
AcDbLine
 10
119.0
 20
120.0
 30
0.0
 11
119.7
 21
119.7
 31
0.0
  0
LINE
  5
98
330
125
100
AcDbEntity
  8
0
100
AcDbLine
 10
119.7
 20
119.0
 30
0.0
 11
119.7
 21
0.999999999999996
 31
0.0
  0
LINE
  5
99
330
125
100
AcDbEntity
  8
0
100
AcDbLine
 10
120.0
 20
119.0
 30
0.0
 11
120.0
 21
0.999999999999996
 31
0.0
  0
LINE
  5
9A
330
125
100
AcDbEntity
  8
0
100
AcDbLine
 10
119.7
 20
119.7
 30
0.0
 11
120.0
 21
119.0
 31
0.0
  0
LINE
  5
9B
330
125
100
AcDbEntity
  8
0
100
AcDbLine
 10
119.5
 20
119.7
 30
0.0
 11
119.7
 21
119.7
 31
0.0
  0
LINE
  5
9C
330
125
100
AcDbEntity
  8
0
100
AcDbLine
 10
119.5
 20
119.7
 30
0.0
 11
119.7
 21
119.0
 31
0.0
  0
LINE
  5
9D
330
125
100
AcDbEntity
  8
0
100
AcDbLine
 10
119.0
 20
119.7
 30
0.0
 11
119.5
 21
119.7
 31
0.0
  0
LINE
  5
9E
330
125
100
AcDbEntity
  8
0
100
AcDbLine
 10
83.13599999999999
 20
66.14399999999999
 30
0.0
 11
84.0
 21
60.0
 31
0.0
  0
LINE
  5
9F
330
125
100
AcDbEntity
  8
0
100
AcDbLine
 10
82.56
 20
53.95199999999999
 30
0.0
 11
83.42399999999997
 21
60.0
 31
0.0
  0
LINE
  5
A0
330
125
100
AcDbEntity
  8
0
100
AcDbLine
 10
83.13599999999999
 20
53.856
 30
0.0
 11
84.0
 21
60.0
 31
0.0
  0
LINE
  5
A1
330
125
100
AcDbEntity
  8
0
100
AcDbLine
 10
80.83199999999997
 20
48.09599999999999
 30
0.0
 11
83.13599999999999
 21
53.856
 31
0.0
  0
LINE
  5
A2
330
125
100
AcDbEntity
  8
0
100
AcDbLine
 10
76.99200000000001
 20
43.008
 30
0.0
 11
80.83199999999997
 21
48.09599999999999
 31
0.0
  0
LINE
  5
A3
330
125
100
AcDbEntity
  8
0
100
AcDbLine
 10
60.0
 20
36.0
 30
0.0
 11
66.14399999999999
 21
36.864
 31
0.0
  0
LINE
  5
A8
330
125
100
AcDbEntity
  8
0
100
AcDbLine
 10
119.0
 20
-0.0000000000000041
 30
0.0
 11
119.7
 21
0.299999999999996
 31
0.0
  0
LINE
  5
271
330
125
100
AcDbEntity
  8
0
100
AcDbLine
 10
37.44
 20
266.0352980646819
 30
0.0
 11
39.744
 21
266.0352980646819
 31
0.0
  0
LINE
  5
272
330
125
100
AcDbEntity
  8
0
100
AcDbLine
 10
36.57599999999999
 20
266.0352980646819
 30
0.0
 11
37.44
 21
266.0352980646819
 31
0.0
  0
LINE
  5
273
330
125
100
AcDbEntity
  8
0
100
AcDbLine
 10
36.57599999999999
 20
266.0352980646819
 30
0.0
 11
37.44
 21
266.0352980646819
 31
0.0
  0
LINE
  5
274
330
125
100
AcDbEntity
  8
0
100
AcDbLine
 10
39.744
 20
266.0352980646819
 30
0.0
 11
43.48799999999999
 21
266.0352980646819
 31
0.0
  0
LINE
  5
275
330
125
100
AcDbEntity
  8
0
100
AcDbLine
 10
43.48799999999999
 20
266.0352980646819
 30
0.0
 11
48.38399999999999
 21
266.0352980646819
 31
0.0
  0
LINE
  5
276
330
125
100
AcDbEntity
  8
0
100
AcDbLine
 10
37.44
 20
266.0352980646819
 30
0.0
 11
39.744
 21
266.0352980646819
 31
0.0
  0
LINE
  5
277
330
125
100
AcDbEntity
  8
0
100
AcDbLine
 10
39.744
 20
266.0352980646819
 30
0.0
 11
43.48799999999999
 21
266.0352980646819
 31
0.0
  0
LINE
  5
278
330
125
100
AcDbEntity
  8
0
100
AcDbLine
 10
48.38399999999999
 20
266.0352980646819
 30
0.0
 11
53.95199999999999
 21
266.0352980646819
 31
0.0
  0
LINE
  5
279
330
125
100
AcDbEntity
  8
0
100
AcDbLine
 10
53.95199999999999
 20
266.0352980646819
 30
0.0
 11
60.0
 21
266.0352980646819
 31
0.0
  0
LINE
  5
27A
330
125
100
AcDbEntity
  8
0
100
AcDbLine
 10
43.48799999999999
 20
266.0352980646819
 30
0.0
 11
48.38399999999999
 21
266.0352980646819
 31
0.0
  0
LINE
  5
27B
330
125
100
AcDbEntity
  8
0
100
AcDbLine
 10
48.38399999999999
 20
266.0352980646819
 30
0.0
 11
53.95199999999999
 21
266.0352980646819
 31
0.0
  0
LINE
  5
27C
330
125
100
AcDbEntity
  8
0
100
AcDbLine
 10
60.0
 20
266.0352980646819
 30
0.0
 11
66.048
 21
266.0352980646819
 31
0.0
  0
LINE
  5
27D
330
125
100
AcDbEntity
  8
0
100
AcDbLine
 10
53.95199999999999
 20
266.0352980646819
 30
0.0
 11
60.0
 21
266.0352980646819
 31
0.0
  0
LINE
  5
27E
330
125
100
AcDbEntity
  8
0
100
AcDbLine
 10
35.8
 20
284.0352980646819
 30
0.0
 11
36.0
 21
284.0352980646819
 31
0.0
  0
LINE
  5
27F
330
125
100
AcDbEntity
  8
0
100
AcDbLine
 10
35.8
 20
284.0352980646819
 30
0.0
 11
36.0454
 21
284.2512980646819
 31
0.0
  0
LINE
  5
280
330
125
100
AcDbEntity
  8
0
100
AcDbLine
 10
35.8
 20
284.0352980646819
 30
0.0
 11
35.8
 21
296.0352980646819
 31
0.0
  0
LINE
  5
281
330
125
100
AcDbEntity
  8
0
100
AcDbLine
 10
35.8
 20
296.0352980646819
 30
0.0
 11
36.0
 21
296.0352980646819
 31
0.0
  0
LINE
  5
282
330
125
100
AcDbEntity
  8
0
100
AcDbLine
 10
35.8
 20
296.0352980646819
 30
0.0
 11
36.0454
 21
295.8192980646819
 31
0.0
  0
LINE
  5
283
330
125
100
AcDbEntity
  8
0
100
AcDbLine
 10
35.8
 20
296.0352980646819
 30
0.0
 11
35.8
 21
284.0352980646819
 31
0.0
  0
LINE
  5
284
330
125
100
AcDbEntity
  8
0
100
AcDbLine
 10
36.0
 20
284.0352980646819
 30
0.0
 11
36.0
 21
266.6442720646819
 31
0.0
  0
LINE
  5
285
330
125
100
AcDbEntity
  8
0
100
AcDbLine
 10
36.86400000000001
 20
266.6442720646819
 30
0.0
 11
39.16800000000001
 21
266.6442720646819
 31
0.0
  0
LINE
  5
286
330
125
100
AcDbEntity
  8
0
100
AcDbLine
 10
36.0454
 20
284.2512980646819
 30
0.0
 11
36.2548
 21
284.8272980646819
 31
0.0
  0
LINE
  5
287
330
125
100
AcDbEntity
  8
0
100
AcDbLine
 10
36.2548
 20
284.8272980646819
 30
0.0
 11
36.42929999999998
 21
285.787298064682
 31
0.0
  0
LINE
  5
288
330
125
100
AcDbEntity
  8
0
100
AcDbLine
 10
36.42929999999998
 20
285.787298064682
 30
0.0
 11
36.57469999999999
 21
287.0592980646819
 31
0.0
  0
LINE
  5
289
330
125
100
AcDbEntity
  8
0
100
AcDbLine
 10
36.57469999999999
 20
287.0592980646819
 30
0.0
 11
36.66199999999999
 21
288.499298064682
 31
0.0
  0
LINE
  5
28A
330
125
100
AcDbEntity
  8
0
100
AcDbLine
 10
36.66199999999999
 20
288.499298064682
 30
0.0
 11
36.68520000000001
 21
290.0352980646819
 31
0.0
  0
LINE
  5
28B
330
125
100
AcDbEntity
  8
0
100
AcDbLine
 10
36.0454
 20
295.8192980646819
 30
0.0
 11
36.2548
 21
295.2432980646819
 31
0.0
  0
LINE
  5
28C
330
125
100
AcDbEntity
  8
0
100
AcDbLine
 10
36.2548
 20
295.2432980646819
 30
0.0
 11
36.42929999999998
 21
294.2832980646819
 31
0.0
  0
LINE
  5
28D
330
125
100
AcDbEntity
  8
0
100
AcDbLine
 10
36.42929999999998
 20
294.2832980646819
 30
0.0
 11
36.57469999999999
 21
293.0112980646819
 31
0.0
  0
LINE
  5
28E
330
125
100
AcDbEntity
  8
0
100
AcDbLine
 10
36.57469999999999
 20
293.0112980646819
 30
0.0
 11
36.66199999999999
 21
291.571298064682
 31
0.0
  0
LINE
  5
28F
330
125
100
AcDbEntity
  8
0
100
AcDbLine
 10
36.66199999999999
 20
291.571298064682
 30
0.0
 11
36.68520000000001
 21
290.0352980646819
 31
0.0
  0
LINE
  5
290
330
125
100
AcDbEntity
  8
0
100
AcDbLine
 10
36.86400000000001
 20
303.4262980646819
 30
0.0
 11
39.16800000000001
 21
303.4262980646819
 31
0.0
  0
LINE
  5
291
330
125
100
AcDbEntity
  8
0
100
AcDbLine
 10
39.16800000000001
 20
303.4262980646819
 30
0.0
 11
43.00800000000001
 21
303.4262980646819
 31
0.0
  0
LINE
  5
292
330
125
100
AcDbEntity
  8
0
100
AcDbLine
 10
39.16800000000001
 20
266.6442720646819
 30
0.0
 11
43.00800000000001
 21
266.6442720646819
 31
0.0
  0
LINE
  5
293
330
125
100
AcDbEntity
  8
0
100
AcDbLine
 10
43.00800000000001
 20
266.6442720646819
 30
0.0
 11
48.096
 21
266.6442720646819
 31
0.0
  0
LINE
  5
294
330
125
100
AcDbEntity
  8
0
100
AcDbLine
 10
43.00800000000001
 20
303.4262980646819
 30
0.0
 11
48.096
 21
303.4262980646819
 31
0.0
  0
LINE
  5
295
330
125
100
AcDbEntity
  8
0
100
AcDbLine
 10
48.096
 20
266.6442720646819
 30
0.0
 11
53.856
 21
266.6442720646819
 31
0.0
  0
LINE
  5
296
330
125
100
AcDbEntity
  8
0
100
AcDbLine
 10
48.096
 20
303.4262980646819
 30
0.0
 11
53.856
 21
303.4262980646819
 31
0.0
  0
LINE
  5
297
330
125
100
AcDbEntity
  8
0
100
AcDbLine
 10
60.0
 20
284.0352980646819
 30
0.0
 11
61.536
 21
284.2512980646819
 31
0.0
  0
LINE
  5
298
330
125
100
AcDbEntity
  8
0
100
AcDbLine
 10
58.464
 20
284.2512980646819
 30
0.0
 11
60.0
 21
284.0352980646819
 31
0.0
  0
LINE
  5
299
330
125
100
AcDbEntity
  8
0
100
AcDbLine
 10
57.02609999999999
 20
284.8272980646819
 30
0.0
 11
58.464
 21
284.2512980646819
 31
0.0
  0
LINE
  5
29A
330
125
100
AcDbEntity
  8
0
100
AcDbLine
 10
55.7513
 20
285.787298064682
 30
0.0
 11
57.02609999999999
 21
284.8272980646819
 31
0.0
  0
LINE
  5
29B
330
125
100
AcDbEntity
  8
0
100
AcDbLine
 10
54.7907
 20
287.0592980646819
 30
0.0
 11
55.7513
 21
285.787298064682
 31
0.0
  0
LINE
  5
29C
330
125
100
AcDbEntity
  8
0
100
AcDbLine
 10
54.20859999999999
 20
288.499298064682
 30
0.0
 11
54.7907
 21
287.0592980646819
 31
0.0
  0
LINE
  5
29D
330
125
100
AcDbEntity
  8
0
100
AcDbLine
 10
60.0
 20
296.0352980646819
 30
0.0
 11
61.536
 21
295.8192980646819
 31
0.0
  0
LINE
  5
29E
330
125
100
AcDbEntity
  8
0
100
AcDbLine
 10
58.464
 20
295.8192980646819
 30
0.0
 11
60.0
 21
296.0352980646819
 31
0.0
  0
LINE
  5
29F
330
125
100
AcDbEntity
  8
0
100
AcDbLine
 10
57.02609999999999
 20
295.2432980646819
 30
0.0
 11
58.464
 21
295.8192980646819
 31
0.0
  0
LINE
  5
2A0
330
125
100
AcDbEntity
  8
0
100
AcDbLine
 10
55.7513
 20
294.2832980646819
 30
0.0
 11
57.02609999999999
 21
295.2432980646819
 31
0.0
  0
LINE
  5
2A1
330
125
100
AcDbEntity
  8
0
100
AcDbLine
 10
54.7907
 20
293.0112980646819
 30
0.0
 11
55.7513
 21
294.2832980646819
 31
0.0
  0
LINE
  5
2A2
330
125
100
AcDbEntity
  8
0
100
AcDbLine
 10
54.20859999999999
 20
291.571298064682
 30
0.0
 11
54.7907
 21
293.0112980646819
 31
0.0
  0
LINE
  5
2A3
330
125
100
AcDbEntity
  8
0
100
AcDbLine
 10
53.9932
 20
290.0352980646819
 30
0.0
 11
54.20859999999999
 21
288.499298064682
 31
0.0
  0
LINE
  5
2A4
330
125
100
AcDbEntity
  8
0
100
AcDbLine
 10
53.9932
 20
290.0352980646819
 30
0.0
 11
54.20859999999999
 21
291.571298064682
 31
0.0
  0
LINE
  5
2A5
330
125
100
AcDbEntity
  8
0
100
AcDbLine
 10
53.856
 20
266.6442720646819
 30
0.0
 11
60.0
 21
266.6442720646819
 31
0.0
  0
LINE
  5
2A6
330
125
100
AcDbEntity
  8
0
100
AcDbLine
 10
53.856
 20
303.4262980646819
 30
0.0
 11
60.0
 21
303.4262980646819
 31
0.0
  0
LINE
  5
2A7
330
125
100
AcDbEntity
  8
0
100
AcDbLine
 10
60.0
 20
266.6442720646819
 30
0.0
 11
66.14399999999999
 21
266.6442720646819
 31
0.0
  0
LINE
  5
2A8
330
125
100
AcDbEntity
  8
0
100
AcDbLine
 10
60.0
 20
303.4262980646819
 30
0.0
 11
66.14399999999999
 21
303.4262980646819
 31
0.0
  0
LINE
  5
2A9
330
125
100
AcDbEntity
  8
0
100
AcDbLine
 10
36.0
 20
296.0352980646819
 30
0.0
 11
36.0
 21
303.4262980646819
 31
0.0
  0
LINE
  5
2AA
330
125
100
AcDbEntity
  8
0
100
AcDbLine
 10
36.0
 20
266.6442720646819
 30
0.0
 11
36.0
 21
284.0352980646819
 31
0.0
  0
LINE
  5
2AB
330
125
100
AcDbEntity
  8
0
100
AcDbLine
 10
36.0
 20
266.6442720646819
 30
0.0
 11
36.57599999999999
 21
266.0352980646819
 31
0.0
  0
LINE
  5
2AC
330
125
100
AcDbEntity
  8
0
100
AcDbLine
 10
36.0
 20
266.6442720646819
 30
0.0
 11
36.86400000000001
 21
266.6442720646819
 31
0.0
  0
LINE
  5
2AD
330
125
100
AcDbEntity
  8
0
100
AcDbLine
 10
36.0
 20
266.6442720646819
 30
0.0
 11
36.57599999999999
 21
266.0352980646819
 31
0.0
  0
LINE
  5
2AE
330
125
100
AcDbEntity
  8
0
100
AcDbLine
 10
65.79139999999999
 20
291.571298064682
 30
0.0
 11
66.0068
 21
290.0352980646819
 31
0.0
  0
LINE
  5
2AF
330
125
100
AcDbEntity
  8
0
100
AcDbLine
 10
65.79139999999999
 20
288.499298064682
 30
0.0
 11
66.0068
 21
290.0352980646819
 31
0.0
  0
LINE
  5
2B0
330
125
100
AcDbEntity
  8
0
100
AcDbLine
 10
65.20929999999999
 20
287.0592980646819
 30
0.0
 11
65.79139999999999
 21
288.499298064682
 31
0.0
  0
LINE
  5
2B1
330
125
100
AcDbEntity
  8
0
100
AcDbLine
 10
65.20929999999999
 20
293.0112980646819
 30
0.0
 11
65.79139999999999
 21
291.571298064682
 31
0.0
  0
LINE
  5
2B2
330
125
100
AcDbEntity
  8
0
100
AcDbLine
 10
64.2487
 20
285.787298064682
 30
0.0
 11
65.20929999999999
 21
287.0592980646819
 31
0.0
  0
LINE
  5
2B3
330
125
100
AcDbEntity
  8
0
100
AcDbLine
 10
64.2487
 20
294.2832980646819
 30
0.0
 11
65.20929999999999
 21
293.0112980646819
 31
0.0
  0
LINE
  5
2B4
330
125
100
AcDbEntity
  8
0
100
AcDbLine
 10
62.9739
 20
284.8272980646819
 30
0.0
 11
64.2487
 21
285.787298064682
 31
0.0
  0
LINE
  5
2B5
330
125
100
AcDbEntity
  8
0
100
AcDbLine
 10
62.9739
 20
295.2432980646819
 30
0.0
 11
64.2487
 21
294.2832980646819
 31
0.0
  0
LINE
  5
2B6
330
125
100
AcDbEntity
  8
0
100
AcDbLine
 10
61.536
 20
284.2512980646819
 30
0.0
 11
62.9739
 21
284.8272980646819
 31
0.0
  0
LINE
  5
2B7
330
125
100
AcDbEntity
  8
0
100
AcDbLine
 10
61.536
 20
295.8192980646819
 30
0.0
 11
62.9739
 21
295.2432980646819
 31
0.0
  0
LINE
  5
2B8
330
125
100
AcDbEntity
  8
0
100
AcDbLine
 10
60.0
 20
266.0352980646819
 30
0.0
 11
66.048
 21
266.0352980646819
 31
0.0
  0
LINE
  5
2B9
330
125
100
AcDbEntity
  8
0
100
AcDbLine
 10
36.57599999999999
 20
304.0352980646819
 30
0.0
 11
37.44
 21
304.0352980646819
 31
0.0
  0
LINE
  5
2BA
330
125
100
AcDbEntity
  8
0
100
AcDbLine
 10
37.44
 20
304.0352980646819
 30
0.0
 11
39.744
 21
304.0352980646819
 31
0.0
  0
LINE
  5
2BB
330
125
100
AcDbEntity
  8
0
100
AcDbLine
 10
39.744
 20
304.0352980646819
 30
0.0
 11
43.48799999999999
 21
304.0352980646819
 31
0.0
  0
LINE
  5
2BC
330
125
100
AcDbEntity
  8
0
100
AcDbLine
 10
43.48799999999999
 20
304.0352980646819
 30
0.0
 11
48.38399999999999
 21
304.0352980646819
 31
0.0
  0
LINE
  5
2BD
330
125
100
AcDbEntity
  8
0
100
AcDbLine
 10
48.38399999999999
 20
304.0352980646819
 30
0.0
 11
53.95199999999999
 21
304.0352980646819
 31
0.0
  0
LINE
  5
2BE
330
125
100
AcDbEntity
  8
0
100
AcDbLine
 10
53.95199999999999
 20
304.0352980646819
 30
0.0
 11
60.0
 21
304.0352980646819
 31
0.0
  0
LINE
  5
2BF
330
125
100
AcDbEntity
  8
0
100
AcDbLine
 10
60.0
 20
304.0352980646819
 30
0.0
 11
66.048
 21
304.0352980646819
 31
0.0
  0
LINE
  5
2C0
330
125
100
AcDbEntity
  8
0
100
AcDbLine
 10
36.0
 20
303.4262980646819
 30
0.0
 11
36.57599999999999
 21
304.0352980646819
 31
0.0
  0
LINE
  5
2C1
330
125
100
AcDbEntity
  8
0
100
AcDbLine
 10
36.0
 20
303.4262980646819
 30
0.0
 11
36.0
 21
296.0352980646819
 31
0.0
  0
LINE
  5
2C2
330
125
100
AcDbEntity
  8
0
100
AcDbLine
 10
36.0
 20
303.4262980646819
 30
0.0
 11
36.86400000000001
 21
303.4262980646819
 31
0.0
  0
LINE
  5
2C3
330
125
100
AcDbEntity
  8
0
100
AcDbLine
 10
66.048
 20
266.0352980646819
 30
0.0
 11
71.61599999999999
 21
266.0352980646819
 31
0.0
  0
LINE
  5
2C4
330
125
100
AcDbEntity
  8
0
100
AcDbLine
 10
76.512
 20
266.0352980646819
 30
0.0
 11
80.256
 21
266.0352980646819
 31
0.0
  0
LINE
  5
2C5
330
125
100
AcDbEntity
  8
0
100
AcDbLine
 10
71.61599999999999
 20
266.0352980646819
 30
0.0
 11
76.512
 21
266.0352980646819
 31
0.0
  0
LINE
  5
2C6
330
125
100
AcDbEntity
  8
0
100
AcDbLine
 10
82.56
 20
266.0352980646819
 30
0.0
 11
83.42399999999997
 21
266.0352980646819
 31
0.0
  0
LINE
  5
2C7
330
125
100
AcDbEntity
  8
0
100
AcDbLine
 10
83.42399999999997
 20
266.0352980646819
 30
0.0
 11
84.0
 21
266.6442720646819
 31
0.0
  0
LINE
  5
2C8
330
125
100
AcDbEntity
  8
0
100
AcDbLine
 10
80.256
 20
266.0352980646819
 30
0.0
 11
82.56
 21
266.0352980646819
 31
0.0
  0
LINE
  5
2C9
330
125
100
AcDbEntity
  8
0
100
AcDbLine
 10
82.56
 20
266.0352980646819
 30
0.0
 11
83.42399999999997
 21
266.0352980646819
 31
0.0
  0
LINE
  5
2CA
330
125
100
AcDbEntity
  8
0
100
AcDbLine
 10
83.42399999999997
 20
266.0352980646819
 30
0.0
 11
84.0
 21
266.6442720646819
 31
0.0
  0
LINE
  5
2CB
330
125
100
AcDbEntity
  8
0
100
AcDbLine
 10
80.256
 20
266.0352980646819
 30
0.0
 11
82.56
 21
266.0352980646819
 31
0.0
  0
LINE
  5
2CC
330
125
100
AcDbEntity
  8
0
100
AcDbLine
 10
76.512
 20
266.0352980646819
 30
0.0
 11
80.256
 21
266.0352980646819
 31
0.0
  0
LINE
  5
2CD
330
125
100
AcDbEntity
  8
0
100
AcDbLine
 10
71.61599999999999
 20
266.0352980646819
 30
0.0
 11
76.512
 21
266.0352980646819
 31
0.0
  0
LINE
  5
2CE
330
125
100
AcDbEntity
  8
0
100
AcDbLine
 10
66.048
 20
266.0352980646819
 30
0.0
 11
71.61599999999999
 21
266.0352980646819
 31
0.0
  0
LINE
  5
2CF
330
125
100
AcDbEntity
  8
0
100
AcDbLine
 10
80.83199999999997
 20
266.6442720646819
 30
0.0
 11
83.13599999999999
 21
266.6442720646819
 31
0.0
  0
LINE
  5
2D0
330
125
100
AcDbEntity
  8
0
100
AcDbLine
 10
80.83199999999997
 20
303.4262980646819
 30
0.0
 11
83.13599999999999
 21
303.4262980646819
 31
0.0
  0
LINE
  5
2D1
330
125
100
AcDbEntity
  8
0
100
AcDbLine
 10
76.99200000000001
 20
266.6442720646819
 30
0.0
 11
80.83199999999997
 21
266.6442720646819
 31
0.0
  0
LINE
  5
2D2
330
125
100
AcDbEntity
  8
0
100
AcDbLine
 10
76.99200000000001
 20
303.4262980646819
 30
0.0
 11
80.83199999999997
 21
303.4262980646819
 31
0.0
  0
LINE
  5
2D3
330
125
100
AcDbEntity
  8
0
100
AcDbLine
 10
71.904
 20
266.6442720646819
 30
0.0
 11
76.99200000000001
 21
266.6442720646819
 31
0.0
  0
LINE
  5
2D4
330
125
100
AcDbEntity
  8
0
100
AcDbLine
 10
71.904
 20
303.4262980646819
 30
0.0
 11
76.99200000000001
 21
303.4262980646819
 31
0.0
  0
LINE
  5
2D5
330
125
100
AcDbEntity
  8
0
100
AcDbLine
 10
66.14399999999999
 20
266.6442720646819
 30
0.0
 11
71.904
 21
266.6442720646819
 31
0.0
  0
LINE
  5
2D6
330
125
100
AcDbEntity
  8
0
100
AcDbLine
 10
80.256
 20
304.0352980646819
 30
0.0
 11
82.56
 21
304.0352980646819
 31
0.0
  0
LINE
  5
2D7
330
125
100
AcDbEntity
  8
0
100
AcDbLine
 10
76.512
 20
304.0352980646819
 30
0.0
 11
80.256
 21
304.0352980646819
 31
0.0
  0
LINE
  5
2D8
330
125
100
AcDbEntity
  8
0
100
AcDbLine
 10
71.61599999999999
 20
304.0352980646819
 30
0.0
 11
76.512
 21
304.0352980646819
 31
0.0
  0
LINE
  5
2D9
330
125
100
AcDbEntity
  8
0
100
AcDbLine
 10
66.048
 20
304.0352980646819
 30
0.0
 11
71.61599999999999
 21
304.0352980646819
 31
0.0
  0
LINE
  5
2DA
330
125
100
AcDbEntity
  8
0
100
AcDbLine
 10
66.14399999999999
 20
303.4262980646819
 30
0.0
 11
71.904
 21
303.4262980646819
 31
0.0
  0
LINE
  5
2DB
330
125
100
AcDbEntity
  8
0
100
AcDbLine
 10
82.56
 20
304.0352980646819
 30
0.0
 11
83.42399999999997
 21
304.0352980646819
 31
0.0
  0
LINE
  5
2DC
330
125
100
AcDbEntity
  8
0
100
AcDbLine
 10
83.13599999999999
 20
266.6442720646819
 30
0.0
 11
84.0
 21
266.6442720646819
 31
0.0
  0
LINE
  5
2DD
330
125
100
AcDbEntity
  8
0
100
AcDbLine
 10
83.3148
 20
290.0352980646819
 30
0.0
 11
83.33799999999998
 21
291.571298064682
 31
0.0
  0
LINE
  5
2DE
330
125
100
AcDbEntity
  8
0
100
AcDbLine
 10
83.3148
 20
290.0352980646819
 30
0.0
 11
83.33799999999998
 21
288.499298064682
 31
0.0
  0
LINE
  5
2DF
330
125
100
AcDbEntity
  8
0
100
AcDbLine
 10
83.33799999999998
 20
288.499298064682
 30
0.0
 11
83.42529999999998
 21
287.0592980646819
 31
0.0
  0
LINE
  5
2E0
330
125
100
AcDbEntity
  8
0
100
AcDbLine
 10
83.33799999999998
 20
291.571298064682
 30
0.0
 11
83.42529999999998
 21
293.0112980646819
 31
0.0
  0
LINE
  5
2E1
330
125
100
AcDbEntity
  8
0
100
AcDbLine
 10
83.13599999999999
 20
303.4262980646819
 30
0.0
 11
84.0
 21
303.4262980646819
 31
0.0
  0
LINE
  5
2E2
330
125
100
AcDbEntity
  8
0
100
AcDbLine
 10
36.86400000000001
 20
304.644298064682
 30
0.0
 11
39.16800000000001
 21
304.644298064682
 31
0.0
  0
LINE
  5
2E3
330
125
100
AcDbEntity
  8
0
100
AcDbLine
 10
36.0
 20
304.644298064682
 30
0.0
 11
36.0
 21
313.4262980646819
 31
0.0
  0
LINE
  5
2E4
330
125
100
AcDbEntity
  8
0
100
AcDbLine
 10
36.0
 20
304.644298064682
 30
0.0
 11
36.57599999999999
 21
304.0352980646819
 31
0.0
  0
LINE
  5
2E5
330
125
100
AcDbEntity
  8
0
100
AcDbLine
 10
36.0
 20
304.644298064682
 30
0.0
 11
36.86400000000001
 21
304.644298064682
 31
0.0
  0
LINE
  5
2E6
330
125
100
AcDbEntity
  8
0
100
AcDbLine
 10
39.16800000000001
 20
304.644298064682
 30
0.0
 11
43.00800000000001
 21
304.644298064682
 31
0.0
  0
LINE
  5
2E7
330
125
100
AcDbEntity
  8
0
100
AcDbLine
 10
43.00800000000001
 20
304.644298064682
 30
0.0
 11
48.096
 21
304.644298064682
 31
0.0
  0
LINE
  5
2E8
330
125
100
AcDbEntity
  8
0
100
AcDbLine
 10
48.096
 20
304.644298064682
 30
0.0
 11
53.856
 21
304.644298064682
 31
0.0
  0
LINE
  5
2E9
330
125
100
AcDbEntity
  8
0
100
AcDbLine
 10
53.856
 20
304.644298064682
 30
0.0
 11
60.0
 21
304.644298064682
 31
0.0
  0
LINE
  5
2EA
330
125
100
AcDbEntity
  8
0
100
AcDbLine
 10
76.99200000000001
 20
304.644298064682
 30
0.0
 11
80.83199999999997
 21
304.644298064682
 31
0.0
  0
LINE
  5
2EB
330
125
100
AcDbEntity
  8
0
100
AcDbLine
 10
71.904
 20
304.644298064682
 30
0.0
 11
76.99200000000001
 21
304.644298064682
 31
0.0
  0
LINE
  5
2EC
330
125
100
AcDbEntity
  8
0
100
AcDbLine
 10
66.14399999999999
 20
304.644298064682
 30
0.0
 11
71.904
 21
304.644298064682
 31
0.0
  0
LINE
  5
2ED
330
125
100
AcDbEntity
  8
0
100
AcDbLine
 10
60.0
 20
304.644298064682
 30
0.0
 11
66.14399999999999
 21
304.644298064682
 31
0.0
  0
LINE
  5
2EE
330
125
100
AcDbEntity
  8
0
100
AcDbLine
 10
0.2999999999999971
 20
314.3352980646819
 30
0.0
 11
1.0
 21
314.0352980646819
 31
0.0
  0
LINE
  5
2EF
330
125
100
AcDbEntity
  8
0
100
AcDbLine
 10
0.2999999999999971
 20
314.3352980646819
 30
0.0
 11
1.0
 21
314.0352980646819
 31
0.0
  0
LINE
  5
2F0
330
125
100
AcDbEntity
  8
0
100
AcDbLine
 10
0.0
 20
315.035298064682
 30
0.0
 11
0.0
 21
333.035298064682
 31
0.0
  0
LINE
  5
2F1
330
125
100
AcDbEntity
  8
0
100
AcDbLine
 10
0.0
 20
315.035298064682
 30
0.0
 11
0.2999999999999971
 21
314.3352980646819
 31
0.0
  0
LINE
  5
2F2
330
125
100
AcDbEntity
  8
0
100
AcDbLine
 10
0.9999999999999928
 20
314.0352980646819
 30
0.0
 11
36.57599999999999
 21
314.0352980646819
 31
0.0
  0
LINE
  5
2F3
330
125
100
AcDbEntity
  8
0
100
AcDbLine
 10
1.0
 20
314.0352980646819
 30
0.0
 11
36.57599999999999
 21
314.0352980646819
 31
0.0
  0
LINE
  5
2F4
330
125
100
AcDbEntity
  8
0
100
AcDbLine
 10
0.9999999999999928
 20
314.3352980646819
 30
0.0
 11
119.0
 21
314.3352980646819
 31
0.0
  0
LINE
  5
2F5
330
125
100
AcDbEntity
  8
0
100
AcDbLine
 10
1.0
 20
314.3352980646819
 30
0.0
 11
119.0
 21
314.3352980646819
 31
0.0
  0
LINE
  5
2F6
330
125
100
AcDbEntity
  8
0
100
AcDbLine
 10
0.5
 20
314.535298064682
 30
0.0
 11
1.0
 21
314.3352980646819
 31
0.0
  0
LINE
  5
2F7
330
125
100
AcDbEntity
  8
0
100
AcDbLine
 10
0.0
 20
333.035298064682
 30
0.0
 11
0.2999999999999971
 21
333.735298064682
 31
0.0
  0
LINE
  5
2F8
330
125
100
AcDbEntity
  8
0
100
AcDbLine
 10
0.0
 20
333.035298064682
 30
0.0
 11
0.0
 21
315.035298064682
 31
0.0
  0
LINE
  5
2F9
330
125
100
AcDbEntity
  8
0
100
AcDbLine
 10
0.2999999999999971
 20
333.035298064682
 30
0.0
 11
0.5
 21
333.535298064682
 31
0.0
  0
LINE
  5
2FA
330
125
100
AcDbEntity
  8
0
100
AcDbLine
 10
0.2999999999999971
 20
333.035298064682
 30
0.0
 11
0.2999999999999971
 21
315.035298064682
 31
0.0
  0
LINE
  5
2FB
330
125
100
AcDbEntity
  8
0
100
AcDbLine
 10
0.2999999999999971
 20
333.735298064682
 30
0.0
 11
1.0
 21
334.035298064682
 31
0.0
  0
LINE
  5
2FC
330
125
100
AcDbEntity
  8
0
100
AcDbLine
 10
0.2999999999999971
 20
333.735298064682
 30
0.0
 11
1.0
 21
334.035298064682
 31
0.0
  0
LINE
  5
2FD
330
125
100
AcDbEntity
  8
0
100
AcDbLine
 10
0.9999999999999928
 20
334.035298064682
 30
0.0
 11
119.0
 21
334.035298064682
 31
0.0
  0
LINE
  5
2FE
330
125
100
AcDbEntity
  8
0
100
AcDbLine
 10
0.5
 20
333.535298064682
 30
0.0
 11
1.0
 21
333.735298064682
 31
0.0
  0
LINE
  5
2FF
330
125
100
AcDbEntity
  8
0
100
AcDbLine
 10
1.0
 20
334.035298064682
 30
0.0
 11
119.0
 21
334.035298064682
 31
0.0
  0
LINE
  5
300
330
125
100
AcDbEntity
  8
0
100
AcDbLine
 10
1.0
 20
333.735298064682
 30
0.0
 11
119.0
 21
333.735298064682
 31
0.0
  0
LINE
  5
301
330
125
100
AcDbEntity
  8
0
100
AcDbLine
 10
0.9999999999999928
 20
333.735298064682
 30
0.0
 11
119.0
 21
333.735298064682
 31
0.0
  0
LINE
  5
302
330
125
100
AcDbEntity
  8
0
100
AcDbLine
 10
0.2999999999999971
 20
315.035298064682
 30
0.0
 11
0.5
 21
314.535298064682
 31
0.0
  0
LINE
  5
303
330
125
100
AcDbEntity
  8
0
100
AcDbLine
 10
0.2999999999999971
 20
315.035298064682
 30
0.0
 11
0.2999999999999971
 21
333.035298064682
 31
0.0
  0
LINE
  5
304
330
125
100
AcDbEntity
  8
0
100
AcDbLine
 10
36.86400000000001
 20
313.4262980646819
 30
0.0
 11
39.16800000000001
 21
313.4262980646819
 31
0.0
  0
LINE
  5
305
330
125
100
AcDbEntity
  8
0
100
AcDbLine
 10
39.16800000000001
 20
313.4262980646819
 30
0.0
 11
43.00800000000001
 21
313.4262980646819
 31
0.0
  0
LINE
  5
306
330
125
100
AcDbEntity
  8
0
100
AcDbLine
 10
43.00800000000001
 20
313.4262980646819
 30
0.0
 11
48.096
 21
313.4262980646819
 31
0.0
  0
LINE
  5
307
330
125
100
AcDbEntity
  8
0
100
AcDbLine
 10
48.096
 20
313.4262980646819
 30
0.0
 11
53.856
 21
313.4262980646819
 31
0.0
  0
LINE
  5
308
330
125
100
AcDbEntity
  8
0
100
AcDbLine
 10
53.856
 20
313.4262980646819
 30
0.0
 11
60.0
 21
313.4262980646819
 31
0.0
  0
LINE
  5
309
330
125
100
AcDbEntity
  8
0
100
AcDbLine
 10
76.99200000000001
 20
313.4262980646819
 30
0.0
 11
80.83199999999997
 21
313.4262980646819
 31
0.0
  0
LINE
  5
30A
330
125
100
AcDbEntity
  8
0
100
AcDbLine
 10
71.904
 20
313.4262980646819
 30
0.0
 11
76.99200000000001
 21
313.4262980646819
 31
0.0
  0
LINE
  5
30B
330
125
100
AcDbEntity
  8
0
100
AcDbLine
 10
66.14399999999999
 20
313.4262980646819
 30
0.0
 11
71.904
 21
313.4262980646819
 31
0.0
  0
LINE
  5
30C
330
125
100
AcDbEntity
  8
0
100
AcDbLine
 10
36.57599999999999
 20
314.0352980646819
 30
0.0
 11
37.44
 21
314.0352980646819
 31
0.0
  0
LINE
  5
30D
330
125
100
AcDbEntity
  8
0
100
AcDbLine
 10
37.44
 20
314.0352980646819
 30
0.0
 11
39.744
 21
314.0352980646819
 31
0.0
  0
LINE
  5
30E
330
125
100
AcDbEntity
  8
0
100
AcDbLine
 10
39.744
 20
314.0352980646819
 30
0.0
 11
43.48799999999999
 21
314.0352980646819
 31
0.0
  0
LINE
  5
30F
330
125
100
AcDbEntity
  8
0
100
AcDbLine
 10
43.48799999999999
 20
314.0352980646819
 30
0.0
 11
48.38399999999999
 21
314.0352980646819
 31
0.0
  0
LINE
  5
310
330
125
100
AcDbEntity
  8
0
100
AcDbLine
 10
48.38399999999999
 20
314.0352980646819
 30
0.0
 11
53.95199999999999
 21
314.0352980646819
 31
0.0
  0
LINE
  5
311
330
125
100
AcDbEntity
  8
0
100
AcDbLine
 10
53.95199999999999
 20
314.0352980646819
 30
0.0
 11
60.0
 21
314.0352980646819
 31
0.0
  0
LINE
  5
312
330
125
100
AcDbEntity
  8
0
100
AcDbLine
 10
76.512
 20
314.0352980646819
 30
0.0
 11
80.256
 21
314.0352980646819
 31
0.0
  0
LINE
  5
313
330
125
100
AcDbEntity
  8
0
100
AcDbLine
 10
71.61599999999999
 20
314.0352980646819
 30
0.0
 11
76.512
 21
314.0352980646819
 31
0.0
  0
LINE
  5
314
330
125
100
AcDbEntity
  8
0
100
AcDbLine
 10
66.048
 20
314.0352980646819
 30
0.0
 11
71.61599999999999
 21
314.0352980646819
 31
0.0
  0
LINE
  5
315
330
125
100
AcDbEntity
  8
0
100
AcDbLine
 10
60.0
 20
314.0352980646819
 30
0.0
 11
66.048
 21
314.0352980646819
 31
0.0
  0
LINE
  5
316
330
125
100
AcDbEntity
  8
0
100
AcDbLine
 10
60.0
 20
313.4262980646819
 30
0.0
 11
66.14399999999999
 21
313.4262980646819
 31
0.0
  0
LINE
  5
317
330
125
100
AcDbEntity
  8
0
100
AcDbLine
 10
36.0
 20
313.4262980646819
 30
0.0
 11
36.57599999999999
 21
314.0352980646819
 31
0.0
  0
LINE
  5
318
330
125
100
AcDbEntity
  8
0
100
AcDbLine
 10
36.0
 20
313.4262980646819
 30
0.0
 11
36.0
 21
304.644298064682
 31
0.0
  0
LINE
  5
319
330
125
100
AcDbEntity
  8
0
100
AcDbLine
 10
36.0
 20
313.4262980646819
 30
0.0
 11
36.86400000000001
 21
313.4262980646819
 31
0.0
  0
LINE
  5
31A
330
125
100
AcDbEntity
  8
0
100
AcDbLine
 10
83.13599999999999
 20
304.644298064682
 30
0.0
 11
84.0
 21
304.644298064682
 31
0.0
  0
LINE
  5
31B
330
125
100
AcDbEntity
  8
0
100
AcDbLine
 10
80.83199999999997
 20
304.644298064682
 30
0.0
 11
83.13599999999999
 21
304.644298064682
 31
0.0
  0
LINE
  5
31C
330
125
100
AcDbEntity
  8
0
100
AcDbLine
 10
83.13599999999999
 20
313.4262980646819
 30
0.0
 11
84.0
 21
313.4262980646819
 31
0.0
  0
LINE
  5
31D
330
125
100
AcDbEntity
  8
0
100
AcDbLine
 10
82.56
 20
314.0352980646819
 30
0.0
 11
83.42399999999997
 21
314.0352980646819
 31
0.0
  0
LINE
  5
31E
330
125
100
AcDbEntity
  8
0
100
AcDbLine
 10
80.256
 20
314.0352980646819
 30
0.0
 11
82.56
 21
314.0352980646819
 31
0.0
  0
LINE
  5
31F
330
125
100
AcDbEntity
  8
0
100
AcDbLine
 10
80.83199999999997
 20
313.4262980646819
 30
0.0
 11
83.13599999999999
 21
313.4262980646819
 31
0.0
  0
LINE
  5
320
330
125
100
AcDbEntity
  8
0
100
AcDbLine
 10
83.42399999999997
 20
314.0352980646819
 30
0.0
 11
84.0
 21
313.4262980646819
 31
0.0
  0
LINE
  5
321
330
125
100
AcDbEntity
  8
0
100
AcDbLine
 10
83.42529999999998
 20
287.0592980646819
 30
0.0
 11
83.5707
 21
285.787298064682
 31
0.0
  0
LINE
  5
322
330
125
100
AcDbEntity
  8
0
100
AcDbLine
 10
83.42529999999998
 20
293.0112980646819
 30
0.0
 11
83.5707
 21
294.2832980646819
 31
0.0
  0
LINE
  5
323
330
125
100
AcDbEntity
  8
0
100
AcDbLine
 10
83.5707
 20
285.787298064682
 30
0.0
 11
83.74519999999998
 21
284.8272980646819
 31
0.0
  0
LINE
  5
324
330
125
100
AcDbEntity
  8
0
100
AcDbLine
 10
83.5707
 20
294.2832980646819
 30
0.0
 11
83.74519999999998
 21
295.2432980646819
 31
0.0
  0
LINE
  5
325
330
125
100
AcDbEntity
  8
0
100
AcDbLine
 10
83.74519999999998
 20
284.8272980646819
 30
0.0
 11
83.95459999999998
 21
284.2512980646819
 31
0.0
  0
LINE
  5
326
330
125
100
AcDbEntity
  8
0
100
AcDbLine
 10
83.74519999999998
 20
295.2432980646819
 30
0.0
 11
83.95459999999998
 21
295.8192980646819
 31
0.0
  0
LINE
  5
327
330
125
100
AcDbEntity
  8
0
100
AcDbLine
 10
84.0
 20
284.0352980646819
 30
0.0
 11
84.19999999999999
 21
284.0352980646819
 31
0.0
  0
LINE
  5
328
330
125
100
AcDbEntity
  8
0
100
AcDbLine
 10
83.95459999999998
 20
284.2512980646819
 30
0.0
 11
84.19999999999999
 21
284.0352980646819
 31
0.0
  0
LINE
  5
329
330
125
100
AcDbEntity
  8
0
100
AcDbLine
 10
83.95459999999998
 20
295.8192980646819
 30
0.0
 11
84.19999999999999
 21
296.0352980646819
 31
0.0
  0
LINE
  5
32A
330
125
100
AcDbEntity
  8
0
100
AcDbLine
 10
84.0
 20
296.0352980646819
 30
0.0
 11
84.0
 21
303.4262980646819
 31
0.0
  0
LINE
  5
32B
330
125
100
AcDbEntity
  8
0
100
AcDbLine
 10
84.0
 20
296.0352980646819
 30
0.0
 11
84.19999999999999
 21
296.0352980646819
 31
0.0
  0
LINE
  5
32C
330
125
100
AcDbEntity
  8
0
100
AcDbLine
 10
84.0
 20
266.6442720646819
 30
0.0
 11
84.0
 21
284.0496980646819
 31
0.0
  0
LINE
  5
32D
330
125
100
AcDbEntity
  8
0
100
AcDbLine
 10
84.19999999999999
 20
296.0352980646819
 30
0.0
 11
84.19999999999999
 21
284.0352980646819
 31
0.0
  0
LINE
  5
32E
330
125
100
AcDbEntity
  8
0
100
AcDbLine
 10
84.19999999999999
 20
284.0352980646819
 30
0.0
 11
84.19999999999999
 21
296.0352980646819
 31
0.0
  0
LINE
  5
32F
330
125
100
AcDbEntity
  8
0
100
AcDbLine
 10
84.0
 20
284.0496980646819
 30
0.0
 11
84.0
 21
266.6442720646819
 31
0.0
  0
LINE
  5
330
330
125
100
AcDbEntity
  8
0
100
AcDbLine
 10
83.42399999999997
 20
314.0352980646819
 30
0.0
 11
119.0
 21
314.0352980646819
 31
0.0
  0
LINE
  5
331
330
125
100
AcDbEntity
  8
0
100
AcDbLine
 10
84.0
 20
304.644298064682
 30
0.0
 11
84.0
 21
313.4262980646819
 31
0.0
  0
LINE
  5
332
330
125
100
AcDbEntity
  8
0
100
AcDbLine
 10
119.7
 20
314.3352980646819
 30
0.0
 11
120.0
 21
315.035298064682
 31
0.0
  0
LINE
  5
333
330
125
100
AcDbEntity
  8
0
100
AcDbLine
 10
119.0
 20
314.0352980646819
 30
0.0
 11
119.7
 21
314.3352980646819
 31
0.0
  0
LINE
  5
334
330
125
100
AcDbEntity
  8
0
100
AcDbLine
 10
119.0
 20
334.035298064682
 30
0.0
 11
119.7
 21
333.735298064682
 31
0.0
  0
LINE
  5
335
330
125
100
AcDbEntity
  8
0
100
AcDbLine
 10
119.0
 20
333.735298064682
 30
0.0
 11
119.5
 21
333.535298064682
 31
0.0
  0
LINE
  5
336
330
125
100
AcDbEntity
  8
0
100
AcDbLine
 10
119.5
 20
333.535298064682
 30
0.0
 11
119.7
 21
333.035298064682
 31
0.0
  0
LINE
  5
337
330
125
100
AcDbEntity
  8
0
100
AcDbLine
 10
120.0
 20
315.035298064682
 30
0.0
 11
120.0
 21
333.035298064682
 31
0.0
  0
LINE
  5
338
330
125
100
AcDbEntity
  8
0
100
AcDbLine
 10
119.7
 20
333.735298064682
 30
0.0
 11
120.0
 21
333.035298064682
 31
0.0
  0
LINE
  5
339
330
125
100
AcDbEntity
  8
0
100
AcDbLine
 10
120.0
 20
333.035298064682
 30
0.0
 11
120.0
 21
315.035298064682
 31
0.0
  0
LINE
  5
33A
330
125
100
AcDbEntity
  8
0
100
AcDbLine
 10
119.7
 20
333.035298064682
 30
0.0
 11
119.7
 21
315.035298064682
 31
0.0
  0
LINE
  5
33B
330
125
100
AcDbEntity
  8
0
100
AcDbLine
 10
119.7
 20
315.035298064682
 30
0.0
 11
119.7
 21
333.035298064682
 31
0.0
  0
LINE
  5
33C
330
125
100
AcDbEntity
  8
0
100
AcDbLine
 10
119.5
 20
314.535298064682
 30
0.0
 11
119.7
 21
315.035298064682
 31
0.0
  0
LINE
  5
33D
330
125
100
AcDbEntity
  8
0
100
AcDbLine
 10
119.0
 20
314.3352980646819
 30
0.0
 11
119.5
 21
314.535298064682
 31
0.0
  0
LINE
  5
33E
330
125
100
AcDbEntity
  8
0
100
AcDbLine
 10
84.0
 20
313.4262980646819
 30
0.0
 11
84.0
 21
304.644298064682
 31
0.0
  0
LINE
  5
33F
330
125
100
AcDbEntity
  8
0
100
AcDbLine
 10
84.0
 20
303.4262980646819
 30
0.0
 11
84.0
 21
296.0352980646819
 31
0.0
  0
LINE
  5
340
330
125
100
AcDbEntity
  8
0
100
AcDbLine
 10
83.42399999999997
 20
304.0352980646819
 30
0.0
 11
84.0
 21
303.4262980646819
 31
0.0
  0
LINE
  5
341
330
125
100
AcDbEntity
  8
0
100
AcDbLine
 10
83.42399999999997
 20
304.0352980646819
 30
0.0
 11
84.0
 21
304.644298064682
 31
0.0
  0
LINE
  5
431
330
125
100
AcDbEntity
  8
0
100
AcDbLine
 10
342.7424084920537
 20
36.0
 30
0.0
 11
379.5244344920538
 21
36.0
 31
0.0
  0
LINE
  5
432
330
125
100
AcDbEntity
  8
0
100
AcDbLine
 10
342.7424084920537
 20
36.0
 30
0.0
 11
379.5244344920538
 21
36.0
 31
0.0
  0
LINE
  5
433
330
125
100
AcDbEntity
  8
0
100
AcDbLine
 10
342.7424084920537
 20
36.0
 30
0.0
 11
342.7424084920537
 21
36.864
 31
0.0
  0
LINE
  5
434
330
125
100
AcDbEntity
  8
0
100
AcDbLine
 10
342.1334344920538
 20
36.576
 30
0.0
 11
342.7424084920537
 21
36.0
 31
0.0
  0
LINE
  5
435
330
125
100
AcDbEntity
  8
0
100
AcDbLine
 10
342.1334344920538
 20
37.43999999999999
 30
0.0
 11
342.1334344920538
 21
39.744
 31
0.0
  0
LINE
  5
436
330
125
100
AcDbEntity
  8
0
100
AcDbLine
 10
342.1334344920538
 20
36.576
 30
0.0
 11
342.7424084920537
 21
36.0
 31
0.0
  0
LINE
  5
437
330
125
100
AcDbEntity
  8
0
100
AcDbLine
 10
342.1334344920538
 20
36.576
 30
0.0
 11
342.1334344920538
 21
37.43999999999999
 31
0.0
  0
LINE
  5
438
330
125
100
AcDbEntity
  8
0
100
AcDbLine
 10
342.7424084920537
 20
39.16800000000001
 30
0.0
 11
342.7424084920537
 21
43.00800000000001
 31
0.0
  0
LINE
  5
439
330
125
100
AcDbEntity
  8
0
100
AcDbLine
 10
342.7424084920537
 20
36.864
 30
0.0
 11
342.7424084920537
 21
36.0
 31
0.0
  0
LINE
  5
43A
330
125
100
AcDbEntity
  8
0
100
AcDbLine
 10
342.7424084920537
 20
36.864
 30
0.0
 11
342.7424084920537
 21
39.16800000000001
 31
0.0
  0
LINE
  5
43B
330
125
100
AcDbEntity
  8
0
100
AcDbLine
 10
342.1334344920538
 20
43.48799999999999
 30
0.0
 11
342.1334344920538
 21
48.38399999999999
 31
0.0
  0
LINE
  5
43C
330
125
100
AcDbEntity
  8
0
100
AcDbLine
 10
342.1334344920538
 20
39.744
 30
0.0
 11
342.1334344920538
 21
43.48799999999999
 31
0.0
  0
LINE
  5
43D
330
125
100
AcDbEntity
  8
0
100
AcDbLine
 10
342.7424084920537
 20
48.096
 30
0.0
 11
342.7424084920537
 21
53.856
 31
0.0
  0
LINE
  5
43E
330
125
100
AcDbEntity
  8
0
100
AcDbLine
 10
342.7424084920537
 20
43.00800000000001
 30
0.0
 11
342.7424084920537
 21
48.096
 31
0.0
  0
LINE
  5
43F
330
125
100
AcDbEntity
  8
0
100
AcDbLine
 10
342.1334344920538
 20
48.38399999999999
 30
0.0
 11
342.1334344920538
 21
53.95199999999999
 31
0.0
  0
LINE
  5
440
330
125
100
AcDbEntity
  8
0
100
AcDbLine
 10
342.1334344920538
 20
60.0
 30
0.0
 11
342.1334344920538
 21
66.048
 31
0.0
  0
LINE
  5
441
330
125
100
AcDbEntity
  8
0
100
AcDbLine
 10
342.1334344920538
 20
66.048
 30
0.0
 11
342.1334344920538
 21
71.61599999999999
 31
0.0
  0
LINE
  5
442
330
125
100
AcDbEntity
  8
0
100
AcDbLine
 10
342.1334344920538
 20
71.61599999999999
 30
0.0
 11
342.1334344920538
 21
76.512
 31
0.0
  0
LINE
  5
443
330
125
100
AcDbEntity
  8
0
100
AcDbLine
 10
342.1334344920538
 20
76.512
 30
0.0
 11
342.1334344920538
 21
80.256
 31
0.0
  0
LINE
  5
444
330
125
100
AcDbEntity
  8
0
100
AcDbLine
 10
342.1334344920538
 20
80.256
 30
0.0
 11
342.1334344920538
 21
82.56
 31
0.0
  0
LINE
  5
445
330
125
100
AcDbEntity
  8
0
100
AcDbLine
 10
342.1334344920538
 20
83.42399999999997
 30
0.0
 11
342.7424084920537
 21
84.0
 31
0.0
  0
LINE
  5
446
330
125
100
AcDbEntity
  8
0
100
AcDbLine
 10
342.1334344920538
 20
82.56
 30
0.0
 11
342.1334344920538
 21
83.42399999999997
 31
0.0
  0
LINE
  5
447
330
125
100
AcDbEntity
  8
0
100
AcDbLine
 10
342.1334344920538
 20
83.42399999999997
 30
0.0
 11
342.7424084920537
 21
84.0
 31
0.0
  0
LINE
  5
448
330
125
100
AcDbEntity
  8
0
100
AcDbLine
 10
342.7424084920537
 20
60.0
 30
0.0
 11
342.7424084920537
 21
66.14399999999999
 31
0.0
  0
LINE
  5
449
330
125
100
AcDbEntity
  8
0
100
AcDbLine
 10
342.7424084920537
 20
66.14399999999999
 30
0.0
 11
342.7424084920537
 21
71.904
 31
0.0
  0
LINE
  5
44A
330
125
100
AcDbEntity
  8
0
100
AcDbLine
 10
342.7424084920537
 20
71.904
 30
0.0
 11
342.7424084920537
 21
76.99200000000001
 31
0.0
  0
LINE
  5
44B
330
125
100
AcDbEntity
  8
0
100
AcDbLine
 10
342.7424084920537
 20
76.99200000000001
 30
0.0
 11
342.7424084920537
 21
80.83199999999997
 31
0.0
  0
LINE
  5
44C
330
125
100
AcDbEntity
  8
0
100
AcDbLine
 10
364.5974344920538
 20
54.20859999999999
 30
0.0
 11
366.1334344920537
 21
53.9932
 31
0.0
  0
LINE
  5
44D
330
125
100
AcDbEntity
  8
0
100
AcDbLine
 10
363.1574344920537
 20
54.7907
 30
0.0
 11
364.5974344920538
 21
54.20859999999999
 31
0.0
  0
LINE
  5
44E
330
125
100
AcDbEntity
  8
0
100
AcDbLine
 10
361.8854344920538
 20
55.7513
 30
0.0
 11
363.1574344920537
 21
54.7907
 31
0.0
  0
LINE
  5
44F
330
125
100
AcDbEntity
  8
0
100
AcDbLine
 10
360.9254344920538
 20
57.02609999999999
 30
0.0
 11
361.8854344920538
 21
55.7513
 31
0.0
  0
LINE
  5
450
330
125
100
AcDbEntity
  8
0
100
AcDbLine
 10
360.3494344920538
 20
58.464
 30
0.0
 11
360.9254344920538
 21
57.02609999999999
 31
0.0
  0
LINE
  5
451
330
125
100
AcDbEntity
  8
0
100
AcDbLine
 10
371.9174344920538
 20
58.464
 30
0.0
 11
372.1334344920538
 21
60.0
 31
0.0
  0
LINE
  5
452
330
125
100
AcDbEntity
  8
0
100
AcDbLine
 10
371.3414344920537
 20
57.02609999999999
 30
0.0
 11
371.9174344920538
 21
58.464
 31
0.0
  0
LINE
  5
453
330
125
100
AcDbEntity
  8
0
100
AcDbLine
 10
370.3814344920538
 20
55.7513
 30
0.0
 11
371.3414344920537
 21
57.02609999999999
 31
0.0
  0
LINE
  5
454
330
125
100
AcDbEntity
  8
0
100
AcDbLine
 10
369.1094344920538
 20
54.7907
 30
0.0
 11
370.3814344920538
 21
55.7513
 31
0.0
  0
LINE
  5
455
330
125
100
AcDbEntity
  8
0
100
AcDbLine
 10
367.6694344920538
 20
54.20859999999999
 30
0.0
 11
369.1094344920538
 21
54.7907
 31
0.0
  0
LINE
  5
456
330
125
100
AcDbEntity
  8
0
100
AcDbLine
 10
366.1334344920537
 20
53.9932
 30
0.0
 11
367.6694344920538
 21
54.20859999999999
 31
0.0
  0
LINE
  5
457
330
125
100
AcDbEntity
  8
0
100
AcDbLine
 10
364.5974344920538
 20
65.79139999999999
 30
0.0
 11
366.1334344920537
 21
66.0068
 31
0.0
  0
LINE
  5
458
330
125
100
AcDbEntity
  8
0
100
AcDbLine
 10
366.1334344920537
 20
66.0068
 30
0.0
 11
367.6694344920538
 21
65.79139999999999
 31
0.0
  0
LINE
  5
459
330
125
100
AcDbEntity
  8
0
100
AcDbLine
 10
363.1574344920537
 20
65.20929999999999
 30
0.0
 11
364.5974344920538
 21
65.79139999999999
 31
0.0
  0
LINE
  5
45A
330
125
100
AcDbEntity
  8
0
100
AcDbLine
 10
367.6694344920538
 20
65.79139999999999
 30
0.0
 11
369.1094344920538
 21
65.20929999999999
 31
0.0
  0
LINE
  5
45B
330
125
100
AcDbEntity
  8
0
100
AcDbLine
 10
361.8854344920538
 20
64.2487
 30
0.0
 11
363.1574344920537
 21
65.20929999999999
 31
0.0
  0
LINE
  5
45C
330
125
100
AcDbEntity
  8
0
100
AcDbLine
 10
369.1094344920538
 20
65.20929999999999
 30
0.0
 11
370.3814344920538
 21
64.2487
 31
0.0
  0
LINE
  5
45D
330
125
100
AcDbEntity
  8
0
100
AcDbLine
 10
360.9254344920538
 20
62.9739
 30
0.0
 11
361.8854344920538
 21
64.2487
 31
0.0
  0
LINE
  5
45E
330
125
100
AcDbEntity
  8
0
100
AcDbLine
 10
370.3814344920538
 20
64.2487
 30
0.0
 11
371.3414344920537
 21
62.9739
 31
0.0
  0
LINE
  5
45F
330
125
100
AcDbEntity
  8
0
100
AcDbLine
 10
360.3494344920538
 20
61.536
 30
0.0
 11
360.9254344920538
 21
62.9739
 31
0.0
  0
LINE
  5
460
330
125
100
AcDbEntity
  8
0
100
AcDbLine
 10
371.3414344920537
 20
62.9739
 30
0.0
 11
371.9174344920538
 21
61.536
 31
0.0
  0
LINE
  5
461
330
125
100
AcDbEntity
  8
0
100
AcDbLine
 10
360.1334344920538
 20
60.0
 30
0.0
 11
360.3494344920538
 21
61.536
 31
0.0
  0
LINE
  5
462
330
125
100
AcDbEntity
  8
0
100
AcDbLine
 10
360.1334344920538
 20
60.0
 30
0.0
 11
360.3494344920538
 21
58.464
 31
0.0
  0
LINE
  5
463
330
125
100
AcDbEntity
  8
0
100
AcDbLine
 10
371.9174344920538
 20
61.536
 30
0.0
 11
372.1334344920538
 21
60.0
 31
0.0
  0
LINE
  5
464
330
125
100
AcDbEntity
  8
0
100
AcDbLine
 10
366.1334344920537
 20
83.3148
 30
0.0
 11
367.6694344920538
 21
83.33799999999998
 31
0.0
  0
LINE
  5
465
330
125
100
AcDbEntity
  8
0
100
AcDbLine
 10
364.5974344920538
 20
83.33799999999998
 30
0.0
 11
366.1334344920537
 21
83.3148
 31
0.0
  0
LINE
  5
466
330
125
100
AcDbEntity
  8
0
100
AcDbLine
 10
363.1574344920537
 20
83.42529999999998
 30
0.0
 11
364.5974344920538
 21
83.33799999999998
 31
0.0
  0
LINE
  5
467
330
125
100
AcDbEntity
  8
0
100
AcDbLine
 10
367.6694344920538
 20
83.33799999999998
 30
0.0
 11
369.1094344920538
 21
83.42529999999998
 31
0.0
  0
LINE
  5
468
330
125
100
AcDbEntity
  8
0
100
AcDbLine
 10
361.8854344920538
 20
83.5707
 30
0.0
 11
363.1574344920537
 21
83.42529999999998
 31
0.0
  0
LINE
  5
469
330
125
100
AcDbEntity
  8
0
100
AcDbLine
 10
369.1094344920538
 20
83.42529999999998
 30
0.0
 11
370.3814344920538
 21
83.5707
 31
0.0
  0
LINE
  5
46A
330
125
100
AcDbEntity
  8
0
100
AcDbLine
 10
360.9254344920538
 20
83.74519999999998
 30
0.0
 11
361.8854344920538
 21
83.5707
 31
0.0
  0
LINE
  5
46B
330
125
100
AcDbEntity
  8
0
100
AcDbLine
 10
370.3814344920538
 20
83.5707
 30
0.0
 11
371.3414344920537
 21
83.74519999999998
 31
0.0
  0
LINE
  5
46C
330
125
100
AcDbEntity
  8
0
100
AcDbLine
 10
360.3494344920538
 20
83.95459999999998
 30
0.0
 11
360.9254344920538
 21
83.74519999999998
 31
0.0
  0
LINE
  5
46D
330
125
100
AcDbEntity
  8
0
100
AcDbLine
 10
371.3414344920537
 20
83.74519999999998
 30
0.0
 11
371.9174344920538
 21
83.95459999999998
 31
0.0
  0
LINE
  5
46E
330
125
100
AcDbEntity
  8
0
100
AcDbLine
 10
371.9174344920538
 20
83.95459999999998
 30
0.0
 11
372.1334344920538
 21
84.19999999999999
 31
0.0
  0
LINE
  5
46F
330
125
100
AcDbEntity
  8
0
100
AcDbLine
 10
360.1334344920538
 20
84.0
 30
0.0
 11
360.1334344920538
 21
84.19999999999999
 31
0.0
  0
LINE
  5
470
330
125
100
AcDbEntity
  8
0
100
AcDbLine
 10
342.7424084920537
 20
83.13599999999999
 30
0.0
 11
342.7424084920537
 21
84.0
 31
0.0
  0
LINE
  5
471
330
125
100
AcDbEntity
  8
0
100
AcDbLine
 10
342.7424084920537
 20
80.83199999999997
 30
0.0
 11
342.7424084920537
 21
83.13599999999999
 31
0.0
  0
LINE
  5
472
330
125
100
AcDbEntity
  8
0
100
AcDbLine
 10
342.7424084920537
 20
84.0
 30
0.0
 11
342.7424084920537
 21
83.13599999999999
 31
0.0
  0
LINE
  5
473
330
125
100
AcDbEntity
  8
0
100
AcDbLine
 10
342.7424084920537
 20
84.0
 30
0.0
 11
360.1478344920537
 21
84.0
 31
0.0
  0
LINE
  5
474
330
125
100
AcDbEntity
  8
0
100
AcDbLine
 10
342.7424084920537
 20
84.0
 30
0.0
 11
360.1478344920537
 21
84.0
 31
0.0
  0
LINE
  5
475
330
125
100
AcDbEntity
  8
0
100
AcDbLine
 10
360.1334344920538
 20
84.19999999999999
 30
0.0
 11
372.1334344920538
 21
84.19999999999999
 31
0.0
  0
LINE
  5
476
330
125
100
AcDbEntity
  8
0
100
AcDbLine
 10
360.1334344920538
 20
84.19999999999999
 30
0.0
 11
360.3494344920538
 21
83.95459999999998
 31
0.0
  0
LINE
  5
477
330
125
100
AcDbEntity
  8
0
100
AcDbLine
 10
360.1334344920538
 20
84.19999999999999
 30
0.0
 11
360.1334344920538
 21
84.0
 31
0.0
  0
LINE
  5
478
330
125
100
AcDbEntity
  8
0
100
AcDbLine
 10
372.1334344920538
 20
84.19999999999999
 30
0.0
 11
372.1334344920538
 21
84.0
 31
0.0
  0
LINE
  5
479
330
125
100
AcDbEntity
  8
0
100
AcDbLine
 10
372.1334344920538
 20
84.0
 30
0.0
 11
379.5244344920538
 21
84.0
 31
0.0
  0
LINE
  5
47A
330
125
100
AcDbEntity
  8
0
100
AcDbLine
 10
372.1334344920538
 20
84.0
 30
0.0
 11
372.1334344920538
 21
84.19999999999999
 31
0.0
  0
LINE
  5
47B
330
125
100
AcDbEntity
  8
0
100
AcDbLine
 10
342.1334344920538
 20
53.95199999999999
 30
0.0
 11
342.1334344920538
 21
60.0
 31
0.0
  0
LINE
  5
47C
330
125
100
AcDbEntity
  8
0
100
AcDbLine
 10
342.7424084920537
 20
53.856
 30
0.0
 11
342.7424084920537
 21
60.0
 31
0.0
  0
LINE
  5
47D
330
125
100
AcDbEntity
  8
0
100
AcDbLine
 10
379.5244344920538
 20
53.856
 30
0.0
 11
379.5244344920538
 21
48.096
 31
0.0
  0
LINE
  5
47E
330
125
100
AcDbEntity
  8
0
100
AcDbLine
 10
379.5244344920538
 20
53.856
 30
0.0
 11
379.5244344920538
 21
60.0
 31
0.0
  0
LINE
  5
47F
330
125
100
AcDbEntity
  8
0
100
AcDbLine
 10
379.5244344920538
 20
48.096
 30
0.0
 11
379.5244344920538
 21
43.00800000000001
 31
0.0
  0
LINE
  5
480
330
125
100
AcDbEntity
  8
0
100
AcDbLine
 10
379.5244344920538
 20
48.096
 30
0.0
 11
379.5244344920538
 21
53.856
 31
0.0
  0
LINE
  5
481
330
125
100
AcDbEntity
  8
0
100
AcDbLine
 10
379.5244344920538
 20
43.00800000000001
 30
0.0
 11
379.5244344920538
 21
39.16800000000001
 31
0.0
  0
LINE
  5
482
330
125
100
AcDbEntity
  8
0
100
AcDbLine
 10
379.5244344920538
 20
43.00800000000001
 30
0.0
 11
379.5244344920538
 21
48.096
 31
0.0
  0
LINE
  5
483
330
125
100
AcDbEntity
  8
0
100
AcDbLine
 10
379.5244344920538
 20
39.16800000000001
 30
0.0
 11
379.5244344920538
 21
36.864
 31
0.0
  0
LINE
  5
484
330
125
100
AcDbEntity
  8
0
100
AcDbLine
 10
379.5244344920538
 20
39.16800000000001
 30
0.0
 11
379.5244344920538
 21
43.00800000000001
 31
0.0
  0
LINE
  5
485
330
125
100
AcDbEntity
  8
0
100
AcDbLine
 10
379.5244344920538
 20
60.0
 30
0.0
 11
379.5244344920538
 21
66.14399999999999
 31
0.0
  0
LINE
  5
486
330
125
100
AcDbEntity
  8
0
100
AcDbLine
 10
379.5244344920538
 20
66.14399999999999
 30
0.0
 11
379.5244344920538
 21
71.904
 31
0.0
  0
LINE
  5
487
330
125
100
AcDbEntity
  8
0
100
AcDbLine
 10
379.5244344920538
 20
66.14399999999999
 30
0.0
 11
379.5244344920538
 21
60.0
 31
0.0
  0
LINE
  5
488
330
125
100
AcDbEntity
  8
0
100
AcDbLine
 10
379.5244344920538
 20
71.904
 30
0.0
 11
379.5244344920538
 21
76.99200000000001
 31
0.0
  0
LINE
  5
489
330
125
100
AcDbEntity
  8
0
100
AcDbLine
 10
379.5244344920538
 20
71.904
 30
0.0
 11
379.5244344920538
 21
66.14399999999999
 31
0.0
  0
LINE
  5
48A
330
125
100
AcDbEntity
  8
0
100
AcDbLine
 10
379.5244344920538
 20
76.99200000000001
 30
0.0
 11
379.5244344920538
 21
80.83199999999997
 31
0.0
  0
LINE
  5
48B
330
125
100
AcDbEntity
  8
0
100
AcDbLine
 10
379.5244344920538
 20
76.99200000000001
 30
0.0
 11
379.5244344920538
 21
71.904
 31
0.0
  0
LINE
  5
48C
330
125
100
AcDbEntity
  8
0
100
AcDbLine
 10
379.5244344920538
 20
84.0
 30
0.0
 11
380.1334344920538
 21
83.42399999999997
 31
0.0
  0
LINE
  5
48D
330
125
100
AcDbEntity
  8
0
100
AcDbLine
 10
379.5244344920538
 20
84.0
 30
0.0
 11
379.5244344920538
 21
83.13599999999999
 31
0.0
  0
LINE
  5
48E
330
125
100
AcDbEntity
  8
0
100
AcDbLine
 10
379.5244344920538
 20
80.83199999999997
 30
0.0
 11
379.5244344920538
 21
83.13599999999999
 31
0.0
  0
LINE
  5
48F
330
125
100
AcDbEntity
  8
0
100
AcDbLine
 10
379.5244344920538
 20
80.83199999999997
 30
0.0
 11
379.5244344920538
 21
76.99200000000001
 31
0.0
  0
LINE
  5
490
330
125
100
AcDbEntity
  8
0
100
AcDbLine
 10
379.5244344920538
 20
83.13599999999999
 30
0.0
 11
379.5244344920538
 21
84.0
 31
0.0
  0
LINE
  5
491
330
125
100
AcDbEntity
  8
0
100
AcDbLine
 10
379.5244344920538
 20
83.13599999999999
 30
0.0
 11
379.5244344920538
 21
80.83199999999997
 31
0.0
  0
LINE
  5
492
330
125
100
AcDbEntity
  8
0
100
AcDbLine
 10
380.1334344920538
 20
53.95199999999999
 30
0.0
 11
380.1334344920538
 21
60.0
 31
0.0
  0
LINE
  5
493
330
125
100
AcDbEntity
  8
0
100
AcDbLine
 10
380.1334344920538
 20
53.95199999999999
 30
0.0
 11
380.1334344920538
 21
48.38399999999999
 31
0.0
  0
LINE
  5
494
330
125
100
AcDbEntity
  8
0
100
AcDbLine
 10
380.1334344920538
 20
48.38399999999999
 30
0.0
 11
380.1334344920538
 21
53.95199999999999
 31
0.0
  0
LINE
  5
495
330
125
100
AcDbEntity
  8
0
100
AcDbLine
 10
380.1334344920538
 20
48.38399999999999
 30
0.0
 11
380.1334344920538
 21
43.48799999999999
 31
0.0
  0
LINE
  5
496
330
125
100
AcDbEntity
  8
0
100
AcDbLine
 10
380.1334344920538
 20
43.48799999999999
 30
0.0
 11
380.1334344920538
 21
48.38399999999999
 31
0.0
  0
LINE
  5
497
330
125
100
AcDbEntity
  8
0
100
AcDbLine
 10
380.1334344920538
 20
43.48799999999999
 30
0.0
 11
380.1334344920538
 21
39.744
 31
0.0
  0
LINE
  5
498
330
125
100
AcDbEntity
  8
0
100
AcDbLine
 10
380.1334344920538
 20
39.744
 30
0.0
 11
380.1334344920538
 21
43.48799999999999
 31
0.0
  0
LINE
  5
499
330
125
100
AcDbEntity
  8
0
100
AcDbLine
 10
380.1334344920538
 20
39.744
 30
0.0
 11
380.1334344920538
 21
37.43999999999999
 31
0.0
  0
LINE
  5
49A
330
125
100
AcDbEntity
  8
0
100
AcDbLine
 10
380.1334344920538
 20
37.43999999999999
 30
0.0
 11
380.1334344920538
 21
39.744
 31
0.0
  0
LINE
  5
49B
330
125
100
AcDbEntity
  8
0
100
AcDbLine
 10
380.1334344920538
 20
37.43999999999999
 30
0.0
 11
380.1334344920538
 21
36.576
 31
0.0
  0
LINE
  5
49C
330
125
100
AcDbEntity
  8
0
100
AcDbLine
 10
379.5244344920538
 20
36.864
 30
0.0
 11
379.5244344920538
 21
36.0
 31
0.0
  0
LINE
  5
49D
330
125
100
AcDbEntity
  8
0
100
AcDbLine
 10
379.5244344920538
 20
36.864
 30
0.0
 11
379.5244344920538
 21
39.16800000000001
 31
0.0
  0
LINE
  5
49E
330
125
100
AcDbEntity
  8
0
100
AcDbLine
 10
379.5244344920538
 20
36.0
 30
0.0
 11
380.1334344920538
 21
36.576
 31
0.0
  0
LINE
  5
49F
330
125
100
AcDbEntity
  8
0
100
AcDbLine
 10
379.5244344920538
 20
36.0
 30
0.0
 11
379.5244344920538
 21
36.864
 31
0.0
  0
LINE
  5
4A0
330
125
100
AcDbEntity
  8
0
100
AcDbLine
 10
380.1334344920538
 20
60.0
 30
0.0
 11
380.1334344920538
 21
66.048
 31
0.0
  0
LINE
  5
4A1
330
125
100
AcDbEntity
  8
0
100
AcDbLine
 10
380.1334344920538
 20
66.048
 30
0.0
 11
380.1334344920538
 21
71.61599999999999
 31
0.0
  0
LINE
  5
4A2
330
125
100
AcDbEntity
  8
0
100
AcDbLine
 10
380.1334344920538
 20
66.048
 30
0.0
 11
380.1334344920538
 21
60.0
 31
0.0
  0
LINE
  5
4A3
330
125
100
AcDbEntity
  8
0
100
AcDbLine
 10
380.1334344920538
 20
71.61599999999999
 30
0.0
 11
380.1334344920538
 21
76.512
 31
0.0
  0
LINE
  5
4A4
330
125
100
AcDbEntity
  8
0
100
AcDbLine
 10
380.1334344920538
 20
71.61599999999999
 30
0.0
 11
380.1334344920538
 21
66.048
 31
0.0
  0
LINE
  5
4A5
330
125
100
AcDbEntity
  8
0
100
AcDbLine
 10
380.1334344920538
 20
76.512
 30
0.0
 11
380.1334344920538
 21
80.256
 31
0.0
  0
LINE
  5
4A6
330
125
100
AcDbEntity
  8
0
100
AcDbLine
 10
380.1334344920538
 20
76.512
 30
0.0
 11
380.1334344920538
 21
71.61599999999999
 31
0.0
  0
LINE
  5
4A7
330
125
100
AcDbEntity
  8
0
100
AcDbLine
 10
380.7424344920537
 20
36.0
 30
0.0
 11
389.5244344920538
 21
36.0
 31
0.0
  0
LINE
  5
4A8
330
125
100
AcDbEntity
  8
0
100
AcDbLine
 10
380.7424344920537
 20
36.0
 30
0.0
 11
380.7424344920537
 21
36.864
 31
0.0
  0
LINE
  5
4A9
330
125
100
AcDbEntity
  8
0
100
AcDbLine
 10
390.4334344920538
 20
0.2999999999999971
 30
0.0
 11
390.6334344920538
 21
0.2999999999999971
 31
0.0
  0
LINE
  5
4AA
330
125
100
AcDbEntity
  8
0
100
AcDbLine
 10
390.4334344920538
 20
0.2999999999999971
 30
0.0
 11
391.1334344920538
 21
-0.0000000000000036
 31
0.0
  0
LINE
  5
4AB
330
125
100
AcDbEntity
  8
0
100
AcDbLine
 10
390.4334344920538
 20
0.2999999999999971
 30
0.0
 11
391.1334344920538
 21
-0.0000000000000036
 31
0.0
  0
LINE
  5
4AC
330
125
100
AcDbEntity
  8
0
100
AcDbLine
 10
391.1334344920538
 20
-0.0000000000000036
 30
0.0
 11
409.1334344920538
 21
-0.0000000000000036
 31
0.0
  0
LINE
  5
4AD
330
125
100
AcDbEntity
  8
0
100
AcDbLine
 10
409.1334344920538
 20
-0.0000000000000036
 30
0.0
 11
409.8334344920537
 21
0.2999999999999971
 31
0.0
  0
LINE
  5
4AE
330
125
100
AcDbEntity
  8
0
100
AcDbLine
 10
409.1334344920538
 20
-0.0000000000000036
 30
0.0
 11
409.8334344920537
 21
0.2999999999999971
 31
0.0
  0
LINE
  5
4AF
330
125
100
AcDbEntity
  8
0
100
AcDbLine
 10
409.8334344920537
 20
0.2999999999999971
 30
0.0
 11
410.1334344920537
 21
0.9999999999999964
 31
0.0
  0
LINE
  5
4B0
330
125
100
AcDbEntity
  8
0
100
AcDbLine
 10
409.8334344920537
 20
0.2999999999999971
 30
0.0
 11
410.1334344920537
 21
0.9999999999999964
 31
0.0
  0
LINE
  5
4B1
330
125
100
AcDbEntity
  8
0
100
AcDbLine
 10
409.1334344920538
 20
0.2999999999999971
 30
0.0
 11
409.6334344920538
 21
0.2999999999999971
 31
0.0
  0
LINE
  5
4B2
330
125
100
AcDbEntity
  8
0
100
AcDbLine
 10
409.6334344920538
 20
0.2999999999999971
 30
0.0
 11
409.8334344920537
 21
0.9999999999999964
 31
0.0
  0
LINE
  5
4B3
330
125
100
AcDbEntity
  8
0
100
AcDbLine
 10
409.6334344920538
 20
0.2999999999999971
 30
0.0
 11
409.8334344920537
 21
0.2999999999999971
 31
0.0
  0
LINE
  5
4B4
330
125
100
AcDbEntity
  8
0
100
AcDbLine
 10
391.1334344920538
 20
0.2999999999999971
 30
0.0
 11
409.1334344920538
 21
0.2999999999999971
 31
0.0
  0
LINE
  5
4B5
330
125
100
AcDbEntity
  8
0
100
AcDbLine
 10
390.6334344920538
 20
0.2999999999999971
 30
0.0
 11
391.1334344920538
 21
0.2999999999999971
 31
0.0
  0
LINE
  5
4B6
330
125
100
AcDbEntity
  8
0
100
AcDbLine
 10
410.1334344920537
 20
0.9999999999999964
 30
0.0
 11
410.1334344920537
 21
119.0
 31
0.0
  0
LINE
  5
4B7
330
125
100
AcDbEntity
  8
0
100
AcDbLine
 10
410.1334344920537
 20
0.9999999999999964
 30
0.0
 11
410.1334344920537
 21
119.0
 31
0.0
  0
LINE
  5
4B8
330
125
100
AcDbEntity
  8
0
100
AcDbLine
 10
409.8334344920537
 20
0.9999999999999964
 30
0.0
 11
409.8334344920537
 21
119.0
 31
0.0
  0
LINE
  5
4B9
330
125
100
AcDbEntity
  8
0
100
AcDbLine
 10
409.8334344920537
 20
0.9999999999999964
 30
0.0
 11
409.8334344920537
 21
119.0
 31
0.0
  0
LINE
  5
4BA
330
125
100
AcDbEntity
  8
0
100
AcDbLine
 10
390.4334344920538
 20
0.9999999999999964
 30
0.0
 11
390.4334344920538
 21
119.0
 31
0.0
  0
LINE
  5
4BB
330
125
100
AcDbEntity
  8
0
100
AcDbLine
 10
390.4334344920538
 20
0.9999999999999964
 30
0.0
 11
390.4334344920538
 21
119.0
 31
0.0
  0
LINE
  5
4BC
330
125
100
AcDbEntity
  8
0
100
AcDbLine
 10
390.4334344920538
 20
0.9999999999999964
 30
0.0
 11
390.6334344920538
 21
0.2999999999999971
 31
0.0
  0
LINE
  5
4BD
330
125
100
AcDbEntity
  8
0
100
AcDbLine
 10
390.1334344920538
 20
0.9999999999999964
 30
0.0
 11
390.1334344920538
 21
119.0
 31
0.0
  0
LINE
  5
4BE
330
125
100
AcDbEntity
  8
0
100
AcDbLine
 10
390.1334344920538
 20
0.9999999999999964
 30
0.0
 11
390.1334344920538
 21
119.0
 31
0.0
  0
LINE
  5
4BF
330
125
100
AcDbEntity
  8
0
100
AcDbLine
 10
390.1334344920538
 20
0.9999999999999964
 30
0.0
 11
390.4334344920538
 21
0.2999999999999971
 31
0.0
  0
LINE
  5
4C0
330
125
100
AcDbEntity
  8
0
100
AcDbLine
 10
389.5244344920538
 20
36.0
 30
0.0
 11
390.1334344920538
 21
36.576
 31
0.0
  0
LINE
  5
4C1
330
125
100
AcDbEntity
  8
0
100
AcDbLine
 10
389.5244344920538
 20
36.0
 30
0.0
 11
389.5244344920538
 21
36.864
 31
0.0
  0
LINE
  5
4C2
330
125
100
AcDbEntity
  8
0
100
AcDbLine
 10
380.7424344920537
 20
39.16800000000001
 30
0.0
 11
380.7424344920537
 21
36.864
 31
0.0
  0
LINE
  5
4C3
330
125
100
AcDbEntity
  8
0
100
AcDbLine
 10
380.7424344920537
 20
39.16800000000001
 30
0.0
 11
380.7424344920537
 21
43.00800000000001
 31
0.0
  0
LINE
  5
4C4
330
125
100
AcDbEntity
  8
0
100
AcDbLine
 10
380.7424344920537
 20
36.864
 30
0.0
 11
380.7424344920537
 21
36.0
 31
0.0
  0
LINE
  5
4C5
330
125
100
AcDbEntity
  8
0
100
AcDbLine
 10
380.7424344920537
 20
36.864
 30
0.0
 11
380.7424344920537
 21
39.16800000000001
 31
0.0
  0
LINE
  5
4C6
330
125
100
AcDbEntity
  8
0
100
AcDbLine
 10
380.7424344920537
 20
48.096
 30
0.0
 11
380.7424344920537
 21
43.00800000000001
 31
0.0
  0
LINE
  5
4C7
330
125
100
AcDbEntity
  8
0
100
AcDbLine
 10
380.7424344920537
 20
48.096
 30
0.0
 11
380.7424344920537
 21
53.856
 31
0.0
  0
LINE
  5
4C8
330
125
100
AcDbEntity
  8
0
100
AcDbLine
 10
380.7424344920537
 20
43.00800000000001
 30
0.0
 11
380.7424344920537
 21
39.16800000000001
 31
0.0
  0
LINE
  5
4C9
330
125
100
AcDbEntity
  8
0
100
AcDbLine
 10
380.7424344920537
 20
43.00800000000001
 30
0.0
 11
380.7424344920537
 21
48.096
 31
0.0
  0
LINE
  5
4CA
330
125
100
AcDbEntity
  8
0
100
AcDbLine
 10
380.7424344920537
 20
60.0
 30
0.0
 11
380.7424344920537
 21
66.14399999999999
 31
0.0
  0
LINE
  5
4CB
330
125
100
AcDbEntity
  8
0
100
AcDbLine
 10
380.7424344920537
 20
66.14399999999999
 30
0.0
 11
380.7424344920537
 21
60.0
 31
0.0
  0
LINE
  5
4CC
330
125
100
AcDbEntity
  8
0
100
AcDbLine
 10
380.7424344920537
 20
66.14399999999999
 30
0.0
 11
380.7424344920537
 21
71.904
 31
0.0
  0
LINE
  5
4CD
330
125
100
AcDbEntity
  8
0
100
AcDbLine
 10
380.7424344920537
 20
71.904
 30
0.0
 11
380.7424344920537
 21
66.14399999999999
 31
0.0
  0
LINE
  5
4CE
330
125
100
AcDbEntity
  8
0
100
AcDbLine
 10
380.7424344920537
 20
71.904
 30
0.0
 11
380.7424344920537
 21
76.99200000000001
 31
0.0
  0
LINE
  5
4CF
330
125
100
AcDbEntity
  8
0
100
AcDbLine
 10
380.7424344920537
 20
76.99200000000001
 30
0.0
 11
380.7424344920537
 21
71.904
 31
0.0
  0
LINE
  5
4D0
330
125
100
AcDbEntity
  8
0
100
AcDbLine
 10
380.7424344920537
 20
76.99200000000001
 30
0.0
 11
380.7424344920537
 21
80.83199999999997
 31
0.0
  0
LINE
  5
4D1
330
125
100
AcDbEntity
  8
0
100
AcDbLine
 10
380.7424344920537
 20
80.83199999999997
 30
0.0
 11
380.7424344920537
 21
76.99200000000001
 31
0.0
  0
LINE
  5
4D2
330
125
100
AcDbEntity
  8
0
100
AcDbLine
 10
380.7424344920537
 20
80.83199999999997
 30
0.0
 11
380.7424344920537
 21
83.13599999999999
 31
0.0
  0
LINE
  5
4D3
330
125
100
AcDbEntity
  8
0
100
AcDbLine
 10
380.7424344920537
 20
53.856
 30
0.0
 11
380.7424344920537
 21
48.096
 31
0.0
  0
LINE
  5
4D4
330
125
100
AcDbEntity
  8
0
100
AcDbLine
 10
380.7424344920537
 20
53.856
 30
0.0
 11
380.7424344920537
 21
60.0
 31
0.0
  0
LINE
  5
4D5
330
125
100
AcDbEntity
  8
0
100
AcDbLine
 10
389.5244344920538
 20
53.856
 30
0.0
 11
389.5244344920538
 21
48.096
 31
0.0
  0
LINE
  5
4D6
330
125
100
AcDbEntity
  8
0
100
AcDbLine
 10
389.5244344920538
 20
53.856
 30
0.0
 11
389.5244344920538
 21
60.0
 31
0.0
  0
LINE
  5
4D7
330
125
100
AcDbEntity
  8
0
100
AcDbLine
 10
389.5244344920538
 20
48.096
 30
0.0
 11
389.5244344920538
 21
43.00800000000001
 31
0.0
  0
LINE
  5
4D8
330
125
100
AcDbEntity
  8
0
100
AcDbLine
 10
389.5244344920538
 20
48.096
 30
0.0
 11
389.5244344920538
 21
53.856
 31
0.0
  0
LINE
  5
4D9
330
125
100
AcDbEntity
  8
0
100
AcDbLine
 10
389.5244344920538
 20
43.00800000000001
 30
0.0
 11
389.5244344920538
 21
39.16800000000001
 31
0.0
  0
LINE
  5
4DA
330
125
100
AcDbEntity
  8
0
100
AcDbLine
 10
389.5244344920538
 20
43.00800000000001
 30
0.0
 11
389.5244344920538
 21
48.096
 31
0.0
  0
LINE
  5
4DB
330
125
100
AcDbEntity
  8
0
100
AcDbLine
 10
389.5244344920538
 20
39.16800000000001
 30
0.0
 11
389.5244344920538
 21
36.864
 31
0.0
  0
LINE
  5
4DC
330
125
100
AcDbEntity
  8
0
100
AcDbLine
 10
389.5244344920538
 20
39.16800000000001
 30
0.0
 11
389.5244344920538
 21
43.00800000000001
 31
0.0
  0
LINE
  5
4DD
330
125
100
AcDbEntity
  8
0
100
AcDbLine
 10
389.5244344920538
 20
60.0
 30
0.0
 11
389.5244344920538
 21
66.14399999999999
 31
0.0
  0
LINE
  5
4DE
330
125
100
AcDbEntity
  8
0
100
AcDbLine
 10
389.5244344920538
 20
66.14399999999999
 30
0.0
 11
389.5244344920538
 21
71.904
 31
0.0
  0
LINE
  5
4DF
330
125
100
AcDbEntity
  8
0
100
AcDbLine
 10
389.5244344920538
 20
66.14399999999999
 30
0.0
 11
389.5244344920538
 21
60.0
 31
0.0
  0
LINE
  5
4E0
330
125
100
AcDbEntity
  8
0
100
AcDbLine
 10
389.5244344920538
 20
71.904
 30
0.0
 11
389.5244344920538
 21
76.99200000000001
 31
0.0
  0
LINE
  5
4E1
330
125
100
AcDbEntity
  8
0
100
AcDbLine
 10
389.5244344920538
 20
71.904
 30
0.0
 11
389.5244344920538
 21
66.14399999999999
 31
0.0
  0
LINE
  5
4E2
330
125
100
AcDbEntity
  8
0
100
AcDbLine
 10
389.5244344920538
 20
76.99200000000001
 30
0.0
 11
389.5244344920538
 21
80.83199999999997
 31
0.0
  0
LINE
  5
4E3
330
125
100
AcDbEntity
  8
0
100
AcDbLine
 10
389.5244344920538
 20
76.99200000000001
 30
0.0
 11
389.5244344920538
 21
71.904
 31
0.0
  0
LINE
  5
4E4
330
125
100
AcDbEntity
  8
0
100
AcDbLine
 10
389.5244344920538
 20
80.83199999999997
 30
0.0
 11
389.5244344920538
 21
83.13599999999999
 31
0.0
  0
LINE
  5
4E5
330
125
100
AcDbEntity
  8
0
100
AcDbLine
 10
389.5244344920538
 20
80.83199999999997
 30
0.0
 11
389.5244344920538
 21
76.99200000000001
 31
0.0
  0
LINE
  5
4E6
330
125
100
AcDbEntity
  8
0
100
AcDbLine
 10
390.1334344920538
 20
53.95199999999999
 30
0.0
 11
390.1334344920538
 21
60.0
 31
0.0
  0
LINE
  5
4E7
330
125
100
AcDbEntity
  8
0
100
AcDbLine
 10
390.1334344920538
 20
53.95199999999999
 30
0.0
 11
390.1334344920538
 21
48.38399999999999
 31
0.0
  0
LINE
  5
4E8
330
125
100
AcDbEntity
  8
0
100
AcDbLine
 10
390.1334344920538
 20
48.38399999999999
 30
0.0
 11
390.1334344920538
 21
53.95199999999999
 31
0.0
  0
LINE
  5
4E9
330
125
100
AcDbEntity
  8
0
100
AcDbLine
 10
390.1334344920538
 20
48.38399999999999
 30
0.0
 11
390.1334344920538
 21
43.48799999999999
 31
0.0
  0
LINE
  5
4EA
330
125
100
AcDbEntity
  8
0
100
AcDbLine
 10
390.1334344920538
 20
43.48799999999999
 30
0.0
 11
390.1334344920538
 21
48.38399999999999
 31
0.0
  0
LINE
  5
4EB
330
125
100
AcDbEntity
  8
0
100
AcDbLine
 10
390.1334344920538
 20
43.48799999999999
 30
0.0
 11
390.1334344920538
 21
39.744
 31
0.0
  0
LINE
  5
4EC
330
125
100
AcDbEntity
  8
0
100
AcDbLine
 10
390.1334344920538
 20
60.0
 30
0.0
 11
390.1334344920538
 21
66.048
 31
0.0
  0
LINE
  5
4ED
330
125
100
AcDbEntity
  8
0
100
AcDbLine
 10
390.1334344920538
 20
66.048
 30
0.0
 11
390.1334344920538
 21
71.61599999999999
 31
0.0
  0
LINE
  5
4EE
330
125
100
AcDbEntity
  8
0
100
AcDbLine
 10
390.1334344920538
 20
66.048
 30
0.0
 11
390.1334344920538
 21
60.0
 31
0.0
  0
LINE
  5
4EF
330
125
100
AcDbEntity
  8
0
100
AcDbLine
 10
390.1334344920538
 20
71.61599999999999
 30
0.0
 11
390.1334344920538
 21
76.512
 31
0.0
  0
LINE
  5
4F0
330
125
100
AcDbEntity
  8
0
100
AcDbLine
 10
390.1334344920538
 20
71.61599999999999
 30
0.0
 11
390.1334344920538
 21
66.048
 31
0.0
  0
LINE
  5
4F1
330
125
100
AcDbEntity
  8
0
100
AcDbLine
 10
390.1334344920538
 20
76.512
 30
0.0
 11
390.1334344920538
 21
80.256
 31
0.0
  0
LINE
  5
4F2
330
125
100
AcDbEntity
  8
0
100
AcDbLine
 10
390.1334344920538
 20
76.512
 30
0.0
 11
390.1334344920538
 21
71.61599999999999
 31
0.0
  0
LINE
  5
4F3
330
125
100
AcDbEntity
  8
0
100
AcDbLine
 10
390.1334344920538
 20
80.256
 30
0.0
 11
390.1334344920538
 21
82.56
 31
0.0
  0
LINE
  5
4F4
330
125
100
AcDbEntity
  8
0
100
AcDbLine
 10
390.1334344920538
 20
80.256
 30
0.0
 11
390.1334344920538
 21
76.512
 31
0.0
  0
LINE
  5
4F5
330
125
100
AcDbEntity
  8
0
100
AcDbLine
 10
390.1334344920538
 20
82.56
 30
0.0
 11
390.1334344920538
 21
83.42399999999997
 31
0.0
  0
LINE
  5
4F6
330
125
100
AcDbEntity
  8
0
100
AcDbLine
 10
390.1334344920538
 20
82.56
 30
0.0
 11
390.1334344920538
 21
80.256
 31
0.0
  0
LINE
  5
4F7
330
125
100
AcDbEntity
  8
0
100
AcDbLine
 10
390.1334344920538
 20
39.744
 30
0.0
 11
390.1334344920538
 21
43.48799999999999
 31
0.0
  0
LINE
  5
4F8
330
125
100
AcDbEntity
  8
0
100
AcDbLine
 10
390.1334344920538
 20
39.744
 30
0.0
 11
390.1334344920538
 21
37.43999999999999
 31
0.0
  0
LINE
  5
4F9
330
125
100
AcDbEntity
  8
0
100
AcDbLine
 10
390.1334344920538
 20
37.43999999999999
 30
0.0
 11
390.1334344920538
 21
39.744
 31
0.0
  0
LINE
  5
4FA
330
125
100
AcDbEntity
  8
0
100
AcDbLine
 10
390.1334344920538
 20
37.43999999999999
 30
0.0
 11
390.1334344920538
 21
36.576
 31
0.0
  0
LINE
  5
4FB
330
125
100
AcDbEntity
  8
0
100
AcDbLine
 10
389.5244344920538
 20
36.864
 30
0.0
 11
389.5244344920538
 21
36.0
 31
0.0
  0
LINE
  5
4FC
330
125
100
AcDbEntity
  8
0
100
AcDbLine
 10
389.5244344920538
 20
36.864
 30
0.0
 11
389.5244344920538
 21
39.16800000000001
 31
0.0
  0
LINE
  5
4FD
330
125
100
AcDbEntity
  8
0
100
AcDbLine
 10
390.1334344920538
 20
36.576
 30
0.0
 11
390.1334344920538
 21
37.43999999999999
 31
0.0
  0
LINE
  5
4FE
330
125
100
AcDbEntity
  8
0
100
AcDbLine
 10
380.1334344920538
 20
80.256
 30
0.0
 11
380.1334344920538
 21
82.56
 31
0.0
  0
LINE
  5
4FF
330
125
100
AcDbEntity
  8
0
100
AcDbLine
 10
380.1334344920538
 20
80.256
 30
0.0
 11
380.1334344920538
 21
76.512
 31
0.0
  0
LINE
  5
500
330
125
100
AcDbEntity
  8
0
100
AcDbLine
 10
389.5244344920538
 20
84.0
 30
0.0
 11
390.1334344920538
 21
83.42399999999997
 31
0.0
  0
LINE
  5
501
330
125
100
AcDbEntity
  8
0
100
AcDbLine
 10
389.5244344920538
 20
84.0
 30
0.0
 11
389.5244344920538
 21
83.13599999999999
 31
0.0
  0
LINE
  5
502
330
125
100
AcDbEntity
  8
0
100
AcDbLine
 10
380.7424344920537
 20
83.13599999999999
 30
0.0
 11
380.7424344920537
 21
80.83199999999997
 31
0.0
  0
LINE
  5
503
330
125
100
AcDbEntity
  8
0
100
AcDbLine
 10
380.7424344920537
 20
83.13599999999999
 30
0.0
 11
380.7424344920537
 21
84.0
 31
0.0
  0
LINE
  5
504
330
125
100
AcDbEntity
  8
0
100
AcDbLine
 10
390.1334344920538
 20
83.42399999999997
 30
0.0
 11
390.1334344920538
 21
82.56
 31
0.0
  0
LINE
  5
505
330
125
100
AcDbEntity
  8
0
100
AcDbLine
 10
389.5244344920538
 20
83.13599999999999
 30
0.0
 11
389.5244344920538
 21
84.0
 31
0.0
  0
LINE
  5
506
330
125
100
AcDbEntity
  8
0
100
AcDbLine
 10
389.5244344920538
 20
83.13599999999999
 30
0.0
 11
389.5244344920538
 21
80.83199999999997
 31
0.0
  0
LINE
  5
507
330
125
100
AcDbEntity
  8
0
100
AcDbLine
 10
390.4334344920538
 20
119.0
 30
0.0
 11
390.6334344920538
 21
119.7
 31
0.0
  0
LINE
  5
508
330
125
100
AcDbEntity
  8
0
100
AcDbLine
 10
390.1334344920538
 20
119.0
 30
0.0
 11
390.4334344920538
 21
119.7
 31
0.0
  0
LINE
  5
509
330
125
100
AcDbEntity
  8
0
100
AcDbLine
 10
409.8334344920537
 20
119.7
 30
0.0
 11
410.1334344920537
 21
119.0
 31
0.0
  0
LINE
  5
50A
330
125
100
AcDbEntity
  8
0
100
AcDbLine
 10
409.6334344920538
 20
119.7
 30
0.0
 11
409.8334344920537
 21
119.7
 31
0.0
  0
LINE
  5
50B
330
125
100
AcDbEntity
  8
0
100
AcDbLine
 10
409.6334344920538
 20
119.7
 30
0.0
 11
409.8334344920537
 21
119.0
 31
0.0
  0
LINE
  5
50C
330
125
100
AcDbEntity
  8
0
100
AcDbLine
 10
409.1334344920538
 20
119.7
 30
0.0
 11
409.6334344920538
 21
119.7
 31
0.0
  0
LINE
  5
50D
330
125
100
AcDbEntity
  8
0
100
AcDbLine
 10
391.1334344920538
 20
119.7
 30
0.0
 11
409.1334344920538
 21
119.7
 31
0.0
  0
LINE
  5
50E
330
125
100
AcDbEntity
  8
0
100
AcDbLine
 10
409.1334344920538
 20
120.0
 30
0.0
 11
409.8334344920537
 21
119.7
 31
0.0
  0
LINE
  5
50F
330
125
100
AcDbEntity
  8
0
100
AcDbLine
 10
391.1334344920538
 20
120.0
 30
0.0
 11
409.1334344920538
 21
120.0
 31
0.0
  0
LINE
  5
510
330
125
100
AcDbEntity
  8
0
100
AcDbLine
 10
390.6334344920538
 20
119.7
 30
0.0
 11
391.1334344920538
 21
119.7
 31
0.0
  0
LINE
  5
511
330
125
100
AcDbEntity
  8
0
100
AcDbLine
 10
390.4334344920538
 20
119.7
 30
0.0
 11
391.1334344920538
 21
120.0
 31
0.0
  0
LINE
  5
512
330
125
100
AcDbEntity
  8
0
100
AcDbLine
 10
390.4334344920538
 20
119.7
 30
0.0
 11
390.6334344920538
 21
119.7
 31
0.0
  0
LINE
  5
513
330
125
100
AcDbEntity
  8
0
100
AcDbLine
 10
380.7424344920537
 20
84.0
 30
0.0
 11
389.5244344920538
 21
84.0
 31
0.0
  0
LINE
  5
514
330
125
100
AcDbEntity
  8
0
100
AcDbLine
 10
380.7424344920537
 20
84.0
 30
0.0
 11
380.7424344920537
 21
83.13599999999999
 31
0.0
  0
LINE
  5
515
330
125
100
AcDbEntity
  8
0
100
AcDbLine
 10
380.1334344920538
 20
83.42399999999997
 30
0.0
 11
380.1334344920538
 21
82.56
 31
0.0
  0
LINE
  5
516
330
125
100
AcDbEntity
  8
0
100
AcDbLine
 10
380.1334344920538
 20
83.42399999999997
 30
0.0
 11
380.7424344920537
 21
84.0
 31
0.0
  0
LINE
  5
517
330
125
100
AcDbEntity
  8
0
100
AcDbLine
 10
380.1334344920538
 20
82.56
 30
0.0
 11
380.1334344920538
 21
83.42399999999997
 31
0.0
  0
LINE
  5
518
330
125
100
AcDbEntity
  8
0
100
AcDbLine
 10
380.1334344920538
 20
82.56
 30
0.0
 11
380.1334344920538
 21
80.256
 31
0.0
  0
LINE
  5
519
330
125
100
AcDbEntity
  8
0
100
AcDbLine
 10
380.1334344920538
 20
36.576
 30
0.0
 11
380.1334344920538
 21
37.43999999999999
 31
0.0
  0
LINE
  5
51A
330
125
100
AcDbEntity
  8
0
100
AcDbLine
 10
380.1334344920538
 20
36.576
 30
0.0
 11
380.7424344920537
 21
36.0
 31
0.0
  0
ENDSEC
  0
SECTION
  2
OBJECTS
  0
DICTIONARY
  5
C1
330
0
100
AcDbDictionary
281
     1
  3
ACAD_CIP_PREVIOUS_PRODUCT_INFO
350
130
  3
ACAD_COLOR
350
117
  3
ACAD_DETAILVIEWSTYLE
350
11F
  3
ACAD_GROUP
350
C2
  3
ACAD_LAYOUT
350
116
  3
ACAD_MATERIAL
350
C5
  3
ACAD_MLEADERSTYLE
350
11A
  3
ACAD_MLINESTYLE
350
113
  3
ACAD_PLOTSETTINGS
350
115
  3
ACAD_PLOTSTYLENAME
350
C3
  3
ACAD_SCALELIST
350
F7
  3
ACAD_SECTIONVIEWSTYLE
350
11C
  3
ACAD_TABLESTYLE
350
118
  3
ACAD_VISUALSTYLE
350
DE
  3
ACDB_RECOMPOSE_DATA
350
588
  3
AcDbVariableDictionary
350
57C
  3
AcmDictionary
350
15C
  3
AMG
350
131
  3
AMGSNAPSETTINGS
350
191
  3
DWGPROPS
350
589
  0
DICTIONARY
  5
578
330
109
100
AcDbDictionary
280
     1
281
     1
  3
ADSK_XREC_LAYER_RECONCILED
360
579
  0
DICTIONARY
  5
57A
330
51B
100
AcDbDictionary
280
     1
281
     1
  3
ADSK_XREC_LAYER_RECONCILED
360
57B
  0
DICTIONARY
  5
51E
330
125
100
AcDbDictionary
280
     1
281
     1
  3
ACAD_SORTENTS
360
51F
  0
XRECORD
  5
130
102
{ACAD_REACTORS
330
C1
102
}
330
C1
100
AcDbXrecord
280
     1
300
AMECH_PP
300
2013
300
PDSS_F_S
  0
DICTIONARY
  5
117
102
{ACAD_REACTORS
330
C1
102
}
330
C1
100
AcDbDictionary
281
     1
  0
DICTIONARY
  5
11F
102
{ACAD_REACTORS
330
C1
102
}
330
C1
100
AcDbDictionary
281
     1
  3
Imperial24
350
120
  0
DICTIONARY
  5
C2
102
{ACAD_REACTORS
330
C1
102
}
330
C1
100
AcDbDictionary
281
     1
  0
DICTIONARY
  5
116
102
{ACAD_REACTORS
330
C1
102
}
330
C1
100
AcDbDictionary
281
     1
  3
Model
350
128
  3
レイアウト1
350
124
  0
DICTIONARY
  5
C5
102
{ACAD_REACTORS
330
C1
102
}
330
C1
100
AcDbDictionary
281
     1
  3
ByBlock
350
CE
  3
ByLayer
350
C6
  3
Global
350
D6
  0
DICTIONARY
  5
11A
102
{ACAD_REACTORS
330
C1
102
}
330
C1
100
AcDbDictionary
281
     1
  3
Standard
350
11B
  0
DICTIONARY
  5
113
102
{ACAD_REACTORS
330
C1
102
}
330
C1
100
AcDbDictionary
281
     1
  3
Standard
350
114
  0
DICTIONARY
  5
115
102
{ACAD_REACTORS
330
C1
102
}
330
C1
100
AcDbDictionary
281
     1
  0
ACDBDICTIONARYWDFLT
  5
C3
102
{ACAD_REACTORS
330
C1
102
}
330
C1
100
AcDbDictionary
281
     1
  3
Normal
350
C4
100
AcDbDictionaryWithDefault
340
C4
  0
DICTIONARY
  5
F7
102
{ACAD_REACTORS
330
C1
102
}
330
C1
100
AcDbDictionary
281
     1
  3
A0
350
F8
  3
A1
350
F9
  3
A2
350
FA
  3
A3
350
FB
  3
A4
350
FC
  3
A5
350
FD
  3
A6
350
FE
  3
A7
350
FF
  3
A8
350
100
  3
A9
350
101
  3
B0
350
102
  3
B1
350
103
  3
B2
350
104
  3
B3
350
105
  3
B4
350
106
  3
B5
350
107
  3
B6
350
108
  0
DICTIONARY
  5
11C
102
{ACAD_REACTORS
330
C1
102
}
330
C1
100
AcDbDictionary
281
     1
  3
Imperial24
350
11E
  0
DICTIONARY
  5
118
102
{ACAD_REACTORS
330
C1
102
}
330
C1
100
AcDbDictionary
281
     1
  3
Standard
350
119
  0
DICTIONARY
  5
DE
102
{ACAD_REACTORS
330
C1
102
}
330
C1
100
AcDbDictionary
281
     1
  3
2dWireframe
350
E4
  3
Basic
350
E3
  3
Brighten
350
EA
  3
ColorChange
350
EE
  3
Conceptual
350
E7
  3
Dim
350
E9
  3
EdgeColorOff
350
F6
  3
Facepattern
350
ED
  3
Flat
350
DF
  3
FlatWithEdges
350
E0
  3
Gouraud
350
E1
  3
GouraudWithEdges
350
E2
  3
Hidden
350
E6
  3
JitterOff
350
F4
  3
Linepattern
350
EC
  3
OverhangOff
350
F5
  3
Realistic
350
E8
  3
Shaded
350
F3
  3
Shaded with edges
350
F2
  3
Shades of Gray
350
EF
  3
Sketchy
350
F0
  3
Thicken
350
EB
  3
Wireframe
350
E5
  3
X-Ray
350
F1
  0
XRECORD
  5
588
102
{ACAD_REACTORS
330
C1
102
}
330
C1
100
AcDbXrecord
280
     1
 90
        1
330
119
  0
DICTIONARY
  5
57C
102
{ACAD_REACTORS
330
C1
102
}
330
C1
100
AcDbDictionary
281
     1
  3
CANNOSCALE
350
581
  3
CMLEADERSTYLE
350
57E
  3
CTABLESTYLE
350
57D
  3
CVIEWDETAILSTYLE
350
57F
  3
CVIEWSECTIONSTYLE
350
580
  3
DIMASSOC
350
584
  3
INDEXCTL
350
583
  3
SORTENTS
350
582
  3
XCLIPFRAME
350
585
  0
DICTIONARY
  5
15C
102
{ACAD_REACTORS
330
C1
102
}
330
C1
100
AcDbDictionary
281
     1
  3
AcmStdDictionary
350
163
  0
DICTIONARY
  5
131
102
{ACAD_REACTORS
330
C1
102
}
330
C1
100
AcDbDictionary
281
     1
  0
DICTIONARY
  5
191
102
{ACAD_REACTORS
330
C1
102
}
330
C1
100
AcDbDictionary
281
     1
  0
XRECORD
  5
589
102
{ACAD_REACTORS
330
C1
102
}
330
C1
100
AcDbXrecord
280
     1
  1
DWGPROPS COOKIE
  2

  3

  4

  6

  7

  8
tomitais
  9

300
=
301
=
302
=
303
=
304
=
305
=
306
=
307
=
308
=
309
=
 40
0.0034989467592593
 41
2454674.581715128
 42
2457354.739951215
  1

 90
        0
  0
XRECORD
  5
579
102
{ACAD_REACTORS
330
578
102
}
330
578
100
AcDbXrecord
280
     1
290
     1
  0
XRECORD
  5
57B
102
{ACAD_REACTORS
330
57A
102
}
330
57A
100
AcDbXrecord
280
     1
290
     1
  0
SORTENTSTABLE
  5
51F
102
{ACAD_REACTORS
330
51E
102
}
330
51E
100
AcDbSortentsTable
330
125
331
4F0
  5
4F8
331
330
  5
338
331
501
  5
509
331
341
  5
438
331
512
  5
51A
331
432
  5
43A
331
79
  5
87
331
443
  5
44B
331
454
  5
45C
331
27C
  5
284
331
9B
  5
A3
331
45E
  5
466
331
29E
  5
2A6
331
28D
  5
295
331
46F
  5
477
331
2AF
  5
2B7
331
26
  5
2E
331
480
  5
488
331
2C0
  5
2C8
331
491
  5
499
331
2D1
  5
2D9
331
4C4
  5
4CC
331
4B3
  5
4BB
331
4A2
  5
4AA
331
2E2
  5
2EA
331
4DF
  5
4E7
331
31F
  5
327
331
30E
  5
316
331
2D
  5
36
331
57
  5
66
331
2FD
  5
305
331
4E0
  5
4E8
331
320
  5
328
331
4F1
  5
4F9
331
331
  5
339
331
58
  5
67
331
502
  5
50A
331
69
  5
71
331
513
  5
51D
331
433
  5
43B
331
7A
  5
88
331
444
  5
44C
331
455
  5
45D
331
27D
  5
285
331
9C
  5
A8
331
45F
  5
467
331
29F
  5
2A7
331
28E
  5
296
331
470
  5
478
331
2B0
  5
2B8
331
27
  5
2F
331
481
  5
489
331
2C1
  5
2C9
331
492
  5
49A
331
4C5
  5
4CD
331
4B4
  5
4BC
331
4A3
  5
4AB
331
2E3
  5
2EB
331
30F
  5
317
331
2E
  5
37
331
2FE
  5
306
331
2D2
  5
2DA
331
4D0
  5
4D8
331
310
  5
318
331
4E1
  5
4E9
331
321
  5
329
331
4F2
  5
4FA
331
332
  5
33A
331
59
  5
69
331
503
  5
50B
331
6A
  5
72
331
514
  5
520
331
434
  5
43C
331
7B
  5
97
331
445
  5
44D
331
456
  5
45E
331
27E
  5
286
331
9D
  5
271
331
460
  5
468
331
2A0
  5
2A8
331
28F
  5
297
331
471
  5
479
331
2B1
  5
2B9
331
A0
  5
274
331
482
  5
48A
331
2C2
  5
2CA
331
493
  5
49B
331
4C6
  5
4CE
331
4B5
  5
4BD
331
4A4
  5
4AC
331
2E4
  5
2EC
331
2F
  5
38
331
2FF
  5
307
331
2D3
  5
2DB
331
300
  5
308
331
4D1
  5
4D9
331
311
  5
319
331
30
  5
39
331
4E2
  5
4EA
331
322
  5
32A
331
4F3
  5
4FB
331
333
  5
33B
331
5A
  5
6A
331
504
  5
50C
331
6B
  5
73
331
515
  5
521
331
435
  5
43D
331
7C
  5
98
331
446
  5
44E
331
457
  5
45F
331
27F
  5
287
331
9E
  5
272
331
461
  5
469
331
2A1
  5
2A9
331
290
  5
298
331
472
  5
47A
331
2B2
  5
2BA
331
483
  5
48B
331
2C3
  5
2CB
331
494
  5
49C
331
4C7
  5
4CF
331
4B6
  5
4BE
331
4A5
  5
4AD
331
2E5
  5
2ED
331
2D4
  5
2DC
331
A1
  5
275
331
4C8
  5
4D0
331
2F0
  5
2F8
331
4D2
  5
4DA
331
312
  5
31A
331
301
  5
309
331
4E3
  5
4EB
331
323
  5
32B
331
4F4
  5
4FC
331
334
  5
33C
331
5B
  5
6B
331
505
  5
50D
331
6C
  5
74
331
516
  5
522
331
436
  5
43E
331
7D
  5
99
331
447
  5
44F
331
462
  5
46A
331
2A2
  5
2AA
331
291
  5
299
331
280
  5
288
331
9F
  5
273
331
473
  5
47B
331
2B3
  5
2BB
331
A2
  5
276
331
484
  5
48C
331
495
  5
49D
331
2D5
  5
2DD
331
2C4
  5
2CC
331
4B7
  5
4BF
331
4A6
  5
4AE
331
2E6
  5
2EE
331
4B8
  5
4C0
331
4C9
  5
4D1
331
2F1
  5
2F9
331
302
  5
30A
331
4D3
  5
4DB
331
313
  5
31B
331
32
  5
3A
331
4E4
  5
4EC
331
324
  5
32C
331
4B
  5
53
331
4F5
  5
4FD
331
335
  5
33D
331
5C
  5
6C
331
506
  5
50E
331
6D
  5
75
331
517
  5
523
331
437
  5
43F
331
448
  5
450
331
463
  5
46B
331
2A3
  5
2AB
331
292
  5
29A
331
474
  5
47C
331
2B4
  5
2BC
331
A3
  5
277
331
281
  5
289
331
485
  5
48D
331
496
  5
49E
331
2D6
  5
2DE
331
4A7
  5
4AF
331
2E7
  5
2EF
331
2C5
  5
2CD
331
4B9
  5
4C1
331
4A8
  5
4B0
331
2E8
  5
2F0
331
4CA
  5
4D2
331
2F2
  5
2FA
331
271
  5
279
331
303
  5
30B
331
4D4
  5
4DC
331
314
  5
31C
331
33
  5
3B
331
4E5
  5
4ED
331
325
  5
32D
331
4C
  5
54
331
4F6
  5
4FE
331
336
  5
33E
331
5D
  5
6D
331
507
  5
50F
331
6E
  5
76
331
518
  5
524
331
438
  5
440
331
449
  5
451
331
464
  5
46C
331
2A4
  5
2AC
331
293
  5
29B
331
475
  5
47D
331
2B5
  5
2BD
331
282
  5
28A
331
486
  5
48E
331
497
  5
49F
331
2D7
  5
2DF
331
2C6
  5
2CE
331
498
  5
4A0
331
2D8
  5
2E0
331
4BA
  5
4C2
331
4A9
  5
4B1
331
2E9
  5
2F1
331
4CB
  5
4D3
331
2F3
  5
2FB
331
272
  5
27A
331
304
  5
30C
331
4D5
  5
4DD
331
315
  5
31D
331
34
  5
3C
331
4E6
  5
4EE
331
326
  5
32E
331
4D
  5
55
331
4F7
  5
4FF
331
337
  5
33F
331
508
  5
510
331
6F
  5
77
331
519
  5
525
331
439
  5
441
331
44A
  5
452
331
465
  5
46D
331
2A5
  5
2AD
331
294
  5
29C
331
476
  5
47E
331
2B6
  5
2BE
331
283
  5
28B
331
487
  5
48F
331
2C7
  5
2CF
331
488
  5
490
331
2C8
  5
2D0
331
499
  5
4A1
331
2D9
  5
2E1
331
4BB
  5
4C3
331
4AA
  5
4B2
331
2EA
  5
2F2
331
4CC
  5
4D4
331
2F4
  5
2FC
331
273
  5
27B
331
305
  5
30D
331
4D6
  5
4DE
331
316
  5
31E
331
35
  5
3D
331
4E7
  5
4EF
331
327
  5
32F
331
4E
  5
56
331
4F8
  5
500
331
338
  5
340
331
509
  5
511
331
70
  5
78
331
51A
  5
526
331
44B
  5
453
331
43A
  5
442
331
466
  5
46E
331
2A6
  5
2AE
331
295
  5
29D
331
477
  5
47F
331
2B7
  5
2BF
331
284
  5
28C
331
478
  5
480
331
2B8
  5
2C0
331
489
  5
491
331
2C9
  5
2D1
331
49A
  5
4A2
331
2DA
  5
2E2
331
4BC
  5
4C4
331
4AB
  5
4B3
331
2EB
  5
2F3
331
4CD
  5
4D5
331
2F5
  5
2FD
331
274
  5
27C
331
306
  5
30E
331
4D7
  5
4DF
331
317
  5
31F
331
36
  5
4B
331
4E8
  5
4F0
331
328
  5
330
331
4F
  5
57
331
4F9
  5
501
331
339
  5
341
331
50A
  5
512
331
44C
  5
454
331
43B
  5
443
331
467
  5
46F
331
2A7
  5
2AF
331
296
  5
29E
331
285
  5
28D
331
71
  5
79
331
468
  5
470
331
2A8
  5
2B0
331
479
  5
481
331
2B9
  5
2C1
331
A8
  5
278
331
48A
  5
492
331
2CA
  5
2D2
331
49B
  5
4A3
331
2DB
  5
2E3
331
4BD
  5
4C5
331
4AC
  5
4B4
331
2EC
  5
2F4
331
4CE
  5
4D6
331
2F6
  5
2FE
331
275
  5
27D
331
307
  5
30F
331
4D8
  5
4E0
331
318
  5
320
331
37
  5
4C
331
4E9
  5
4F1
331
329
  5
331
331
50
  5
58
331
4FA
  5
502
331
50B
  5
513
331
72
  5
7A
331
44D
  5
455
331
297
  5
29F
331
286
  5
28E
331
43C
  5
444
331
33A
  5
431
331
458
  5
460
331
298
  5
2A0
331
469
  5
471
331
2A9
  5
2B1
331
47A
  5
482
331
2BA
  5
2C2
331
48B
  5
493
331
2CB
  5
2D3
331
49C
  5
4A4
331
2DC
  5
2E4
331
4BE
  5
4C6
331
4AD
  5
4B5
331
2ED
  5
2F5
331
4CF
  5
4D7
331
2F7
  5
2FF
331
276
  5
27E
331
308
  5
310
331
4D9
  5
4E1
331
319
  5
321
331
38
  5
4D
331
4EA
  5
4F2
331
32A
  5
332
331
4FB
  5
503
331
33B
  5
432
331
50C
  5
514
331
43D
  5
445
331
84
  5
9A
331
44E
  5
456
331
73
  5
7B
331
51
  5
59
331
287
  5
28F
331
459
  5
461
331
299
  5
2A1
331
288
  5
290
331
46A
  5
472
331
2AA
  5
2B2
331
47B
  5
483
331
2BB
  5
2C3
331
48C
  5
494
331
2CC
  5
2D4
331
49D
  5
4A5
331
2DD
  5
2E5
331
4BF
  5
4C7
331
4AE
  5
4B6
331
2EE
  5
2F6
331
2F8
  5
300
331
277
  5
27F
331
309
  5
311
331
28
  5
30
331
4DA
  5
4E2
331
31A
  5
322
331
4EB
  5
4F3
331
32B
  5
333
331
52
  5
5A
331
4FC
  5
504
331
50D
  5
515
331
74
  5
7C
331
44F
  5
457
331
43E
  5
446
331
85
  5
9B
331
33C
  5
433
331
39
  5
4E
331
450
  5
458
331
278
  5
280
331
45A
  5
462
331
29A
  5
2A2
331
289
  5
291
331
46B
  5
473
331
2AB
  5
2B3
331
22
  5
2A
331
47C
  5
484
331
2BC
  5
2C4
331
48D
  5
495
331
2CD
  5
2D5
331
49E
  5
4A6
331
2DE
  5
2E6
331
4C0
  5
4C8
331
4AF
  5
4B7
331
2EF
  5
2F7
331
2F9
  5
301
331
30A
  5
312
331
29
  5
32
331
4DB
  5
4E3
331
31B
  5
323
331
3A
  5
4F
331
4EC
  5
4F4
331
32C
  5
334
331
4FD
  5
505
331
33D
  5
434
331
50E
  5
516
331
43F
  5
447
331
86
  5
9C
331
97
  5
9F
331
75
  5
7D
331
53
  5
5B
331
440
  5
448
331
451
  5
459
331
279
  5
281
331
98
  5
A0
331
45B
  5
463
331
29B
  5
2A3
331
28A
  5
292
331
46C
  5
474
331
2AC
  5
2B4
331
23
  5
2B
331
47D
  5
485
331
2BD
  5
2C5
331
48E
  5
496
331
2CE
  5
2D6
331
4C1
  5
4C9
331
4B0
  5
4B8
331
49F
  5
4A7
331
2DF
  5
2E7
331
2FA
  5
302
331
30B
  5
313
331
2A
  5
33
331
4DC
  5
4E4
331
31C
  5
324
331
4ED
  5
4F5
331
32D
  5
335
331
54
  5
5C
331
3B
  5
50
331
4FE
  5
506
331
33E
  5
435
331
50F
  5
517
331
76
  5
84
331
87
  5
9D
331
65
  5
6E
331
510
  5
518
331
441
  5
449
331
88
  5
9E
331
452
  5
45A
331
27A
  5
282
331
99
  5
A1
331
45C
  5
464
331
29C
  5
2A4
331
28B
  5
293
331
46D
  5
475
331
2AD
  5
2B5
331
24
  5
2C
331
47E
  5
486
331
2BE
  5
2C6
331
48F
  5
497
331
2CF
  5
2D7
331
4C2
  5
4CA
331
4B1
  5
4B9
331
4A0
  5
4A8
331
2E0
  5
2E8
331
2FB
  5
303
331
30C
  5
314
331
4DD
  5
4E5
331
31D
  5
325
331
3C
  5
51
331
4EE
  5
4F6
331
32E
  5
336
331
55
  5
5D
331
2B
  5
34
331
4FF
  5
507
331
33F
  5
436
331
77
  5
85
331
66
  5
6F
331
500
  5
508
331
340
  5
437
331
511
  5
519
331
431
  5
439
331
78
  5
86
331
442
  5
44A
331
453
  5
45B
331
27B
  5
283
331
9A
  5
A2
331
45D
  5
465
331
29D
  5
2A5
331
28C
  5
294
331
46E
  5
476
331
2AE
  5
2B6
331
25
  5
2D
331
47F
  5
487
331
2BF
  5
2C7
331
490
  5
498
331
2D0
  5
2D8
331
4C3
  5
4CB
331
4B2
  5
4BA
331
4A1
  5
4A9
331
2E1
  5
2E9
331
30D
  5
315
331
2C
  5
35
331
4DE
  5
4E6
331
31E
  5
326
331
4EF
  5
4F7
331
32F
  5
337
331
56
  5
65
331
3D
  5
52
331
2FC
  5
304
331
67
  5
70
  0
ACDBDETAILVIEWSTYLE
  5
120
102
{ACAD_REACTORS
330
11F
102
}
330
11F
100
AcDbModelDocViewStyle
 70
     0
  3
Imperial24
290
     0
100
AcDbDetailViewStyle
 70
     0
 71
     0
 90
        3
 71
     1
340
10A
 40
0.24
340
0
 40
0.24
300

 40
0.36
280
     3
 71
     2
340
111
 90
       25
 71
     3
340
10A
 40
0.24
 90
        1
 40
0.75
 90
        1
300
%<\AcVar ViewType \f "%tc1">% %<\AcVar ViewDetailId>%\PSCALE %<\AcVar ViewScale \f "%sn">%
 71
     4
340
111
 90
       25
340
111
 90
       25
280
     0
  0
LAYOUT
  5
128
102
{ACAD_XDICTIONARY
360
5C1
102
}
102
{ACAD_REACTORS
330
116
102
}
330
116
100
AcDbPlotSettings
  1

  2
Adobe PDF
  4

  6

 40
0.0
 41
0.0
 42
0.0
 43
0.0
 44
0.0
 45
0.0
 46
0.0
 47
0.0
 48
0.0
 49
0.0
140
0.0
141
0.0
142
1.0
143
1.0
 70
  1712
 72
     0
 73
     0
 74
     0
  7

 75
     0
147
1.0
148
0.0
149
0.0
100
AcDbLayout
  1
Model
 70
     1
 71
     0
 10
0.0
 20
0.0
 11
12.0
 21
9.0
 12
0.0
 22
0.0
 32
0.0
 14
0.0
 24
0.0
 34
0.0
 15
0.0
 25
0.0
 35
0.0
146
0.0
 13
0.0
 23
0.0
 33
0.0
 16
1.0
 26
0.0
 36
0.0
 17
0.0
 27
1.0
 37
0.0
 76
     0
330
125
331
129
  0
LAYOUT
  5
124
102
{ACAD_XDICTIONARY
360
5BF
102
}
102
{ACAD_REACTORS
330
116
102
}
330
116
100
AcDbPlotSettings
  1

  2
Adobe PDF
  4

  6

 40
0.0
 41
0.0
 42
0.0
 43
0.0
 44
0.0
 45
0.0
 46
0.0
 47
0.0
 48
0.0
 49
0.0
140
0.0
141
0.0
142
1.0
143
1.0
 70
   688
 72
     0
 73
     0
 74
     5
  7

 75
    16
147
1.0
148
0.0
149
0.0
100
AcDbLayout
  1
レイアウト1
 70
     1
 71
     1
 10
0.0
 20
0.0
 11
12.0
 21
9.0
 12
0.0
 22
0.0
 32
0.0
 14
1.000000000000000E+20
 24
1.000000000000000E+20
 34
1.000000000000000E+20
 15
-1.000000000000000E+20
 25
-1.000000000000000E+20
 35
-1.000000000000000E+20
146
0.0
 13
0.0
 23
0.0
 33
0.0
 16
1.0
 26
0.0
 36
0.0
 17
0.0
 27
1.0
 37
0.0
 76
     0
330
121
  0
MATERIAL
  5
CE
102
{ACAD_XDICTIONARY
360
CF
102
}
102
{ACAD_REACTORS
330
C5
102
}
330
C5
100
AcDbMaterial
  1
ByBlock
 72
     0
 43
0.0208333333333333
 43
0.0
 43
0.0
 43
0.0
 43
0.0
 43
0.0208333333333333
 43
0.0
 43
0.0
 43
0.0
 43
0.0
 43
1.0
 43
0.0
 43
0.0
 43
0.0
 43
0.0
 43
1.0
 77
     0
 47
0.0208333333333333
 47
0.0
 47
0.0
 47
0.0
 47
0.0
 47
0.0208333333333333
 47
0.0
 47
0.0
 47
0.0
 47
0.0
 47
1.0
 47
0.0
 47
0.0
 47
0.0
 47
0.0
 47
1.0
171
     0
 49
0.0208333333333333
 49
0.0
 49
0.0
 49
0.0
 49
0.0
 49
0.0208333333333333
 49
0.0
 49
0.0
 49
0.0
 49
0.0
 49
1.0
 49
0.0
 49
0.0
 49
0.0
 49
0.0
 49
1.0
175
     0
142
0.0208333333333333
142
0.0
142
0.0
142
0.0
142
0.0
142
0.0208333333333333
142
0.0
142
0.0
142
0.0
142
0.0
142
1.0
142
0.0
142
0.0
142
0.0
142
0.0
142
1.0
179
     0
144
0.0208333333333333
144
0.0
144
0.0
144
0.0
144
0.0
144
0.0208333333333333
144
0.0
144
0.0
144
0.0
144
0.0
144
1.0
144
0.0
144
0.0
144
0.0
144
0.0
144
1.0
147
0.0208333333333333
147
0.0
147
0.0
147
0.0
147
0.0
147
0.0208333333333333
147
0.0
147
0.0
147
0.0
147
0.0
147
1.0
147
0.0
147
0.0
147
0.0
147
0.0
147
1.0
  0
MATERIAL
  5
C6
102
{ACAD_XDICTIONARY
360
C7
102
}
102
{ACAD_REACTORS
330
C5
102
}
330
C5
100
AcDbMaterial
  1
ByLayer
 72
     0
 43
0.0208333333333333
 43
0.0
 43
0.0
 43
0.0
 43
0.0
 43
0.0208333333333333
 43
0.0
 43
0.0
 43
0.0
 43
0.0
 43
1.0
 43
0.0
 43
0.0
 43
0.0
 43
0.0
 43
1.0
 77
     0
 47
0.0208333333333333
 47
0.0
 47
0.0
 47
0.0
 47
0.0
 47
0.0208333333333333
 47
0.0
 47
0.0
 47
0.0
 47
0.0
 47
1.0
 47
0.0
 47
0.0
 47
0.0
 47
0.0
 47
1.0
171
     0
 49
0.0208333333333333
 49
0.0
 49
0.0
 49
0.0
 49
0.0
 49
0.0208333333333333
 49
0.0
 49
0.0
 49
0.0
 49
0.0
 49
1.0
 49
0.0
 49
0.0
 49
0.0
 49
0.0
 49
1.0
175
     0
142
0.0208333333333333
142
0.0
142
0.0
142
0.0
142
0.0
142
0.0208333333333333
142
0.0
142
0.0
142
0.0
142
0.0
142
1.0
142
0.0
142
0.0
142
0.0
142
0.0
142
1.0
179
     0
144
0.0208333333333333
144
0.0
144
0.0
144
0.0
144
0.0
144
0.0208333333333333
144
0.0
144
0.0
144
0.0
144
0.0
144
1.0
144
0.0
144
0.0
144
0.0
144
0.0
144
1.0
147
0.0208333333333333
147
0.0
147
0.0
147
0.0
147
0.0
147
0.0208333333333333
147
0.0
147
0.0
147
0.0
147
0.0
147
1.0
147
0.0
147
0.0
147
0.0
147
0.0
147
1.0
  0
MATERIAL
  5
D6
102
{ACAD_XDICTIONARY
360
D7
102
}
102
{ACAD_REACTORS
330
C5
102
}
330
C5
100
AcDbMaterial
  1
Global
 72
     0
 43
0.0208333333333333
 43
0.0
 43
0.0
 43
0.0
 43
0.0
 43
0.0208333333333333
 43
0.0
 43
0.0
 43
0.0
 43
0.0
 43
1.0
 43
0.0
 43
0.0
 43
0.0
 43
0.0
 43
1.0
 77
     0
 47
0.0208333333333333
 47
0.0
 47
0.0
 47
0.0
 47
0.0
 47
0.0208333333333333
 47
0.0
 47
0.0
 47
0.0
 47
0.0
 47
1.0
 47
0.0
 47
0.0
 47
0.0
 47
0.0
 47
1.0
171
     0
 49
0.0208333333333333
 49
0.0
 49
0.0
 49
0.0
 49
0.0
 49
0.0208333333333333
 49
0.0
 49
0.0
 49
0.0
 49
0.0
 49
1.0
 49
0.0
 49
0.0
 49
0.0
 49
0.0
 49
1.0
175
     0
142
0.0208333333333333
142
0.0
142
0.0
142
0.0
142
0.0
142
0.0208333333333333
142
0.0
142
0.0
142
0.0
142
0.0
142
1.0
142
0.0
142
0.0
142
0.0
142
0.0
142
1.0
179
     0
144
0.0208333333333333
144
0.0
144
0.0
144
0.0
144
0.0
144
0.0208333333333333
144
0.0
144
0.0
144
0.0
144
0.0
144
1.0
144
0.0
144
0.0
144
0.0
144
0.0
144
1.0
147
0.0208333333333333
147
0.0
147
0.0
147
0.0
147
0.0
147
0.0208333333333333
147
0.0
147
0.0
147
0.0
147
0.0
147
1.0
147
0.0
147
0.0
147
0.0
147
0.0
147
1.0
  0
MLEADERSTYLE
  5
11B
102
{ACAD_REACTORS
330
11A
102
}
330
11A
100
AcDbMLeaderStyle
170
     2
171
     1
172
     0
 90
        2
 40
0.0
 41
0.0
173
     1
 91
-1056964608
340
10F
 92
       -2
290
     1
 42
0.09
291
     1
 43
0.36
  3
Standard
 44
0.18
300

342
10A
174
     1
178
     6
175
     1
176
     0
 93
-1056964608
 45
0.18
292
     0
297
     0
 46
0.18
 94
-1056964608
 47
1.0
 49
1.0
140
1.0
293
     1
141
0.0
294
     1
177
     0
142
1.0
295
     0
296
     0
143
0.125
1001
ACAD_MLEADERVER
1070
     2
  0
MLINESTYLE
  5
114
102
{ACAD_REACTORS
330
113
102
}
330
113
100
AcDbMlineStyle
  2
STANDARD
 70
     0
  3

 62
   256
 51
90.0
 52
90.0
 71
     2
 49
0.5
 62
   256
  6
BYLAYER
 49
-0.5
 62
   256
  6
BYLAYER
  0
ACDBPLACEHOLDER
  5
C4
102
{ACAD_REACTORS
330
C3
102
}
330
C3
  0
SCALE
  5
F8
102
{ACAD_REACTORS
330
F7
102
}
330
F7
100
AcDbScale
 70
     0
300
1:1
140
1.0
141
1.0
290
     1
  0
SCALE
  5
F9
102
{ACAD_REACTORS
330
F7
102
}
330
F7
100
AcDbScale
 70
     0
300
1/128" = 1'-0"
140
0.0078125
141
12.0
290
     0
  0
SCALE
  5
FA
102
{ACAD_REACTORS
330
F7
102
}
330
F7
100
AcDbScale
 70
     0
300
1/64" = 1'-0"
140
0.015625
141
12.0
290
     0
  0
SCALE
  5
FB
102
{ACAD_REACTORS
330
F7
102
}
330
F7
100
AcDbScale
 70
     0
300
1/32" = 1'-0"
140
0.03125
141
12.0
290
     0
  0
SCALE
  5
FC
102
{ACAD_REACTORS
330
F7
102
}
330
F7
100
AcDbScale
 70
     0
300
1/16" = 1'-0"
140
0.0625
141
12.0
290
     0
  0
SCALE
  5
FD
102
{ACAD_REACTORS
330
F7
102
}
330
F7
100
AcDbScale
 70
     0
300
3/32" = 1'-0"
140
0.09375
141
12.0
290
     0
  0
SCALE
  5
FE
102
{ACAD_REACTORS
330
F7
102
}
330
F7
100
AcDbScale
 70
     0
300
1/8" = 1'-0"
140
0.125
141
12.0
290
     0
  0
SCALE
  5
FF
102
{ACAD_REACTORS
330
F7
102
}
330
F7
100
AcDbScale
 70
     0
300
3/16" = 1'-0"
140
0.1875
141
12.0
290
     0
  0
SCALE
  5
100
102
{ACAD_REACTORS
330
F7
102
}
330
F7
100
AcDbScale
 70
     0
300
1/4" = 1'-0"
140
0.25
141
12.0
290
     0
  0
SCALE
  5
101
102
{ACAD_REACTORS
330
F7
102
}
330
F7
100
AcDbScale
 70
     0
300
3/8" = 1'-0"
140
0.375
141
12.0
290
     0
  0
SCALE
  5
102
102
{ACAD_REACTORS
330
F7
102
}
330
F7
100
AcDbScale
 70
     0
300
1/2" = 1'-0"
140
0.5
141
12.0
290
     0
  0
SCALE
  5
103
102
{ACAD_REACTORS
330
F7
102
}
330
F7
100
AcDbScale
 70
     0
300
3/4" = 1'-0"
140
0.75
141
12.0
290
     0
  0
SCALE
  5
104
102
{ACAD_REACTORS
330
F7
102
}
330
F7
100
AcDbScale
 70
     0
300
1" = 1'-0"
140
1.0
141
12.0
290
     0
  0
SCALE
  5
105
102
{ACAD_REACTORS
330
F7
102
}
330
F7
100
AcDbScale
 70
     0
300
1-1/2" = 1'-0"
140
1.5
141
12.0
290
     0
  0
SCALE
  5
106
102
{ACAD_REACTORS
330
F7
102
}
330
F7
100
AcDbScale
 70
     0
300
3" = 1'-0"
140
3.0
141
12.0
290
     0
  0
SCALE
  5
107
102
{ACAD_REACTORS
330
F7
102
}
330
F7
100
AcDbScale
 70
     0
300
6" = 1'-0"
140
6.0
141
12.0
290
     0
  0
SCALE
  5
108
102
{ACAD_REACTORS
330
F7
102
}
330
F7
100
AcDbScale
 70
     0
300
1'-0" = 1'-0"
140
12.0
141
12.0
290
     0
  0
ACDBSECTIONVIEWSTYLE
  5
11E
102
{ACAD_REACTORS
330
11C
102
}
330
11C
100
AcDbModelDocViewStyle
 70
     0
  3
Imperial24
290
     0
100
AcDbSectionViewStyle
 70
     0
 71
     0
 90
       78
 71
     1
340
10A
 40
0.24
340
0
340
0
 40
0.24
300
I, O, Q, S, X, Z
 40
0.48
 90
        3
 40
0.18
 90
        1
 71
     2
340
11D
 90
       25
340
111
 90
       50
 40
0.24
 40
0.0
 40
0.24
 71
     3
340
10A
 40
0.24
 90
        1
 40
0.75
 90
        1
300
%<\AcVar ViewType \f "%tc1">% %<\AcVar ViewSectionStartId>%-%<\AcVar ViewSectionEndId>%\PSCALE %<\AcVar ViewScale \f "%sn">%
 71
     4
300
ANSI31
 40
1.0
 90
        0
290
     0
290
     0
 90
        6
 40
0.0
 40
1.570796326794896
 40
0.2617993877991494
 40
1.308996938995747
 40
-0.2617993877991494
 40
1.832595714594046
  0
TABLESTYLE
  5
119
102
{ACAD_XDICTIONARY
360
586
102
}
102
{ACAD_REACTORS
330
118
102
}
330
118
100
AcDbTableStyle
  3
Standard
 70
     0
 71
     0
 40
0.06
 41
0.06
280
     0
281
     0
  7
STANDARD
140
0.18
170
     2
 62
     0
 63
     7
283
     0
274
    -2
284
     1
 64
     0
275
    -2
285
     1
 65
     0
276
    -2
286
     1
 66
     0
277
    -2
287
     1
 67
     0
278
    -2
288
     1
 68
     0
279
    -2
289
     1
 69
     0
  7
STANDARD
140
0.25
170
     5
 62
     0
 63
     7
283
     0
274
    -2
284
     1
 64
     0
275
    -2
285
     1
 65
     0
276
    -2
286
     1
 66
     0
277
    -2
287
     1
 67
     0
278
    -2
288
     1
 68
     0
279
    -2
289
     1
 69
     0
  7
STANDARD
140
0.18
170
     5
 62
     0
 63
     7
283
     0
274
    -2
284
     1
 64
     0
275
    -2
285
     1
 65
     0
276
    -2
286
     1
 66
     0
277
    -2
287
     1
 67
     0
278
    -2
288
     1
 68
     0
279
    -2
289
     1
 69
     0
  0
VISUALSTYLE
  5
E4
102
{ACAD_XDICTIONARY
360
597
102
}
102
{ACAD_REACTORS
330
DE
102
}
330
DE
100
AcDbVisualStyle
  2
2dWireframe
 70
     4
 71
     0
 72
     2
 73
     0
 90
        0
 40
-0.6
 41
-30.0
 62
     5
 63
     7
 74
     1
 91
        4
 64
     7
 65
   257
 75
     1
175
     1
 42
1.0
 92
        0
 66
   257
 43
1.0
 76
     1
 77
     6
 78
     2
 67
     7
 79
     5
170
     0
171
     0
290
     0
174
     0
 93
        1
 44
0.0
173
     0
291
     0
 45
0.0
1001
ACAD
1000
AcDbSavedByObjectVersion
1070
     0
  0
VISUALSTYLE
  5
E3
102
{ACAD_XDICTIONARY
360
595
102
}
102
{ACAD_REACTORS
330
DE
102
}
330
DE
100
AcDbVisualStyle
  2
Basic
 70
     7
 71
     1
 72
     0
 73
     1
 90
        0
 40
-0.6
 41
-30.0
 62
     5
 63
     7
 74
     0
 91
        4
 64
     7
 65
   257
 75
     1
175
     1
 42
1.0
 92
        8
 66
     7
 43
1.0
 76
     1
 77
     6
 78
     2
 67
     7
 79
     5
170
     0
171
     0
290
     0
174
     0
 93
        1
 44
0.0
173
     0
291
     1
 45
0.0
1001
ACAD
1000
AcDbSavedByObjectVersion
1070
     0
  0
VISUALSTYLE
  5
EA
102
{ACAD_XDICTIONARY
360
5A3
102
}
102
{ACAD_REACTORS
330
DE
102
}
330
DE
100
AcDbVisualStyle
  2
Brighten
 70
    12
 71
     2
 72
     2
 73
     0
 90
        0
 40
-0.6
 41
-30.0
 62
     5
 63
     7
 74
     1
 91
        4
 64
     7
 65
   257
 75
     1
175
     1
 42
1.0
 92
        8
 66
     7
 43
1.0
 76
     1
 77
     6
 78
     2
 67
     7
 79
     5
170
     0
171
     0
290
     0
174
     0
 93
        1
 44
50.0
173
     0
291
     1
 45
0.0
1001
ACAD
1000
AcDbSavedByObjectVersion
1070
     0
  0
VISUALSTYLE
  5
EE
102
{ACAD_XDICTIONARY
360
5AB
102
}
102
{ACAD_REACTORS
330
DE
102
}
330
DE
100
AcDbVisualStyle
  2
ColorChange
 70
    16
 71
     2
 72
     2
 73
     3
 90
        0
 40
-0.6
 41
-30.0
 62
     5
 63
     8
 74
     1
 91
        4
 64
     7
 65
   257
 75
     1
175
     1
 42
1.0
 92
        8
 66
     8
 43
1.0
 76
     1
 77
     6
 78
     2
 67
     7
 79
     5
170
     0
171
     0
290
     0
174
     0
 93
        1
 44
0.0
173
     0
291
     1
 45
0.0
1001
ACAD
1000
AcDbSavedByObjectVersion
1070
     0
  0
VISUALSTYLE
  5
E7
102
{ACAD_XDICTIONARY
360
59D
102
}
102
{ACAD_REACTORS
330
DE
102
}
330
DE
100
AcDbVisualStyle
  2
Conceptual
 70
     9
 71
     3
 72
     2
 73
     0
 90
        0
 40
-0.6
 41
-30.0
 62
     5
 63
     7
 74
     2
 91
        2
 64
     7
 65
   257
 75
     1
175
     1
 42
179.0
 92
        8
 66
     7
 43
1.0
 76
     1
 77
     6
 78
     2
 67
     7
 79
     3
170
     0
171
     0
290
     0
174
     0
 93
        1
 44
0.0
173
     0
291
     0
 45
0.0
1001
ACAD
1000
AcDbSavedByObjectVersion
1070
     0
  0
VISUALSTYLE
  5
E9
102
{ACAD_XDICTIONARY
360
5A1
102
}
102
{ACAD_REACTORS
330
DE
102
}
330
DE
100
AcDbVisualStyle
  2
Dim
 70
    11
 71
     2
 72
     2
 73
     0
 90
        0
 40
-0.6
 41
-30.0
 62
     5
 63
     7
 74
     1
 91
        4
 64
     7
 65
   257
 75
     1
175
     1
 42
1.0
 92
        8
 66
     7
 43
1.0
 76
     1
 77
     6
 78
     2
 67
     7
 79
     5
170
     0
171
     0
290
     0
174
     0
 93
        1
 44
-50.0
173
     0
291
     1
 45
0.0
1001
ACAD
1000
AcDbSavedByObjectVersion
1070
     0
  0
VISUALSTYLE
  5
F6
102
{ACAD_XDICTIONARY
360
5BB
102
}
102
{ACAD_REACTORS
330
DE
102
}
330
DE
100
AcDbVisualStyle
  2
EdgeColorOff
 70
    22
 71
     2
 72
     2
 73
     0
 90
        0
 40
-0.6
 41
-30.0
 62
     5
 63
     7
 74
     1
 91
        4
 64
     7
 65
   257
 75
     1
175
     1
 42
1.0
 92
        8
 66
     7
 43
1.0
 76
     1
 77
     6
 78
     2
 67
     7
 79
     5
170
     0
171
     0
290
     0
174
     0
 93
        1
 44
0.0
173
     0
291
     1
 45
0.0
1001
ACAD
1000
AcDbSavedByObjectVersion
1070
     0
  0
VISUALSTYLE
  5
ED
102
{ACAD_XDICTIONARY
360
5A9
102
}
102
{ACAD_REACTORS
330
DE
102
}
330
DE
100
AcDbVisualStyle
  2
Facepattern
 70
    15
 71
     2
 72
     2
 73
     0
 90
        0
 40
-0.6
 41
-30.0
 62
     5
 63
     7
 74
     1
 91
        4
 64
     7
 65
   257
 75
     1
175
     1
 42
1.0
 92
        8
 66
     7
 43
1.0
 76
     1
 77
     6
 78
     2
 67
     7
 79
     5
170
     0
171
     0
290
     0
174
     0
 93
        1
 44
0.0
173
     0
291
     1
 45
0.0
1001
ACAD
1000
AcDbSavedByObjectVersion
1070
     0
  0
VISUALSTYLE
  5
DF
102
{ACAD_XDICTIONARY
360
58D
102
}
102
{ACAD_REACTORS
330
DE
102
}
330
DE
100
AcDbVisualStyle
  2
Flat
 70
     0
 71
     2
 72
     1
 73
     1
 90
        2
 40
-0.6
 41
30.0
 62
     5
 63
     7
 74
     0
 91
        0
 64
     7
 65
   257
 75
     1
175
     1
 42
1.0
 92
        8
 66
     7
 43
1.0
 76
     1
 77
     6
 78
     2
 67
     7
 79
     5
170
     0
171
     0
290
     0
174
     0
 93
       13
 44
0.0
173
     0
291
     1
 45
0.0
1001
ACAD
1000
AcDbSavedByObjectVersion
1070
     0
  0
VISUALSTYLE
  5
E0
102
{ACAD_XDICTIONARY
360
58F
102
}
102
{ACAD_REACTORS
330
DE
102
}
330
DE
100
AcDbVisualStyle
  2
FlatWithEdges
 70
     1
 71
     2
 72
     1
 73
     1
 90
        2
 40
-0.6
 41
30.0
 62
     5
 63
     7
 74
     1
 91
        0
 64
     7
 65
   257
 75
     1
175
     1
 42
1.0
 92
        0
 66
   257
 43
1.0
 76
     1
 77
     6
 78
     2
 67
     7
 79
     5
170
     0
171
     0
290
     0
174
     0
 93
       13
 44
0.0
173
     0
291
     1
 45
0.0
1001
ACAD
1000
AcDbSavedByObjectVersion
1070
     0
  0
VISUALSTYLE
  5
E1
102
{ACAD_XDICTIONARY
360
591
102
}
102
{ACAD_REACTORS
330
DE
102
}
330
DE
100
AcDbVisualStyle
  2
Gouraud
 70
     2
 71
     2
 72
     2
 73
     1
 90
        2
 40
-0.6
 41
30.0
 62
     5
 63
     7
 74
     0
 91
        0
 64
     7
 65
   257
 75
     1
175
     1
 42
1.0
 92
        0
 66
     7
 43
1.0
 76
     1
 77
     6
 78
     2
 67
     7
 79
     5
170
     0
171
     0
290
     0
174
     0
 93
       13
 44
0.0
173
     0
291
     1
 45
0.0
1001
ACAD
1000
AcDbSavedByObjectVersion
1070
     0
  0
VISUALSTYLE
  5
E2
102
{ACAD_XDICTIONARY
360
593
102
}
102
{ACAD_REACTORS
330
DE
102
}
330
DE
100
AcDbVisualStyle
  2
GouraudWithEdges
 70
     3
 71
     2
 72
     2
 73
     1
 90
        2
 40
-0.6
 41
30.0
 62
     5
 63
     7
 74
     1
 91
        0
 64
     7
 65
   257
 75
     1
175
     1
 42
1.0
 92
        0
 66
   257
 43
1.0
 76
     1
 77
     6
 78
     2
 67
     7
 79
     5
170
     0
171
     0
290
     0
174
     0
 93
       13
 44
0.0
173
     0
291
     1
 45
0.0
1001
ACAD
1000
AcDbSavedByObjectVersion
1070
     0
  0
VISUALSTYLE
  5
E6
102
{ACAD_XDICTIONARY
360
59B
102
}
102
{ACAD_REACTORS
330
DE
102
}
330
DE
100
AcDbVisualStyle
  2
Hidden
 70
     6
 71
     1
 72
     2
 73
     2
 90
        0
 40
-0.6
 41
-30.0
 62
     5
 63
     7
 74
     2
 91
        2
 64
     7
 65
   257
 75
     2
175
     1
 42
40.0
 92
        0
 66
   257
 43
1.0
 76
     1
 77
     6
 78
     2
 67
     7
 79
     3
170
     0
171
     0
290
     0
174
     0
 93
        1
 44
0.0
173
     0
291
     0
 45
0.0
1001
ACAD
1000
AcDbSavedByObjectVersion
1070
     0
  0
VISUALSTYLE
  5
F4
102
{ACAD_XDICTIONARY
360
5B7
102
}
102
{ACAD_REACTORS
330
DE
102
}
330
DE
100
AcDbVisualStyle
  2
JitterOff
 70
    20
 71
     2
 72
     2
 73
     0
 90
        0
 40
-0.6
 41
-30.0
 62
     5
 63
     7
 74
     1
 91
        4
 64
     7
 65
   257
 75
     1
175
     1
 42
1.0
 92
       10
 66
     7
 43
1.0
 76
     1
 77
     6
 78
     2
 67
     7
 79
     5
170
     0
171
     0
290
     0
174
     0
 93
        1
 44
0.0
173
     0
291
     1
 45
0.0
1001
ACAD
1000
AcDbSavedByObjectVersion
1070
     0
  0
VISUALSTYLE
  5
EC
102
{ACAD_XDICTIONARY
360
5A7
102
}
102
{ACAD_REACTORS
330
DE
102
}
330
DE
100
AcDbVisualStyle
  2
Linepattern
 70
    14
 71
     2
 72
     2
 73
     0
 90
        0
 40
-0.6
 41
-30.0
 62
     5
 63
     7
 74
     1
 91
        4
 64
     7
 65
   257
 75
     7
175
     7
 42
1.0
 92
        8
 66
     7
 43
1.0
 76
     1
 77
     6
 78
     2
 67
     7
 79
     5
170
     0
171
     0
290
     0
174
     0
 93
        1
 44
0.0
173
     0
291
     1
 45
0.0
1001
ACAD
1000
AcDbSavedByObjectVersion
1070
     0
  0
VISUALSTYLE
  5
F5
102
{ACAD_XDICTIONARY
360
5B9
102
}
102
{ACAD_REACTORS
330
DE
102
}
330
DE
100
AcDbVisualStyle
  2
OverhangOff
 70
    21
 71
     2
 72
     2
 73
     0
 90
        0
 40
-0.6
 41
-30.0
 62
     5
 63
     7
 74
     1
 91
        4
 64
     7
 65
   257
 75
     1
175
     1
 42
1.0
 92
        9
 66
     7
 43
1.0
 76
     1
 77
     6
 78
     2
 67
     7
 79
     5
170
     0
171
     0
290
     0
174
     0
 93
        1
 44
0.0
173
     0
291
     1
 45
0.0
1001
ACAD
1000
AcDbSavedByObjectVersion
1070
     0
  0
VISUALSTYLE
  5
E8
102
{ACAD_XDICTIONARY
360
59F
102
}
102
{ACAD_REACTORS
330
DE
102
}
330
DE
100
AcDbVisualStyle
  2
Realistic
 70
     8
 71
     2
 72
     3
 73
     0
 90
        2
 40
-0.6
 41
30.0
 62
     5
 63
     7
 74
     0
 91
        0
 64
     7
 65
   257
 75
     1
175
     1
 42
1.0
 92
        8
 66
   257
 43
1.0
 76
     1
 77
     6
 78
     2
 67
     7
 79
     3
170
     0
171
     0
290
     0
174
     0
 93
       13
 44
0.0
173
     0
291
     0
 45
0.0
1001
ACAD
1000
AcDbSavedByObjectVersion
1070
     0
  0
VISUALSTYLE
  5
F3
102
{ACAD_XDICTIONARY
360
5B5
102
}
102
{ACAD_REACTORS
330
DE
102
}
330
DE
100
AcDbVisualStyle
  2
Shaded
 70
    27
 71
     2
 72
     2
 73
     1
 90
        2
 40
-0.6
 41
30.0
 62
     5
 63
     7
 74
     0
 91
        4
 64
     7
 65
   257
 75
     1
175
     1
 42
1.0
 92
        8
 66
   257
 43
1.0
 76
     1
 77
     6
 78
     2
 67
     8
 79
     3
170
     0
171
     0
290
     0
174
     0
 93
        5
 44
0.0
173
     0
291
     0
 45
0.0
1001
ACAD
1000
AcDbSavedByObjectVersion
1070
     0
  0
VISUALSTYLE
  5
F2
102
{ACAD_XDICTIONARY
360
5B3
102
}
102
{ACAD_REACTORS
330
DE
102
}
330
DE
100
AcDbVisualStyle
  2
Shaded with edges
 70
    26
 71
     2
 72
     2
 73
     1
 90
        2
 40
-0.6
 41
30.0
 62
     5
 63
     7
 74
     1
 91
       10
 64
     7
 65
   257
 75
     2
175
     1
 42
1.0
 92
        8
 66
   257
 43
1.0
 76
     1
 77
     6
 78
     2
 67
     7
 79
     3
170
     0
171
     0
290
     0
174
     0
 93
        5
 44
0.0
173
     0
291
     0
 45
0.0
1001
ACAD
1000
AcDbSavedByObjectVersion
1070
     0
  0
VISUALSTYLE
  5
EF
102
{ACAD_XDICTIONARY
360
5AD
102
}
102
{ACAD_REACTORS
330
DE
102
}
330
DE
100
AcDbVisualStyle
  2
Shades of Gray
 70
    23
 71
     2
 72
     2
 73
     3
 90
        0
 40
-0.6
 41
-30.0
 62
     5
 63
     7
 74
     2
 91
        2
 64
     7
 65
     7
 75
     1
175
     1
 42
40.0
 92
        8
 66
     7
 43
1.0
 76
     1
 77
     6
 78
     2
 67
     7
 79
     3
170
     0
171
     0
290
     0
174
     0
 93
        1
 44
0.0
173
     0
291
     0
 45
0.0
1001
ACAD
1000
AcDbSavedByObjectVersion
1070
     0
  0
VISUALSTYLE
  5
F0
102
{ACAD_XDICTIONARY
360
5AF
102
}
102
{ACAD_REACTORS
330
DE
102
}
330
DE
100
AcDbVisualStyle
  2
Sketchy
 70
    24
 71
     1
 72
     2
 73
     2
 90
        0
 40
-0.6
 41
-30.0
 62
     5
 63
     7
 74
     2
 91
        2
 64
     7
 65
     7
 75
     1
175
     1
 42
40.0
 92
       11
 66
     7
 43
1.0
 76
     1
 77
     6
 78
     2
 67
     7
 79
     6
170
     0
171
     0
290
     0
174
     0
 93
        1
 44
0.0
173
     0
291
     0
 45
0.0
1001
ACAD
1000
AcDbSavedByObjectVersion
1070
     0
  0
VISUALSTYLE
  5
EB
102
{ACAD_XDICTIONARY
360
5A5
102
}
102
{ACAD_REACTORS
330
DE
102
}
330
DE
100
AcDbVisualStyle
  2
Thicken
 70
    13
 71
     2
 72
     2
 73
     0
 90
        0
 40
-0.6
 41
-30.0
 62
     5
 63
     7
 74
     1
 91
        4
 64
     7
 65
   257
 75
     1
175
     1
 42
1.0
 92
       12
 66
     7
 43
1.0
 76
     1
 77
     6
 78
     2
 67
     7
 79
     5
170
     0
171
     0
290
     0
174
     0
 93
        1
 44
0.0
173
     0
291
     1
 45
0.0
1001
ACAD
1000
AcDbSavedByObjectVersion
1070
     0
  0
VISUALSTYLE
  5
E5
102
{ACAD_XDICTIONARY
360
599
102
}
102
{ACAD_REACTORS
330
DE
102
}
330
DE
100
AcDbVisualStyle
  2
Wireframe
 70
     5
 71
     0
 72
     2
 73
     0
 90
        0
 40
-0.6
 41
-30.0
 62
     5
 63
     7
 74
     1
 91
        4
 64
     7
 65
   257
 75
     1
175
     1
 42
1.0
 92
        0
 66
   257
 43
1.0
 76
     1
 77
     6
 78
     2
 67
     7
 79
     3
170
     0
171
     0
290
     0
174
     0
 93
        1
 44
0.0
173
     0
291
     0
 45
0.0
1001
ACAD
1000
AcDbSavedByObjectVersion
1070
     0
  0
VISUALSTYLE
  5
F1
102
{ACAD_XDICTIONARY
360
5B1
102
}
102
{ACAD_REACTORS
330
DE
102
}
330
DE
100
AcDbVisualStyle
  2
X-Ray
 70
    25
 71
     2
 72
     2
 73
     1
 90
        1
 40
0.5
 41
-30.0
 62
     5
 63
     7
 74
     1
 91
        0
 64
     7
 65
   257
 75
     1
175
     1
 42
1.0
 92
        8
 66
     7
 43
1.0
 76
     1
 77
     6
 78
     2
 67
     7
 79
     3
170
     0
171
     0
290
     0
174
     0
 93
       13
 44
0.0
173
     0
291
     0
 45
0.0
1001
ACAD
1000
AcDbSavedByObjectVersion
1070
     0
  0
DICTIONARYVAR
  5
581
102
{ACAD_REACTORS
330
57C
102
}
330
57C
100
DictionaryVariables
280
     0
  1
1:1
  0
DICTIONARYVAR
  5
57E
102
{ACAD_REACTORS
330
57C
102
}
330
57C
100
DictionaryVariables
280
     0
  1
STANDARD
  0
DICTIONARYVAR
  5
57D
102
{ACAD_REACTORS
330
57C
102
}
330
57C
100
DictionaryVariables
280
     0
  1
STANDARD
  0
DICTIONARYVAR
  5
57F
102
{ACAD_REACTORS
330
57C
102
}
330
57C
100
DictionaryVariables
280
     0
  1
Imperial24
  0
DICTIONARYVAR
  5
580
102
{ACAD_REACTORS
330
57C
102
}
330
57C
100
DictionaryVariables
280
     0
  1
Imperial24
  0
DICTIONARYVAR
  5
584
102
{ACAD_REACTORS
330
57C
102
}
330
57C
100
DictionaryVariables
280
     0
  1
1
  0
DICTIONARYVAR
  5
583
102
{ACAD_REACTORS
330
57C
102
}
330
57C
100
DictionaryVariables
280
     0
  1
0
  0
DICTIONARYVAR
  5
582
102
{ACAD_REACTORS
330
57C
102
}
330
57C
100
DictionaryVariables
280
     0
  1
127
  0
DICTIONARYVAR
  5
585
102
{ACAD_REACTORS
330
57C
102
}
330
57C
100
DictionaryVariables
280
     0
  1
2
  0
DICTIONARY
  5
163
102
{ACAD_REACTORS
330
15C
102
}
330
15C
100
AcDbDictionary
281
     1
  0
DICTIONARY
  5
5C1
330
128
100
AcDbDictionary
280
     1
281
     1
  3
ACAD_XREC_ROUNDTRIP
360
5C2
  0
DICTIONARY
  5
5BF
330
124
100
AcDbDictionary
280
     1
281
     1
  3
ACAD_XREC_ROUNDTRIP
360
5C0
  0
DICTIONARY
  5
CF
330
CE
100
AcDbDictionary
280
     1
281
     1
  3
ACAD_XREC_ROUNDTRIP
360
58B
  3
BUMPTILE
360
D1
  3
DIFFUSETILE
360
D0
  3
OPACITYTILE
360
D4
  3
REFLECTIONTILE
360
D3
  3
REFRACTIONTILE
360
D5
  3
SPECULARTILE
360
D2
  0
DICTIONARY
  5
C7
330
C6
100
AcDbDictionary
280
     1
281
     1
  3
ACAD_XREC_ROUNDTRIP
360
58A
  3
BUMPTILE
360
C9
  3
DIFFUSETILE
360
C8
  3
OPACITYTILE
360
CC
  3
REFLECTIONTILE
360
CB
  3
REFRACTIONTILE
360
CD
  3
SPECULARTILE
360
CA
  0
DICTIONARY
  5
D7
330
D6
100
AcDbDictionary
280
     1
281
     1
  3
ACAD_XREC_ROUNDTRIP
360
58C
  3
BUMPTILE
360
D9
  3
DIFFUSETILE
360
D8
  3
OPACITYTILE
360
DC
  3
REFLECTIONTILE
360
DB
  3
REFRACTIONTILE
360
DD
  3
SPECULARTILE
360
DA
  0
DICTIONARY
  5
586
330
119
100
AcDbDictionary
280
     1
281
     1
  3
ACAD_ROUNDTRIP_2008_TABLESTYLE_CELLSTYLEMAP
360
587
  3
ACAD_XREC_ROUNDTRIP
360
5BD
  0
DICTIONARY
  5
597
330
E4
100
AcDbDictionary
280
     1
281
     1
  3
ACAD_XREC_ROUNDTRIP
360
598
  0
DICTIONARY
  5
595
330
E3
100
AcDbDictionary
280
     1
281
     1
  3
ACAD_XREC_ROUNDTRIP
360
596
  0
DICTIONARY
  5
5A3
330
EA
100
AcDbDictionary
280
     1
281
     1
  3
ACAD_XREC_ROUNDTRIP
360
5A4
  0
DICTIONARY
  5
5AB
330
EE
100
AcDbDictionary
280
     1
281
     1
  3
ACAD_XREC_ROUNDTRIP
360
5AC
  0
DICTIONARY
  5
59D
330
E7
100
AcDbDictionary
280
     1
281
     1
  3
ACAD_XREC_ROUNDTRIP
360
59E
  0
DICTIONARY
  5
5A1
330
E9
100
AcDbDictionary
280
     1
281
     1
  3
ACAD_XREC_ROUNDTRIP
360
5A2
  0
DICTIONARY
  5
5BB
330
F6
100
AcDbDictionary
280
     1
281
     1
  3
ACAD_XREC_ROUNDTRIP
360
5BC
  0
DICTIONARY
  5
5A9
330
ED
100
AcDbDictionary
280
     1
281
     1
  3
ACAD_XREC_ROUNDTRIP
360
5AA
  0
DICTIONARY
  5
58D
330
DF
100
AcDbDictionary
280
     1
281
     1
  3
ACAD_XREC_ROUNDTRIP
360
58E
  0
DICTIONARY
  5
58F
330
E0
100
AcDbDictionary
280
     1
281
     1
  3
ACAD_XREC_ROUNDTRIP
360
590
  0
DICTIONARY
  5
591
330
E1
100
AcDbDictionary
280
     1
281
     1
  3
ACAD_XREC_ROUNDTRIP
360
592
  0
DICTIONARY
  5
593
330
E2
100
AcDbDictionary
280
     1
281
     1
  3
ACAD_XREC_ROUNDTRIP
360
594
  0
DICTIONARY
  5
59B
330
E6
100
AcDbDictionary
280
     1
281
     1
  3
ACAD_XREC_ROUNDTRIP
360
59C
  0
DICTIONARY
  5
5B7
330
F4
100
AcDbDictionary
280
     1
281
     1
  3
ACAD_XREC_ROUNDTRIP
360
5B8
  0
DICTIONARY
  5
5A7
330
EC
100
AcDbDictionary
280
     1
281
     1
  3
ACAD_XREC_ROUNDTRIP
360
5A8
  0
DICTIONARY
  5
5B9
330
F5
100
AcDbDictionary
280
     1
281
     1
  3
ACAD_XREC_ROUNDTRIP
360
5BA
  0
DICTIONARY
  5
59F
330
E8
100
AcDbDictionary
280
     1
281
     1
  3
ACAD_XREC_ROUNDTRIP
360
5A0
  0
DICTIONARY
  5
5B5
330
F3
100
AcDbDictionary
280
     1
281
     1
  3
ACAD_XREC_ROUNDTRIP
360
5B6
  0
DICTIONARY
  5
5B3
330
F2
100
AcDbDictionary
280
     1
281
     1
  3
ACAD_XREC_ROUNDTRIP
360
5B4
  0
DICTIONARY
  5
5AD
330
EF
100
AcDbDictionary
280
     1
281
     1
  3
ACAD_XREC_ROUNDTRIP
360
5AE
  0
DICTIONARY
  5
5AF
330
F0
100
AcDbDictionary
280
     1
281
     1
  3
ACAD_XREC_ROUNDTRIP
360
5B0
  0
DICTIONARY
  5
5A5
330
EB
100
AcDbDictionary
280
     1
281
     1
  3
ACAD_XREC_ROUNDTRIP
360
5A6
  0
DICTIONARY
  5
599
330
E5
100
AcDbDictionary
280
     1
281
     1
  3
ACAD_XREC_ROUNDTRIP
360
59A
  0
DICTIONARY
  5
5B1
330
F1
100
AcDbDictionary
280
     1
281
     1
  3
ACAD_XREC_ROUNDTRIP
360
5B2
  0
XRECORD
  5
5C2
102
{ACAD_REACTORS
330
5C1
102
}
330
5C1
100
AcDbXrecord
280
     1
102
SHADEPLOT
 70
     0
102
SHADEPLOTRESLEVEL
 70
     2
102
SHADEPLOTCUSTOMDPI
 70
   300
  0
XRECORD
  5
5C0
102
{ACAD_REACTORS
330
5BF
102
}
330
5BF
100
AcDbXrecord
280
     1
102
SHADEPLOT
 70
     0
102
SHADEPLOTRESLEVEL
 70
     2
102
SHADEPLOTCUSTOMDPI
 70
   300
  0
XRECORD
  5
58B
102
{ACAD_REACTORS
330
CF
102
}
330
CF
100
AcDbXrecord
280
     1
102
MATERIAL
148
0.0
149
0.0
149
0.0
 93
        0
 94
      127
282
     0
 72
     0
 77
     0
171
     0
175
     0
179
     0
273
     0
  0
XRECORD
  5
D1
102
{ACAD_REACTORS
330
CF
102
}
330
CF
100
AcDbXrecord
280
     1
270
     1
271
     1
  0
XRECORD
  5
D0
102
{ACAD_REACTORS
330
CF
102
}
330
CF
100
AcDbXrecord
280
     1
270
     1
271
     1
  0
XRECORD
  5
D4
102
{ACAD_REACTORS
330
CF
102
}
330
CF
100
AcDbXrecord
280
     1
270
     1
271
     1
  0
XRECORD
  5
D3
102
{ACAD_REACTORS
330
CF
102
}
330
CF
100
AcDbXrecord
280
     1
270
     1
271
     1
  0
XRECORD
  5
D5
102
{ACAD_REACTORS
330
CF
102
}
330
CF
100
AcDbXrecord
280
     1
270
     1
271
     1
  0
XRECORD
  5
D2
102
{ACAD_REACTORS
330
CF
102
}
330
CF
100
AcDbXrecord
280
     1
270
     1
271
     1
  0
XRECORD
  5
58A
102
{ACAD_REACTORS
330
C7
102
}
330
C7
100
AcDbXrecord
280
     1
102
MATERIAL
148
0.0
149
0.0
149
0.0
 93
        0
 94
      127
282
     0
 72
     0
 77
     0
171
     0
175
     0
179
     0
273
     0
  0
XRECORD
  5
C9
102
{ACAD_REACTORS
330
C7
102
}
330
C7
100
AcDbXrecord
280
     1
270
     1
271
     1
  0
XRECORD
  5
C8
102
{ACAD_REACTORS
330
C7
102
}
330
C7
100
AcDbXrecord
280
     1
270
     1
271
     1
  0
XRECORD
  5
CC
102
{ACAD_REACTORS
330
C7
102
}
330
C7
100
AcDbXrecord
280
     1
270
     1
271
     1
  0
XRECORD
  5
CB
102
{ACAD_REACTORS
330
C7
102
}
330
C7
100
AcDbXrecord
280
     1
270
     1
271
     1
  0
XRECORD
  5
CD
102
{ACAD_REACTORS
330
C7
102
}
330
C7
100
AcDbXrecord
280
     1
270
     1
271
     1
  0
XRECORD
  5
CA
102
{ACAD_REACTORS
330
C7
102
}
330
C7
100
AcDbXrecord
280
     1
270
     1
271
     1
  0
XRECORD
  5
58C
102
{ACAD_REACTORS
330
D7
102
}
330
D7
100
AcDbXrecord
280
     1
102
MATERIAL
148
0.0
149
0.0
149
0.0
 93
        0
 94
      127
282
     0
 72
     0
 77
     0
171
     0
175
     0
179
     0
273
     0
  0
XRECORD
  5
D9
102
{ACAD_REACTORS
330
D7
102
}
330
D7
100
AcDbXrecord
280
     1
270
     1
271
     1
  0
XRECORD
  5
D8
102
{ACAD_REACTORS
330
D7
102
}
330
D7
100
AcDbXrecord
280
     1
270
     1
271
     1
  0
XRECORD
  5
DC
102
{ACAD_REACTORS
330
D7
102
}
330
D7
100
AcDbXrecord
280
     1
270
     1
271
     1
  0
XRECORD
  5
DB
102
{ACAD_REACTORS
330
D7
102
}
330
D7
100
AcDbXrecord
280
     1
270
     1
271
     1
  0
XRECORD
  5
DD
102
{ACAD_REACTORS
330
D7
102
}
330
D7
100
AcDbXrecord
280
     1
270
     1
271
     1
  0
XRECORD
  5
DA
102
{ACAD_REACTORS
330
D7
102
}
330
D7
100
AcDbXrecord
280
     1
270
     1
271
     1
  0
CELLSTYLEMAP
  5
587
102
{ACAD_REACTORS
330
586
102
}
330
586
100
AcDbCellStyleMap
 90
        3
300
CELLSTYLE
  1
TABLEFORMAT_BEGIN
 90
        5
170
     1
 91
        0
 92
    32768
 62
   257
 93
        1
300
CONTENTFORMAT
  1
CONTENTFORMAT_BEGIN
 90
        0
 91
        0
 92
      512
 93
        0
300

 40
0.0
140
1.0
 94
        5
 62
     0
340
10A
144
0.25
309
CONTENTFORMAT_END
171
     0
 94
        0
309
TABLEFORMAT_END
  1
CELLSTYLE_BEGIN
 90
        1
 91
        1
300
_TITLE
309
CELLSTYLE_END
300
CELLSTYLE
  1
TABLEFORMAT_BEGIN
 90
        5
170
     1
 91
        0
 92
        0
 62
   257
 93
        1
300
CONTENTFORMAT
  1
CONTENTFORMAT_BEGIN
 90
        0
 91
        0
 92
      512
 93
        0
300

 40
0.0
140
1.0
 94
        5
 62
     0
340
10A
144
0.18
309
CONTENTFORMAT_END
171
     0
 94
        0
309
TABLEFORMAT_END
  1
CELLSTYLE_BEGIN
 90
        2
 91
        1
300
_HEADER
309
CELLSTYLE_END
300
CELLSTYLE
  1
TABLEFORMAT_BEGIN
 90
        5
170
     1
 91
        0
 92
        0
 62
   257
 93
        1
300
CONTENTFORMAT
  1
CONTENTFORMAT_BEGIN
 90
        0
 91
        0
 92
      512
 93
        0
300

 40
0.0
140
1.0
 94
        2
 62
     0
340
10A
144
0.18
309
CONTENTFORMAT_END
171
     0
 94
        0
309
TABLEFORMAT_END
  1
CELLSTYLE_BEGIN
 90
        3
 91
        2
300
_DATA
309
CELLSTYLE_END
  0
XRECORD
  5
5BD
102
{ACAD_REACTORS
330
586
102
}
330
586
100
AcDbXrecord
280
     1
102
ACAD_ROUNDTRIP_PRE2007_TABLESTYLE
 90
      512
 91
        0
  1

 92
      512
 93
        0
  2

 94
      512
 95
        0
  3

  0
XRECORD
  5
598
102
{ACAD_REACTORS
330
597
102
}
330
597
100
AcDbXrecord
280
     1
102
RTVSPost2010Prop28
280
     1
102
RTVSPost2010PropOp28
 70
     1
102
RTVSPost2010Prop29
280
     1
102
RTVSPost2010PropOp29
 70
     1
102
RTVSPost2010Prop30
280
     0
102
RTVSPost2010PropOp30
 70
     1
102
RTVSPost2010Prop31
280
     0
102
RTVSPost2010PropOp31
 70
     1
102
RTVSPost2010Prop32
280
     0
102
RTVSPost2010PropOp32
 70
     1
102
RTVSPost2010Prop33
280
     0
102
RTVSPost2010PropOp33
 70
     1
102
RTVSPost2010Prop34
280
     0
102
RTVSPost2010PropOp34
 70
     1
102
RTVSPost2010Prop35
280
     0
102
RTVSPost2010PropOp35
 70
     1
102
RTVSPost2010Prop36
280
     0
102
RTVSPost2010PropOp36
 70
     1
102
RTVSPost2010Prop37
 90
       50
102
RTVSPost2010PropOp37
 70
     1
102
RTVSPost2010Prop38
140
0.0
102
RTVSPost2010PropOp38
 70
     1
102
RTVSPost2010Prop39
140
1.0
102
RTVSPost2010PropOp39
 70
     1
102
RTVSPost2010Prop40
 90
        0
102
RTVSPost2010PropOp40
 70
     1
102
RTVSPost2010Prop41ColorIndex
 90
       18
102
RTVSPost2010Prop41ColorRGB
 90
        0
102
RTVSPost2010PropOp41
 70
     1
102
RTVSPost2010Prop42
 90
       50
102
RTVSPost2010PropOp42
 70
     1
102
RTVSPost2010Prop43
 90
        3
102
RTVSPost2010PropOp43
 70
     1
102
RTVSPost2010Prop44ColorIndex
 90
        5
102
RTVSPost2010Prop44ColorRGB
 90
      255
102
RTVSPost2010PropOp44
 70
     1
102
RTVSPost2010Prop45
280
     0
102
RTVSPost2010PropOp45
 70
     1
102
RTVSPost2010Prop46
 90
       50
102
RTVSPost2010PropOp46
 70
     1
102
RTVSPost2010Prop47
 90
       50
102
RTVSPost2010PropOp47
 70
     1
102
RTVSPost2010Prop48
 90
       50
102
RTVSPost2010PropOp48
 70
     1
102
RTVSPost2010Prop49
280
     0
102
RTVSPost2010PropOp49
 70
     1
102
RTVSPost2010Prop50
 90
       50
102
RTVSPost2010PropOp50
 70
     1
102
RTVSPost2010Prop51ColorIndex
 90
      256
102
RTVSPost2010Prop51ColorRGB
 90
-16777216
102
RTVSPost2010PropOp51
 70
     0
102
RTVSPost2010Prop52
140
1.0
102
RTVSPost2010PropOp52
 70
     0
102
RTVSPost2010Prop53
 90
        2
102
RTVSPost2010PropOp53
 70
     1
102
RTVSPost2010Prop54
  1
strokes_ogs.tif
102
RTVSPost2010PropOp54
 70
     1
102
RTVSPost2010Prop55
280
     0
102
RTVSPost2010PropOp55
 70
     1
102
RTVSPost2010Prop56
140
1.0
102
RTVSPost2010PropOp56
 70
     1
102
RTVSPost2010Prop57
140
1.0
102
RTVSPost2010PropOp57
 70
     1
102
RTVSPropertyOp0
 70
     1
102
RTVSPropertyOp1
 70
     1
102
RTVSPropertyOp2
 70
     1
102
RTVSPropertyOp3
 70
     1
102
RTVSPropertyOp4
 70
     1
102
RTVSPropertyOp5
 70
     1
102
RTVSPropertyOp6
 70
     1
102
RTVSPropertyOp7
 70
     1
102
RTVSPropertyOp8
 70
     1
102
RTVSPropertyOp9
 70
     1
102
RTVSPropertyOp10
 70
     1
102
RTVSPropertyOp11
 70
     1
102
RTVSPropertyOp12
 70
     1
102
RTVSPropertyOp13
 70
     1
102
RTVSPropertyOp14
 70
     1
102
RTVSPropertyOp15
 70
     1
102
RTVSPropertyOp16
 70
     1
102
RTVSPropertyOp17
 70
     1
102
RTVSPropertyOp18
 70
     1
102
RTVSPropertyOp19
 70
     1
102
RTVSPropertyOp20
 70
     1
102
RTVSPropertyOp21
 70
     1
102
RTVSPropertyOp22
 70
     1
102
RTVSPropertyOp23
 70
     1
102
RTVSPropertyOp24
 70
     1
102
RTVSPropertyOp25
 70
     1
102
RTVSPropertyOp26
 70
     1
102
RTVSPropertyOp27
 70
     1
102
RTVSPropertyOp28
 70
     1
102
RTVSPropertyOp29
 70
     1
102
RTVSPropertyOp30
 70
     1
102
RTVSPropertyOp31
 70
     1
102
RTVSPropertyOp32
 70
     1
102
RTVSPropertyOp33
 70
     1
102
RTVSPropertyOp34
 70
     1
102
RTVSPropertyOp35
 70
     1
102
RTVSPropertyOp36
 70
     1
102
RTVSPropertyOp37
 70
     1
102
RTVSPropertyOp38
 70
     1
102
RTVSPropertyOp39
 70
     1
102
RTVSPropertyOp40
 70
     1
102
RTVSPropertyOp41
 70
     1
102
RTVSPropertyOp42
 70
     1
102
RTVSPropertyOp43
 70
     1
102
RTVSPropertyOp44
 70
     1
102
RTVSPropertyOp45
 70
     1
102
RTVSPropertyOp46
 70
     1
102
RTVSPropertyOp47
 70
     1
102
RTVSPropertyOp48
 70
     1
102
RTVSPropertyOp49
 70
     1
102
RTVSPropertyOp50
 70
     1
102
RTVSPropertyOp51
 70
     0
102
RTVSPropertyOp52
 70
     0
102
RTVSPropertyOp53
 70
     1
102
RTVSPropertyOp54
 70
     1
102
RTVSPropertyOp55
 70
     1
102
RTVSPropertyOp56
 70
     1
102
RTVSPropertyOp57
 70
     1
102
RTVSPropertyOp58
 70
     1
102
RTVSPropertyOp59
 70
     1
102
RTVSPropertyOp60
 70
     1
102
RTVSPropertyOp61
 70
     1
102
RTVSPropertyOp62
 70
     1
  0
XRECORD
  5
596
102
{ACAD_REACTORS
330
595
102
}
330
595
100
AcDbXrecord
280
     1
102
RTVSPost2010Prop28
280
     0
102
RTVSPost2010PropOp28
 70
     1
102
RTVSPost2010Prop29
280
     1
102
RTVSPost2010PropOp29
 70
     1
102
RTVSPost2010Prop30
280
     1
102
RTVSPost2010PropOp30
 70
     1
102
RTVSPost2010Prop31
280
     0
102
RTVSPost2010PropOp31
 70
     1
102
RTVSPost2010Prop32
280
     0
102
RTVSPost2010PropOp32
 70
     1
102
RTVSPost2010Prop33
280
     0
102
RTVSPost2010PropOp33
 70
     1
102
RTVSPost2010Prop34
280
     0
102
RTVSPost2010PropOp34
 70
     1
102
RTVSPost2010Prop35
280
     0
102
RTVSPost2010PropOp35
 70
     1
102
RTVSPost2010Prop36
280
     0
102
RTVSPost2010PropOp36
 70
     1
102
RTVSPost2010Prop37
 90
       50
102
RTVSPost2010PropOp37
 70
     1
102
RTVSPost2010Prop38
140
0.0
102
RTVSPost2010PropOp38
 70
     1
102
RTVSPost2010Prop39
140
1.0
102
RTVSPost2010PropOp39
 70
     1
102
RTVSPost2010Prop40
 90
        0
102
RTVSPost2010PropOp40
 70
     1
102
RTVSPost2010Prop41ColorIndex
 90
       18
102
RTVSPost2010Prop41ColorRGB
 90
        0
102
RTVSPost2010PropOp41
 70
     1
102
RTVSPost2010Prop42
 90
       50
102
RTVSPost2010PropOp42
 70
     1
102
RTVSPost2010Prop43
 90
        3
102
RTVSPost2010PropOp43
 70
     1
102
RTVSPost2010Prop44ColorIndex
 90
        5
102
RTVSPost2010Prop44ColorRGB
 90
      255
102
RTVSPost2010PropOp44
 70
     1
102
RTVSPost2010Prop45
280
     0
102
RTVSPost2010PropOp45
 70
     1
102
RTVSPost2010Prop46
 90
       50
102
RTVSPost2010PropOp46
 70
     1
102
RTVSPost2010Prop47
 90
       50
102
RTVSPost2010PropOp47
 70
     1
102
RTVSPost2010Prop48
 90
       50
102
RTVSPost2010PropOp48
 70
     1
102
RTVSPost2010Prop49
280
     0
102
RTVSPost2010PropOp49
 70
     1
102
RTVSPost2010Prop50
 90
       50
102
RTVSPost2010PropOp50
 70
     1
102
RTVSPost2010Prop51ColorIndex
 90
      256
102
RTVSPost2010Prop51ColorRGB
 90
-16777216
102
RTVSPost2010PropOp51
 70
     0
102
RTVSPost2010Prop52
140
1.0
102
RTVSPost2010PropOp52
 70
     0
102
RTVSPost2010Prop53
 90
        2
102
RTVSPost2010PropOp53
 70
     1
102
RTVSPost2010Prop54
  1
strokes_ogs.tif
102
RTVSPost2010PropOp54
 70
     1
102
RTVSPost2010Prop55
280
     0
102
RTVSPost2010PropOp55
 70
     1
102
RTVSPost2010Prop56
140
1.0
102
RTVSPost2010PropOp56
 70
     1
102
RTVSPost2010Prop57
140
1.0
102
RTVSPost2010PropOp57
 70
     1
102
RTVSPropertyOp0
 70
     1
102
RTVSPropertyOp1
 70
     1
102
RTVSPropertyOp2
 70
     1
102
RTVSPropertyOp3
 70
     1
102
RTVSPropertyOp4
 70
     1
102
RTVSPropertyOp5
 70
     1
102
RTVSPropertyOp6
 70
     1
102
RTVSPropertyOp7
 70
     1
102
RTVSPropertyOp8
 70
     1
102
RTVSPropertyOp9
 70
     1
102
RTVSPropertyOp10
 70
     1
102
RTVSPropertyOp11
 70
     1
102
RTVSPropertyOp12
 70
     1
102
RTVSPropertyOp13
 70
     1
102
RTVSPropertyOp14
 70
     1
102
RTVSPropertyOp15
 70
     1
102
RTVSPropertyOp16
 70
     1
102
RTVSPropertyOp17
 70
     1
102
RTVSPropertyOp18
 70
     1
102
RTVSPropertyOp19
 70
     1
102
RTVSPropertyOp20
 70
     1
102
RTVSPropertyOp21
 70
     1
102
RTVSPropertyOp22
 70
     1
102
RTVSPropertyOp23
 70
     1
102
RTVSPropertyOp24
 70
     1
102
RTVSPropertyOp25
 70
     1
102
RTVSPropertyOp26
 70
     1
102
RTVSPropertyOp27
 70
     1
102
RTVSPropertyOp28
 70
     1
102
RTVSPropertyOp29
 70
     1
102
RTVSPropertyOp30
 70
     1
102
RTVSPropertyOp31
 70
     1
102
RTVSPropertyOp32
 70
     1
102
RTVSPropertyOp33
 70
     1
102
RTVSPropertyOp34
 70
     1
102
RTVSPropertyOp35
 70
     1
102
RTVSPropertyOp36
 70
     1
102
RTVSPropertyOp37
 70
     1
102
RTVSPropertyOp38
 70
     1
102
RTVSPropertyOp39
 70
     1
102
RTVSPropertyOp40
 70
     1
102
RTVSPropertyOp41
 70
     1
102
RTVSPropertyOp42
 70
     1
102
RTVSPropertyOp43
 70
     1
102
RTVSPropertyOp44
 70
     1
102
RTVSPropertyOp45
 70
     1
102
RTVSPropertyOp46
 70
     1
102
RTVSPropertyOp47
 70
     1
102
RTVSPropertyOp48
 70
     1
102
RTVSPropertyOp49
 70
     1
102
RTVSPropertyOp50
 70
     1
102
RTVSPropertyOp51
 70
     0
102
RTVSPropertyOp52
 70
     0
102
RTVSPropertyOp53
 70
     1
102
RTVSPropertyOp54
 70
     1
102
RTVSPropertyOp55
 70
     1
102
RTVSPropertyOp56
 70
     1
102
RTVSPropertyOp57
 70
     1
102
RTVSPropertyOp58
 70
     1
102
RTVSPropertyOp59
 70
     1
102
RTVSPropertyOp60
 70
     1
102
RTVSPropertyOp61
 70
     1
102
RTVSPropertyOp62
 70
     1
  0
XRECORD
  5
5A4
102
{ACAD_REACTORS
330
5A3
102
}
330
5A3
100
AcDbXrecord
280
     1
102
RTVSPost2010Prop28
280
     0
102
RTVSPost2010PropOp28
 70
     1
102
RTVSPost2010Prop29
280
     1
102
RTVSPost2010PropOp29
 70
     1
102
RTVSPost2010Prop30
280
     1
102
RTVSPost2010PropOp30
 70
     1
102
RTVSPost2010Prop31
280
     0
102
RTVSPost2010PropOp31
 70
     1
102
RTVSPost2010Prop32
280
     0
102
RTVSPost2010PropOp32
 70
     1
102
RTVSPost2010Prop33
280
     0
102
RTVSPost2010PropOp33
 70
     1
102
RTVSPost2010Prop34
280
     0
102
RTVSPost2010PropOp34
 70
     1
102
RTVSPost2010Prop35
280
     0
102
RTVSPost2010PropOp35
 70
     1
102
RTVSPost2010Prop36
280
     0
102
RTVSPost2010PropOp36
 70
     1
102
RTVSPost2010Prop37
 90
       50
102
RTVSPost2010PropOp37
 70
     1
102
RTVSPost2010Prop38
140
0.0
102
RTVSPost2010PropOp38
 70
     1
102
RTVSPost2010Prop39
140
1.0
102
RTVSPost2010PropOp39
 70
     1
102
RTVSPost2010Prop40
 90
        0
102
RTVSPost2010PropOp40
 70
     1
102
RTVSPost2010Prop41ColorIndex
 90
       18
102
RTVSPost2010Prop41ColorRGB
 90
        0
102
RTVSPost2010PropOp41
 70
     1
102
RTVSPost2010Prop42
 90
       50
102
RTVSPost2010PropOp42
 70
     1
102
RTVSPost2010Prop43
 90
        3
102
RTVSPost2010PropOp43
 70
     1
102
RTVSPost2010Prop44ColorIndex
 90
        5
102
RTVSPost2010Prop44ColorRGB
 90
      255
102
RTVSPost2010PropOp44
 70
     1
102
RTVSPost2010Prop45
280
     0
102
RTVSPost2010PropOp45
 70
     1
102
RTVSPost2010Prop46
 90
       50
102
RTVSPost2010PropOp46
 70
     1
102
RTVSPost2010Prop47
 90
       50
102
RTVSPost2010PropOp47
 70
     1
102
RTVSPost2010Prop48
 90
       50
102
RTVSPost2010PropOp48
 70
     1
102
RTVSPost2010Prop49
280
     0
102
RTVSPost2010PropOp49
 70
     1
102
RTVSPost2010Prop50
 90
       50
102
RTVSPost2010PropOp50
 70
     1
102
RTVSPost2010Prop51ColorIndex
 90
      256
102
RTVSPost2010Prop51ColorRGB
 90
-16777216
102
RTVSPost2010PropOp51
 70
     0
102
RTVSPost2010Prop52
140
1.0
102
RTVSPost2010PropOp52
 70
     0
102
RTVSPost2010Prop53
 90
        2
102
RTVSPost2010PropOp53
 70
     1
102
RTVSPost2010Prop54
  1
strokes_ogs.tif
102
RTVSPost2010PropOp54
 70
     1
102
RTVSPost2010Prop55
280
     0
102
RTVSPost2010PropOp55
 70
     1
102
RTVSPost2010Prop56
140
1.0
102
RTVSPost2010PropOp56
 70
     1
102
RTVSPost2010Prop57
140
1.0
102
RTVSPost2010PropOp57
 70
     1
102
RTVSPropertyOp0
 70
     1
102
RTVSPropertyOp1
 70
     1
102
RTVSPropertyOp2
 70
     1
102
RTVSPropertyOp3
 70
     1
102
RTVSPropertyOp4
 70
     1
102
RTVSPropertyOp5
 70
     1
102
RTVSPropertyOp6
 70
     1
102
RTVSPropertyOp7
 70
     1
102
RTVSPropertyOp8
 70
     1
102
RTVSPropertyOp9
 70
     1
102
RTVSPropertyOp10
 70
     1
102
RTVSPropertyOp11
 70
     1
102
RTVSPropertyOp12
 70
     1
102
RTVSPropertyOp13
 70
     1
102
RTVSPropertyOp14
 70
     1
102
RTVSPropertyOp15
 70
     1
102
RTVSPropertyOp16
 70
     1
102
RTVSPropertyOp17
 70
     1
102
RTVSPropertyOp18
 70
     1
102
RTVSPropertyOp19
 70
     1
102
RTVSPropertyOp20
 70
     1
102
RTVSPropertyOp21
 70
     1
102
RTVSPropertyOp22
 70
     1
102
RTVSPropertyOp23
 70
     1
102
RTVSPropertyOp24
 70
     1
102
RTVSPropertyOp25
 70
     1
102
RTVSPropertyOp26
 70
     1
102
RTVSPropertyOp27
 70
     1
102
RTVSPropertyOp28
 70
     1
102
RTVSPropertyOp29
 70
     1
102
RTVSPropertyOp30
 70
     1
102
RTVSPropertyOp31
 70
     1
102
RTVSPropertyOp32
 70
     1
102
RTVSPropertyOp33
 70
     1
102
RTVSPropertyOp34
 70
     1
102
RTVSPropertyOp35
 70
     1
102
RTVSPropertyOp36
 70
     1
102
RTVSPropertyOp37
 70
     1
102
RTVSPropertyOp38
 70
     1
102
RTVSPropertyOp39
 70
     1
102
RTVSPropertyOp40
 70
     1
102
RTVSPropertyOp41
 70
     1
102
RTVSPropertyOp42
 70
     1
102
RTVSPropertyOp43
 70
     1
102
RTVSPropertyOp44
 70
     1
102
RTVSPropertyOp45
 70
     1
102
RTVSPropertyOp46
 70
     1
102
RTVSPropertyOp47
 70
     1
102
RTVSPropertyOp48
 70
     1
102
RTVSPropertyOp49
 70
     1
102
RTVSPropertyOp50
 70
     1
102
RTVSPropertyOp51
 70
     0
102
RTVSPropertyOp52
 70
     0
102
RTVSPropertyOp53
 70
     1
102
RTVSPropertyOp54
 70
     1
102
RTVSPropertyOp55
 70
     1
102
RTVSPropertyOp56
 70
     1
102
RTVSPropertyOp57
 70
     1
102
RTVSPropertyOp58
 70
     1
102
RTVSPropertyOp59
 70
     1
102
RTVSPropertyOp60
 70
     1
102
RTVSPropertyOp61
 70
     1
102
RTVSPropertyOp62
 70
     1
  0
XRECORD
  5
5AC
102
{ACAD_REACTORS
330
5AB
102
}
330
5AB
100
AcDbXrecord
280
     1
102
RTVSPost2010Prop28
280
     0
102
RTVSPost2010PropOp28
 70
     1
102
RTVSPost2010Prop29
280
     1
102
RTVSPost2010PropOp29
 70
     1
102
RTVSPost2010Prop30
280
     1
102
RTVSPost2010PropOp30
 70
     1
102
RTVSPost2010Prop31
280
     0
102
RTVSPost2010PropOp31
 70
     1
102
RTVSPost2010Prop32
280
     0
102
RTVSPost2010PropOp32
 70
     1
102
RTVSPost2010Prop33
280
     0
102
RTVSPost2010PropOp33
 70
     1
102
RTVSPost2010Prop34
280
     0
102
RTVSPost2010PropOp34
 70
     1
102
RTVSPost2010Prop35
280
     0
102
RTVSPost2010PropOp35
 70
     1
102
RTVSPost2010Prop36
280
     0
102
RTVSPost2010PropOp36
 70
     1
102
RTVSPost2010Prop37
 90
       50
102
RTVSPost2010PropOp37
 70
     1
102
RTVSPost2010Prop38
140
0.0
102
RTVSPost2010PropOp38
 70
     1
102
RTVSPost2010Prop39
140
1.0
102
RTVSPost2010PropOp39
 70
     1
102
RTVSPost2010Prop40
 90
        0
102
RTVSPost2010PropOp40
 70
     1
102
RTVSPost2010Prop41ColorIndex
 90
       18
102
RTVSPost2010Prop41ColorRGB
 90
        0
102
RTVSPost2010PropOp41
 70
     1
102
RTVSPost2010Prop42
 90
       50
102
RTVSPost2010PropOp42
 70
     1
102
RTVSPost2010Prop43
 90
        3
102
RTVSPost2010PropOp43
 70
     1
102
RTVSPost2010Prop44ColorIndex
 90
        5
102
RTVSPost2010Prop44ColorRGB
 90
      255
102
RTVSPost2010PropOp44
 70
     1
102
RTVSPost2010Prop45
280
     0
102
RTVSPost2010PropOp45
 70
     1
102
RTVSPost2010Prop46
 90
       50
102
RTVSPost2010PropOp46
 70
     1
102
RTVSPost2010Prop47
 90
       50
102
RTVSPost2010PropOp47
 70
     1
102
RTVSPost2010Prop48
 90
       50
102
RTVSPost2010PropOp48
 70
     1
102
RTVSPost2010Prop49
280
     0
102
RTVSPost2010PropOp49
 70
     1
102
RTVSPost2010Prop50
 90
       50
102
RTVSPost2010PropOp50
 70
     1
102
RTVSPost2010Prop51ColorIndex
 90
      256
102
RTVSPost2010Prop51ColorRGB
 90
-16777216
102
RTVSPost2010PropOp51
 70
     0
102
RTVSPost2010Prop52
140
1.0
102
RTVSPost2010PropOp52
 70
     0
102
RTVSPost2010Prop53
 90
        2
102
RTVSPost2010PropOp53
 70
     1
102
RTVSPost2010Prop54
  1
strokes_ogs.tif
102
RTVSPost2010PropOp54
 70
     1
102
RTVSPost2010Prop55
280
     0
102
RTVSPost2010PropOp55
 70
     1
102
RTVSPost2010Prop56
140
1.0
102
RTVSPost2010PropOp56
 70
     1
102
RTVSPost2010Prop57
140
1.0
102
RTVSPost2010PropOp57
 70
     1
102
RTVSPropertyOp0
 70
     1
102
RTVSPropertyOp1
 70
     1
102
RTVSPropertyOp2
 70
     1
102
RTVSPropertyOp3
 70
     1
102
RTVSPropertyOp4
 70
     1
102
RTVSPropertyOp5
 70
     1
102
RTVSPropertyOp6
 70
     1
102
RTVSPropertyOp7
 70
     1
102
RTVSPropertyOp8
 70
     1
102
RTVSPropertyOp9
 70
     1
102
RTVSPropertyOp10
 70
     1
102
RTVSPropertyOp11
 70
     1
102
RTVSPropertyOp12
 70
     1
102
RTVSPropertyOp13
 70
     1
102
RTVSPropertyOp14
 70
     1
102
RTVSPropertyOp15
 70
     1
102
RTVSPropertyOp16
 70
     1
102
RTVSPropertyOp17
 70
     1
102
RTVSPropertyOp18
 70
     1
102
RTVSPropertyOp19
 70
     1
102
RTVSPropertyOp20
 70
     1
102
RTVSPropertyOp21
 70
     1
102
RTVSPropertyOp22
 70
     1
102
RTVSPropertyOp23
 70
     1
102
RTVSPropertyOp24
 70
     1
102
RTVSPropertyOp25
 70
     1
102
RTVSPropertyOp26
 70
     1
102
RTVSPropertyOp27
 70
     1
102
RTVSPropertyOp28
 70
     1
102
RTVSPropertyOp29
 70
     1
102
RTVSPropertyOp30
 70
     1
102
RTVSPropertyOp31
 70
     1
102
RTVSPropertyOp32
 70
     1
102
RTVSPropertyOp33
 70
     1
102
RTVSPropertyOp34
 70
     1
102
RTVSPropertyOp35
 70
     1
102
RTVSPropertyOp36
 70
     1
102
RTVSPropertyOp37
 70
     1
102
RTVSPropertyOp38
 70
     1
102
RTVSPropertyOp39
 70
     1
102
RTVSPropertyOp40
 70
     1
102
RTVSPropertyOp41
 70
     1
102
RTVSPropertyOp42
 70
     1
102
RTVSPropertyOp43
 70
     1
102
RTVSPropertyOp44
 70
     1
102
RTVSPropertyOp45
 70
     1
102
RTVSPropertyOp46
 70
     1
102
RTVSPropertyOp47
 70
     1
102
RTVSPropertyOp48
 70
     1
102
RTVSPropertyOp49
 70
     1
102
RTVSPropertyOp50
 70
     1
102
RTVSPropertyOp51
 70
     0
102
RTVSPropertyOp52
 70
     0
102
RTVSPropertyOp53
 70
     1
102
RTVSPropertyOp54
 70
     1
102
RTVSPropertyOp55
 70
     1
102
RTVSPropertyOp56
 70
     1
102
RTVSPropertyOp57
 70
     1
102
RTVSPropertyOp58
 70
     1
102
RTVSPropertyOp59
 70
     1
102
RTVSPropertyOp60
 70
     1
102
RTVSPropertyOp61
 70
     1
102
RTVSPropertyOp62
 70
     1
  0
XRECORD
  5
59E
102
{ACAD_REACTORS
330
59D
102
}
330
59D
100
AcDbXrecord
280
     1
102
RTVSPost2010Prop28
280
     0
102
RTVSPost2010PropOp28
 70
     1
102
RTVSPost2010Prop29
280
     1
102
RTVSPost2010PropOp29
 70
     1
102
RTVSPost2010Prop30
280
     1
102
RTVSPost2010PropOp30
 70
     1
102
RTVSPost2010Prop31
280
     0
102
RTVSPost2010PropOp31
 70
     1
102
RTVSPost2010Prop32
280
     0
102
RTVSPost2010PropOp32
 70
     1
102
RTVSPost2010Prop33
280
     0
102
RTVSPost2010PropOp33
 70
     1
102
RTVSPost2010Prop34
280
     0
102
RTVSPost2010PropOp34
 70
     1
102
RTVSPost2010Prop35
280
     0
102
RTVSPost2010PropOp35
 70
     1
102
RTVSPost2010Prop36
280
     0
102
RTVSPost2010PropOp36
 70
     1
102
RTVSPost2010Prop37
 90
       50
102
RTVSPost2010PropOp37
 70
     1
102
RTVSPost2010Prop38
140
0.0
102
RTVSPost2010PropOp38
 70
     1
102
RTVSPost2010Prop39
140
1.0
102
RTVSPost2010PropOp39
 70
     1
102
RTVSPost2010Prop40
 90
        0
102
RTVSPost2010PropOp40
 70
     1
102
RTVSPost2010Prop41ColorIndex
 90
       18
102
RTVSPost2010Prop41ColorRGB
 90
        0
102
RTVSPost2010PropOp41
 70
     1
102
RTVSPost2010Prop42
 90
       50
102
RTVSPost2010PropOp42
 70
     1
102
RTVSPost2010Prop43
 90
        3
102
RTVSPost2010PropOp43
 70
     1
102
RTVSPost2010Prop44ColorIndex
 90
        5
102
RTVSPost2010Prop44ColorRGB
 90
      255
102
RTVSPost2010PropOp44
 70
     1
102
RTVSPost2010Prop45
280
     0
102
RTVSPost2010PropOp45
 70
     1
102
RTVSPost2010Prop46
 90
       50
102
RTVSPost2010PropOp46
 70
     1
102
RTVSPost2010Prop47
 90
       50
102
RTVSPost2010PropOp47
 70
     1
102
RTVSPost2010Prop48
 90
       50
102
RTVSPost2010PropOp48
 70
     1
102
RTVSPost2010Prop49
280
     0
102
RTVSPost2010PropOp49
 70
     1
102
RTVSPost2010Prop50
 90
       50
102
RTVSPost2010PropOp50
 70
     1
102
RTVSPost2010Prop51ColorIndex
 90
      256
102
RTVSPost2010Prop51ColorRGB
 90
-16777216
102
RTVSPost2010PropOp51
 70
     0
102
RTVSPost2010Prop52
140
1.0
102
RTVSPost2010PropOp52
 70
     0
102
RTVSPost2010Prop53
 90
        2
102
RTVSPost2010PropOp53
 70
     1
102
RTVSPost2010Prop54
  1
strokes_ogs.tif
102
RTVSPost2010PropOp54
 70
     1
102
RTVSPost2010Prop55
280
     0
102
RTVSPost2010PropOp55
 70
     1
102
RTVSPost2010Prop56
140
1.0
102
RTVSPost2010PropOp56
 70
     1
102
RTVSPost2010Prop57
140
1.0
102
RTVSPost2010PropOp57
 70
     1
102
RTVSPropertyOp0
 70
     1
102
RTVSPropertyOp1
 70
     1
102
RTVSPropertyOp2
 70
     1
102
RTVSPropertyOp3
 70
     1
102
RTVSPropertyOp4
 70
     1
102
RTVSPropertyOp5
 70
     1
102
RTVSPropertyOp6
 70
     1
102
RTVSPropertyOp7
 70
     1
102
RTVSPropertyOp8
 70
     1
102
RTVSPropertyOp9
 70
     1
102
RTVSPropertyOp10
 70
     1
102
RTVSPropertyOp11
 70
     1
102
RTVSPropertyOp12
 70
     1
102
RTVSPropertyOp13
 70
     1
102
RTVSPropertyOp14
 70
     1
102
RTVSPropertyOp15
 70
     1
102
RTVSPropertyOp16
 70
     1
102
RTVSPropertyOp17
 70
     1
102
RTVSPropertyOp18
 70
     1
102
RTVSPropertyOp19
 70
     1
102
RTVSPropertyOp20
 70
     1
102
RTVSPropertyOp21
 70
     1
102
RTVSPropertyOp22
 70
     1
102
RTVSPropertyOp23
 70
     1
102
RTVSPropertyOp24
 70
     1
102
RTVSPropertyOp25
 70
     1
102
RTVSPropertyOp26
 70
     1
102
RTVSPropertyOp27
 70
     1
102
RTVSPropertyOp28
 70
     1
102
RTVSPropertyOp29
 70
     1
102
RTVSPropertyOp30
 70
     1
102
RTVSPropertyOp31
 70
     1
102
RTVSPropertyOp32
 70
     1
102
RTVSPropertyOp33
 70
     1
102
RTVSPropertyOp34
 70
     1
102
RTVSPropertyOp35
 70
     1
102
RTVSPropertyOp36
 70
     1
102
RTVSPropertyOp37
 70
     1
102
RTVSPropertyOp38
 70
     1
102
RTVSPropertyOp39
 70
     1
102
RTVSPropertyOp40
 70
     1
102
RTVSPropertyOp41
 70
     1
102
RTVSPropertyOp42
 70
     1
102
RTVSPropertyOp43
 70
     1
102
RTVSPropertyOp44
 70
     1
102
RTVSPropertyOp45
 70
     1
102
RTVSPropertyOp46
 70
     1
102
RTVSPropertyOp47
 70
     1
102
RTVSPropertyOp48
 70
     1
102
RTVSPropertyOp49
 70
     1
102
RTVSPropertyOp50
 70
     1
102
RTVSPropertyOp51
 70
     0
102
RTVSPropertyOp52
 70
     0
102
RTVSPropertyOp53
 70
     1
102
RTVSPropertyOp54
 70
     1
102
RTVSPropertyOp55
 70
     1
102
RTVSPropertyOp56
 70
     1
102
RTVSPropertyOp57
 70
     1
102
RTVSPropertyOp58
 70
     1
102
RTVSPropertyOp59
 70
     1
102
RTVSPropertyOp60
 70
     1
102
RTVSPropertyOp61
 70
     1
102
RTVSPropertyOp62
 70
     1
  0
XRECORD
  5
5A2
102
{ACAD_REACTORS
330
5A1
102
}
330
5A1
100
AcDbXrecord
280
     1
102
RTVSPost2010Prop28
280
     0
102
RTVSPost2010PropOp28
 70
     1
102
RTVSPost2010Prop29
280
     1
102
RTVSPost2010PropOp29
 70
     1
102
RTVSPost2010Prop30
280
     1
102
RTVSPost2010PropOp30
 70
     1
102
RTVSPost2010Prop31
280
     0
102
RTVSPost2010PropOp31
 70
     1
102
RTVSPost2010Prop32
280
     0
102
RTVSPost2010PropOp32
 70
     1
102
RTVSPost2010Prop33
280
     0
102
RTVSPost2010PropOp33
 70
     1
102
RTVSPost2010Prop34
280
     0
102
RTVSPost2010PropOp34
 70
     1
102
RTVSPost2010Prop35
280
     0
102
RTVSPost2010PropOp35
 70
     1
102
RTVSPost2010Prop36
280
     0
102
RTVSPost2010PropOp36
 70
     1
102
RTVSPost2010Prop37
 90
       50
102
RTVSPost2010PropOp37
 70
     1
102
RTVSPost2010Prop38
140
0.0
102
RTVSPost2010PropOp38
 70
     1
102
RTVSPost2010Prop39
140
1.0
102
RTVSPost2010PropOp39
 70
     1
102
RTVSPost2010Prop40
 90
        0
102
RTVSPost2010PropOp40
 70
     1
102
RTVSPost2010Prop41ColorIndex
 90
       18
102
RTVSPost2010Prop41ColorRGB
 90
        0
102
RTVSPost2010PropOp41
 70
     1
102
RTVSPost2010Prop42
 90
       50
102
RTVSPost2010PropOp42
 70
     1
102
RTVSPost2010Prop43
 90
        3
102
RTVSPost2010PropOp43
 70
     1
102
RTVSPost2010Prop44ColorIndex
 90
        5
102
RTVSPost2010Prop44ColorRGB
 90
      255
102
RTVSPost2010PropOp44
 70
     1
102
RTVSPost2010Prop45
280
     0
102
RTVSPost2010PropOp45
 70
     1
102
RTVSPost2010Prop46
 90
       50
102
RTVSPost2010PropOp46
 70
     1
102
RTVSPost2010Prop47
 90
       50
102
RTVSPost2010PropOp47
 70
     1
102
RTVSPost2010Prop48
 90
       50
102
RTVSPost2010PropOp48
 70
     1
102
RTVSPost2010Prop49
280
     0
102
RTVSPost2010PropOp49
 70
     1
102
RTVSPost2010Prop50
 90
       50
102
RTVSPost2010PropOp50
 70
     1
102
RTVSPost2010Prop51ColorIndex
 90
      256
102
RTVSPost2010Prop51ColorRGB
 90
-16777216
102
RTVSPost2010PropOp51
 70
     0
102
RTVSPost2010Prop52
140
1.0
102
RTVSPost2010PropOp52
 70
     0
102
RTVSPost2010Prop53
 90
        2
102
RTVSPost2010PropOp53
 70
     1
102
RTVSPost2010Prop54
  1
strokes_ogs.tif
102
RTVSPost2010PropOp54
 70
     1
102
RTVSPost2010Prop55
280
     0
102
RTVSPost2010PropOp55
 70
     1
102
RTVSPost2010Prop56
140
1.0
102
RTVSPost2010PropOp56
 70
     1
102
RTVSPost2010Prop57
140
1.0
102
RTVSPost2010PropOp57
 70
     1
102
RTVSPropertyOp0
 70
     1
102
RTVSPropertyOp1
 70
     1
102
RTVSPropertyOp2
 70
     1
102
RTVSPropertyOp3
 70
     1
102
RTVSPropertyOp4
 70
     1
102
RTVSPropertyOp5
 70
     1
102
RTVSPropertyOp6
 70
     1
102
RTVSPropertyOp7
 70
     1
102
RTVSPropertyOp8
 70
     1
102
RTVSPropertyOp9
 70
     1
102
RTVSPropertyOp10
 70
     1
102
RTVSPropertyOp11
 70
     1
102
RTVSPropertyOp12
 70
     1
102
RTVSPropertyOp13
 70
     1
102
RTVSPropertyOp14
 70
     1
102
RTVSPropertyOp15
 70
     1
102
RTVSPropertyOp16
 70
     1
102
RTVSPropertyOp17
 70
     1
102
RTVSPropertyOp18
 70
     1
102
RTVSPropertyOp19
 70
     1
102
RTVSPropertyOp20
 70
     1
102
RTVSPropertyOp21
 70
     1
102
RTVSPropertyOp22
 70
     1
102
RTVSPropertyOp23
 70
     1
102
RTVSPropertyOp24
 70
     1
102
RTVSPropertyOp25
 70
     1
102
RTVSPropertyOp26
 70
     1
102
RTVSPropertyOp27
 70
     1
102
RTVSPropertyOp28
 70
     1
102
RTVSPropertyOp29
 70
     1
102
RTVSPropertyOp30
 70
     1
102
RTVSPropertyOp31
 70
     1
102
RTVSPropertyOp32
 70
     1
102
RTVSPropertyOp33
 70
     1
102
RTVSPropertyOp34
 70
     1
102
RTVSPropertyOp35
 70
     1
102
RTVSPropertyOp36
 70
     1
102
RTVSPropertyOp37
 70
     1
102
RTVSPropertyOp38
 70
     1
102
RTVSPropertyOp39
 70
     1
102
RTVSPropertyOp40
 70
     1
102
RTVSPropertyOp41
 70
     1
102
RTVSPropertyOp42
 70
     1
102
RTVSPropertyOp43
 70
     1
102
RTVSPropertyOp44
 70
     1
102
RTVSPropertyOp45
 70
     1
102
RTVSPropertyOp46
 70
     1
102
RTVSPropertyOp47
 70
     1
102
RTVSPropertyOp48
 70
     1
102
RTVSPropertyOp49
 70
     1
102
RTVSPropertyOp50
 70
     1
102
RTVSPropertyOp51
 70
     0
102
RTVSPropertyOp52
 70
     0
102
RTVSPropertyOp53
 70
     1
102
RTVSPropertyOp54
 70
     1
102
RTVSPropertyOp55
 70
     1
102
RTVSPropertyOp56
 70
     1
102
RTVSPropertyOp57
 70
     1
102
RTVSPropertyOp58
 70
     1
102
RTVSPropertyOp59
 70
     1
102
RTVSPropertyOp60
 70
     1
102
RTVSPropertyOp61
 70
     1
102
RTVSPropertyOp62
 70
     1
  0
XRECORD
  5
5BC
102
{ACAD_REACTORS
330
5BB
102
}
330
5BB
100
AcDbXrecord
280
     1
102
RTVSPost2010Prop28
280
     0
102
RTVSPost2010PropOp28
 70
     1
102
RTVSPost2010Prop29
280
     1
102
RTVSPost2010PropOp29
 70
     1
102
RTVSPost2010Prop30
280
     1
102
RTVSPost2010PropOp30
 70
     1
102
RTVSPost2010Prop31
280
     0
102
RTVSPost2010PropOp31
 70
     1
102
RTVSPost2010Prop32
280
     0
102
RTVSPost2010PropOp32
 70
     1
102
RTVSPost2010Prop33
280
     0
102
RTVSPost2010PropOp33
 70
     1
102
RTVSPost2010Prop34
280
     0
102
RTVSPost2010PropOp34
 70
     1
102
RTVSPost2010Prop35
280
     0
102
RTVSPost2010PropOp35
 70
     1
102
RTVSPost2010Prop36
280
     0
102
RTVSPost2010PropOp36
 70
     1
102
RTVSPost2010Prop37
 90
       50
102
RTVSPost2010PropOp37
 70
     0
102
RTVSPost2010Prop38
140
0.0
102
RTVSPost2010PropOp38
 70
     0
102
RTVSPost2010Prop39
140
1.0
102
RTVSPost2010PropOp39
 70
     0
102
RTVSPost2010Prop40
 90
        0
102
RTVSPost2010PropOp40
 70
     0
102
RTVSPost2010Prop41ColorIndex
 90
       18
102
RTVSPost2010Prop41ColorRGB
 90
        0
102
RTVSPost2010PropOp41
 70
     0
102
RTVSPost2010Prop42
 90
       50
102
RTVSPost2010PropOp42
 70
     0
102
RTVSPost2010Prop43
 90
        3
102
RTVSPost2010PropOp43
 70
     0
102
RTVSPost2010Prop44ColorIndex
 90
        5
102
RTVSPost2010Prop44ColorRGB
 90
      255
102
RTVSPost2010PropOp44
 70
     0
102
RTVSPost2010Prop45
280
     0
102
RTVSPost2010PropOp45
 70
     1
102
RTVSPost2010Prop46
 90
       50
102
RTVSPost2010PropOp46
 70
     0
102
RTVSPost2010Prop47
 90
       50
102
RTVSPost2010PropOp47
 70
     0
102
RTVSPost2010Prop48
 90
       50
102
RTVSPost2010PropOp48
 70
     0
102
RTVSPost2010Prop49
280
     0
102
RTVSPost2010PropOp49
 70
     1
102
RTVSPost2010Prop50
 90
       50
102
RTVSPost2010PropOp50
 70
     0
102
RTVSPost2010Prop51ColorIndex
 90
      256
102
RTVSPost2010Prop51ColorRGB
 90
-16777216
102
RTVSPost2010PropOp51
 70
     0
102
RTVSPost2010Prop52
140
1.0
102
RTVSPost2010PropOp52
 70
     0
102
RTVSPost2010Prop53
 90
        2
102
RTVSPost2010PropOp53
 70
     0
102
RTVSPost2010Prop54
  1
strokes_ogs.tif
102
RTVSPost2010PropOp54
 70
     0
102
RTVSPost2010Prop55
280
     0
102
RTVSPost2010PropOp55
 70
     1
102
RTVSPost2010Prop56
140
1.0
102
RTVSPost2010PropOp56
 70
     0
102
RTVSPost2010Prop57
140
1.0
102
RTVSPost2010PropOp57
 70
     0
102
RTVSPropertyOp0
 70
     0
102
RTVSPropertyOp1
 70
     0
102
RTVSPropertyOp2
 70
     0
102
RTVSPropertyOp3
 70
     0
102
RTVSPropertyOp4
 70
     0
102
RTVSPropertyOp5
 70
     0
102
RTVSPropertyOp6
 70
     0
102
RTVSPropertyOp7
 70
     0
102
RTVSPropertyOp8
 70
     0
102
RTVSPropertyOp9
 70
     0
102
RTVSPropertyOp10
 70
     0
102
RTVSPropertyOp11
 70
     0
102
RTVSPropertyOp12
 70
     0
102
RTVSPropertyOp13
 70
     0
102
RTVSPropertyOp14
 70
     2
102
RTVSPropertyOp15
 70
     0
102
RTVSPropertyOp16
 70
     0
102
RTVSPropertyOp17
 70
     0
102
RTVSPropertyOp18
 70
     0
102
RTVSPropertyOp19
 70
     0
102
RTVSPropertyOp20
 70
     0
102
RTVSPropertyOp21
 70
     0
102
RTVSPropertyOp22
 70
     0
102
RTVSPropertyOp23
 70
     0
102
RTVSPropertyOp24
 70
     0
102
RTVSPropertyOp25
 70
     0
102
RTVSPropertyOp26
 70
     0
102
RTVSPropertyOp27
 70
     0
102
RTVSPropertyOp28
 70
     1
102
RTVSPropertyOp29
 70
     1
102
RTVSPropertyOp30
 70
     1
102
RTVSPropertyOp31
 70
     1
102
RTVSPropertyOp32
 70
     1
102
RTVSPropertyOp33
 70
     1
102
RTVSPropertyOp34
 70
     1
102
RTVSPropertyOp35
 70
     1
102
RTVSPropertyOp36
 70
     1
102
RTVSPropertyOp37
 70
     0
102
RTVSPropertyOp38
 70
     0
102
RTVSPropertyOp39
 70
     0
102
RTVSPropertyOp40
 70
     0
102
RTVSPropertyOp41
 70
     0
102
RTVSPropertyOp42
 70
     0
102
RTVSPropertyOp43
 70
     0
102
RTVSPropertyOp44
 70
     0
102
RTVSPropertyOp45
 70
     1
102
RTVSPropertyOp46
 70
     0
102
RTVSPropertyOp47
 70
     0
102
RTVSPropertyOp48
 70
     0
102
RTVSPropertyOp49
 70
     1
102
RTVSPropertyOp50
 70
     0
102
RTVSPropertyOp51
 70
     0
102
RTVSPropertyOp52
 70
     0
102
RTVSPropertyOp53
 70
     0
102
RTVSPropertyOp54
 70
     0
102
RTVSPropertyOp55
 70
     1
102
RTVSPropertyOp56
 70
     0
102
RTVSPropertyOp57
 70
     0
102
RTVSPropertyOp58
 70
     0
102
RTVSPropertyOp59
 70
     0
102
RTVSPropertyOp60
 70
     0
102
RTVSPropertyOp61
 70
     0
102
RTVSPropertyOp62
 70
     0
  0
XRECORD
  5
5AA
102
{ACAD_REACTORS
330
5A9
102
}
330
5A9
100
AcDbXrecord
280
     1
102
RTVSPost2010Prop28
280
     0
102
RTVSPost2010PropOp28
 70
     1
102
RTVSPost2010Prop29
280
     1
102
RTVSPost2010PropOp29
 70
     1
102
RTVSPost2010Prop30
280
     1
102
RTVSPost2010PropOp30
 70
     1
102
RTVSPost2010Prop31
280
     0
102
RTVSPost2010PropOp31
 70
     1
102
RTVSPost2010Prop32
280
     0
102
RTVSPost2010PropOp32
 70
     1
102
RTVSPost2010Prop33
280
     0
102
RTVSPost2010PropOp33
 70
     1
102
RTVSPost2010Prop34
280
     0
102
RTVSPost2010PropOp34
 70
     1
102
RTVSPost2010Prop35
280
     0
102
RTVSPost2010PropOp35
 70
     1
102
RTVSPost2010Prop36
280
     0
102
RTVSPost2010PropOp36
 70
     1
102
RTVSPost2010Prop37
 90
       50
102
RTVSPost2010PropOp37
 70
     1
102
RTVSPost2010Prop38
140
0.0
102
RTVSPost2010PropOp38
 70
     1
102
RTVSPost2010Prop39
140
1.0
102
RTVSPost2010PropOp39
 70
     1
102
RTVSPost2010Prop40
 90
        0
102
RTVSPost2010PropOp40
 70
     1
102
RTVSPost2010Prop41ColorIndex
 90
       18
102
RTVSPost2010Prop41ColorRGB
 90
        0
102
RTVSPost2010PropOp41
 70
     1
102
RTVSPost2010Prop42
 90
       50
102
RTVSPost2010PropOp42
 70
     1
102
RTVSPost2010Prop43
 90
        3
102
RTVSPost2010PropOp43
 70
     1
102
RTVSPost2010Prop44ColorIndex
 90
        5
102
RTVSPost2010Prop44ColorRGB
 90
      255
102
RTVSPost2010PropOp44
 70
     1
102
RTVSPost2010Prop45
280
     0
102
RTVSPost2010PropOp45
 70
     1
102
RTVSPost2010Prop46
 90
       50
102
RTVSPost2010PropOp46
 70
     1
102
RTVSPost2010Prop47
 90
       50
102
RTVSPost2010PropOp47
 70
     1
102
RTVSPost2010Prop48
 90
       50
102
RTVSPost2010PropOp48
 70
     1
102
RTVSPost2010Prop49
280
     0
102
RTVSPost2010PropOp49
 70
     1
102
RTVSPost2010Prop50
 90
       50
102
RTVSPost2010PropOp50
 70
     1
102
RTVSPost2010Prop51ColorIndex
 90
      256
102
RTVSPost2010Prop51ColorRGB
 90
-16777216
102
RTVSPost2010PropOp51
 70
     0
102
RTVSPost2010Prop52
140
1.0
102
RTVSPost2010PropOp52
 70
     0
102
RTVSPost2010Prop53
 90
        2
102
RTVSPost2010PropOp53
 70
     1
102
RTVSPost2010Prop54
  1
strokes_ogs.tif
102
RTVSPost2010PropOp54
 70
     1
102
RTVSPost2010Prop55
280
     0
102
RTVSPost2010PropOp55
 70
     1
102
RTVSPost2010Prop56
140
1.0
102
RTVSPost2010PropOp56
 70
     1
102
RTVSPost2010Prop57
140
1.0
102
RTVSPost2010PropOp57
 70
     1
102
RTVSPropertyOp0
 70
     1
102
RTVSPropertyOp1
 70
     1
102
RTVSPropertyOp2
 70
     1
102
RTVSPropertyOp3
 70
     1
102
RTVSPropertyOp4
 70
     1
102
RTVSPropertyOp5
 70
     1
102
RTVSPropertyOp6
 70
     1
102
RTVSPropertyOp7
 70
     1
102
RTVSPropertyOp8
 70
     1
102
RTVSPropertyOp9
 70
     1
102
RTVSPropertyOp10
 70
     1
102
RTVSPropertyOp11
 70
     1
102
RTVSPropertyOp12
 70
     1
102
RTVSPropertyOp13
 70
     1
102
RTVSPropertyOp14
 70
     1
102
RTVSPropertyOp15
 70
     1
102
RTVSPropertyOp16
 70
     1
102
RTVSPropertyOp17
 70
     1
102
RTVSPropertyOp18
 70
     1
102
RTVSPropertyOp19
 70
     1
102
RTVSPropertyOp20
 70
     1
102
RTVSPropertyOp21
 70
     1
102
RTVSPropertyOp22
 70
     1
102
RTVSPropertyOp23
 70
     1
102
RTVSPropertyOp24
 70
     1
102
RTVSPropertyOp25
 70
     1
102
RTVSPropertyOp26
 70
     1
102
RTVSPropertyOp27
 70
     1
102
RTVSPropertyOp28
 70
     1
102
RTVSPropertyOp29
 70
     1
102
RTVSPropertyOp30
 70
     1
102
RTVSPropertyOp31
 70
     1
102
RTVSPropertyOp32
 70
     1
102
RTVSPropertyOp33
 70
     1
102
RTVSPropertyOp34
 70
     1
102
RTVSPropertyOp35
 70
     1
102
RTVSPropertyOp36
 70
     1
102
RTVSPropertyOp37
 70
     1
102
RTVSPropertyOp38
 70
     1
102
RTVSPropertyOp39
 70
     1
102
RTVSPropertyOp40
 70
     1
102
RTVSPropertyOp41
 70
     1
102
RTVSPropertyOp42
 70
     1
102
RTVSPropertyOp43
 70
     1
102
RTVSPropertyOp44
 70
     1
102
RTVSPropertyOp45
 70
     1
102
RTVSPropertyOp46
 70
     1
102
RTVSPropertyOp47
 70
     1
102
RTVSPropertyOp48
 70
     1
102
RTVSPropertyOp49
 70
     1
102
RTVSPropertyOp50
 70
     1
102
RTVSPropertyOp51
 70
     0
102
RTVSPropertyOp52
 70
     0
102
RTVSPropertyOp53
 70
     1
102
RTVSPropertyOp54
 70
     1
102
RTVSPropertyOp55
 70
     1
102
RTVSPropertyOp56
 70
     1
102
RTVSPropertyOp57
 70
     1
102
RTVSPropertyOp58
 70
     1
102
RTVSPropertyOp59
 70
     1
102
RTVSPropertyOp60
 70
     1
102
RTVSPropertyOp61
 70
     1
102
RTVSPropertyOp62
 70
     1
  0
XRECORD
  5
58E
102
{ACAD_REACTORS
330
58D
102
}
330
58D
100
AcDbXrecord
280
     1
102
RTVSPost2010Prop28
280
     0
102
RTVSPost2010PropOp28
 70
     1
102
RTVSPost2010Prop29
280
     1
102
RTVSPost2010PropOp29
 70
     1
102
RTVSPost2010Prop30
280
     1
102
RTVSPost2010PropOp30
 70
     1
102
RTVSPost2010Prop31
280
     0
102
RTVSPost2010PropOp31
 70
     1
102
RTVSPost2010Prop32
280
     0
102
RTVSPost2010PropOp32
 70
     1
102
RTVSPost2010Prop33
280
     0
102
RTVSPost2010PropOp33
 70
     1
102
RTVSPost2010Prop34
280
     0
102
RTVSPost2010PropOp34
 70
     1
102
RTVSPost2010Prop35
280
     0
102
RTVSPost2010PropOp35
 70
     1
102
RTVSPost2010Prop36
280
     0
102
RTVSPost2010PropOp36
 70
     1
102
RTVSPost2010Prop37
 90
       50
102
RTVSPost2010PropOp37
 70
     1
102
RTVSPost2010Prop38
140
0.0
102
RTVSPost2010PropOp38
 70
     1
102
RTVSPost2010Prop39
140
1.0
102
RTVSPost2010PropOp39
 70
     1
102
RTVSPost2010Prop40
 90
        0
102
RTVSPost2010PropOp40
 70
     1
102
RTVSPost2010Prop41ColorIndex
 90
       18
102
RTVSPost2010Prop41ColorRGB
 90
        0
102
RTVSPost2010PropOp41
 70
     1
102
RTVSPost2010Prop42
 90
       50
102
RTVSPost2010PropOp42
 70
     1
102
RTVSPost2010Prop43
 90
        3
102
RTVSPost2010PropOp43
 70
     1
102
RTVSPost2010Prop44ColorIndex
 90
        5
102
RTVSPost2010Prop44ColorRGB
 90
      255
102
RTVSPost2010PropOp44
 70
     1
102
RTVSPost2010Prop45
280
     0
102
RTVSPost2010PropOp45
 70
     1
102
RTVSPost2010Prop46
 90
       50
102
RTVSPost2010PropOp46
 70
     1
102
RTVSPost2010Prop47
 90
       50
102
RTVSPost2010PropOp47
 70
     1
102
RTVSPost2010Prop48
 90
       50
102
RTVSPost2010PropOp48
 70
     1
102
RTVSPost2010Prop49
280
     0
102
RTVSPost2010PropOp49
 70
     1
102
RTVSPost2010Prop50
 90
       50
102
RTVSPost2010PropOp50
 70
     1
102
RTVSPost2010Prop51ColorIndex
 90
      256
102
RTVSPost2010Prop51ColorRGB
 90
-16777216
102
RTVSPost2010PropOp51
 70
     0
102
RTVSPost2010Prop52
140
1.0
102
RTVSPost2010PropOp52
 70
     0
102
RTVSPost2010Prop53
 90
        2
102
RTVSPost2010PropOp53
 70
     1
102
RTVSPost2010Prop54
  1
strokes_ogs.tif
102
RTVSPost2010PropOp54
 70
     1
102
RTVSPost2010Prop55
280
     0
102
RTVSPost2010PropOp55
 70
     1
102
RTVSPost2010Prop56
140
1.0
102
RTVSPost2010PropOp56
 70
     1
102
RTVSPost2010Prop57
140
1.0
102
RTVSPost2010PropOp57
 70
     1
102
RTVSPropertyOp0
 70
     1
102
RTVSPropertyOp1
 70
     1
102
RTVSPropertyOp2
 70
     1
102
RTVSPropertyOp3
 70
     1
102
RTVSPropertyOp4
 70
     1
102
RTVSPropertyOp5
 70
     1
102
RTVSPropertyOp6
 70
     1
102
RTVSPropertyOp7
 70
     1
102
RTVSPropertyOp8
 70
     1
102
RTVSPropertyOp9
 70
     1
102
RTVSPropertyOp10
 70
     1
102
RTVSPropertyOp11
 70
     1
102
RTVSPropertyOp12
 70
     1
102
RTVSPropertyOp13
 70
     1
102
RTVSPropertyOp14
 70
     1
102
RTVSPropertyOp15
 70
     1
102
RTVSPropertyOp16
 70
     1
102
RTVSPropertyOp17
 70
     1
102
RTVSPropertyOp18
 70
     1
102
RTVSPropertyOp19
 70
     1
102
RTVSPropertyOp20
 70
     1
102
RTVSPropertyOp21
 70
     1
102
RTVSPropertyOp22
 70
     1
102
RTVSPropertyOp23
 70
     1
102
RTVSPropertyOp24
 70
     1
102
RTVSPropertyOp25
 70
     1
102
RTVSPropertyOp26
 70
     1
102
RTVSPropertyOp27
 70
     1
102
RTVSPropertyOp28
 70
     1
102
RTVSPropertyOp29
 70
     1
102
RTVSPropertyOp30
 70
     1
102
RTVSPropertyOp31
 70
     1
102
RTVSPropertyOp32
 70
     1
102
RTVSPropertyOp33
 70
     1
102
RTVSPropertyOp34
 70
     1
102
RTVSPropertyOp35
 70
     1
102
RTVSPropertyOp36
 70
     1
102
RTVSPropertyOp37
 70
     1
102
RTVSPropertyOp38
 70
     1
102
RTVSPropertyOp39
 70
     1
102
RTVSPropertyOp40
 70
     1
102
RTVSPropertyOp41
 70
     1
102
RTVSPropertyOp42
 70
     1
102
RTVSPropertyOp43
 70
     1
102
RTVSPropertyOp44
 70
     1
102
RTVSPropertyOp45
 70
     1
102
RTVSPropertyOp46
 70
     1
102
RTVSPropertyOp47
 70
     1
102
RTVSPropertyOp48
 70
     1
102
RTVSPropertyOp49
 70
     1
102
RTVSPropertyOp50
 70
     1
102
RTVSPropertyOp51
 70
     0
102
RTVSPropertyOp52
 70
     0
102
RTVSPropertyOp53
 70
     1
102
RTVSPropertyOp54
 70
     1
102
RTVSPropertyOp55
 70
     1
102
RTVSPropertyOp56
 70
     1
102
RTVSPropertyOp57
 70
     1
102
RTVSPropertyOp58
 70
     1
102
RTVSPropertyOp59
 70
     1
102
RTVSPropertyOp60
 70
     1
102
RTVSPropertyOp61
 70
     1
102
RTVSPropertyOp62
 70
     1
  0
XRECORD
  5
590
102
{ACAD_REACTORS
330
58F
102
}
330
58F
100
AcDbXrecord
280
     1
102
RTVSPost2010Prop28
280
     0
102
RTVSPost2010PropOp28
 70
     1
102
RTVSPost2010Prop29
280
     1
102
RTVSPost2010PropOp29
 70
     1
102
RTVSPost2010Prop30
280
     1
102
RTVSPost2010PropOp30
 70
     1
102
RTVSPost2010Prop31
280
     0
102
RTVSPost2010PropOp31
 70
     1
102
RTVSPost2010Prop32
280
     0
102
RTVSPost2010PropOp32
 70
     1
102
RTVSPost2010Prop33
280
     0
102
RTVSPost2010PropOp33
 70
     1
102
RTVSPost2010Prop34
280
     0
102
RTVSPost2010PropOp34
 70
     1
102
RTVSPost2010Prop35
280
     0
102
RTVSPost2010PropOp35
 70
     1
102
RTVSPost2010Prop36
280
     0
102
RTVSPost2010PropOp36
 70
     1
102
RTVSPost2010Prop37
 90
       50
102
RTVSPost2010PropOp37
 70
     1
102
RTVSPost2010Prop38
140
0.0
102
RTVSPost2010PropOp38
 70
     1
102
RTVSPost2010Prop39
140
1.0
102
RTVSPost2010PropOp39
 70
     1
102
RTVSPost2010Prop40
 90
        0
102
RTVSPost2010PropOp40
 70
     1
102
RTVSPost2010Prop41ColorIndex
 90
       18
102
RTVSPost2010Prop41ColorRGB
 90
        0
102
RTVSPost2010PropOp41
 70
     1
102
RTVSPost2010Prop42
 90
       50
102
RTVSPost2010PropOp42
 70
     1
102
RTVSPost2010Prop43
 90
        3
102
RTVSPost2010PropOp43
 70
     1
102
RTVSPost2010Prop44ColorIndex
 90
        5
102
RTVSPost2010Prop44ColorRGB
 90
      255
102
RTVSPost2010PropOp44
 70
     1
102
RTVSPost2010Prop45
280
     0
102
RTVSPost2010PropOp45
 70
     1
102
RTVSPost2010Prop46
 90
       50
102
RTVSPost2010PropOp46
 70
     1
102
RTVSPost2010Prop47
 90
       50
102
RTVSPost2010PropOp47
 70
     1
102
RTVSPost2010Prop48
 90
       50
102
RTVSPost2010PropOp48
 70
     1
102
RTVSPost2010Prop49
280
     0
102
RTVSPost2010PropOp49
 70
     1
102
RTVSPost2010Prop50
 90
       50
102
RTVSPost2010PropOp50
 70
     1
102
RTVSPost2010Prop51ColorIndex
 90
      256
102
RTVSPost2010Prop51ColorRGB
 90
-16777216
102
RTVSPost2010PropOp51
 70
     0
102
RTVSPost2010Prop52
140
1.0
102
RTVSPost2010PropOp52
 70
     0
102
RTVSPost2010Prop53
 90
        2
102
RTVSPost2010PropOp53
 70
     1
102
RTVSPost2010Prop54
  1
strokes_ogs.tif
102
RTVSPost2010PropOp54
 70
     1
102
RTVSPost2010Prop55
280
     0
102
RTVSPost2010PropOp55
 70
     1
102
RTVSPost2010Prop56
140
1.0
102
RTVSPost2010PropOp56
 70
     1
102
RTVSPost2010Prop57
140
1.0
102
RTVSPost2010PropOp57
 70
     1
102
RTVSPropertyOp0
 70
     1
102
RTVSPropertyOp1
 70
     1
102
RTVSPropertyOp2
 70
     1
102
RTVSPropertyOp3
 70
     1
102
RTVSPropertyOp4
 70
     1
102
RTVSPropertyOp5
 70
     1
102
RTVSPropertyOp6
 70
     1
102
RTVSPropertyOp7
 70
     1
102
RTVSPropertyOp8
 70
     1
102
RTVSPropertyOp9
 70
     1
102
RTVSPropertyOp10
 70
     1
102
RTVSPropertyOp11
 70
     1
102
RTVSPropertyOp12
 70
     1
102
RTVSPropertyOp13
 70
     1
102
RTVSPropertyOp14
 70
     1
102
RTVSPropertyOp15
 70
     1
102
RTVSPropertyOp16
 70
     1
102
RTVSPropertyOp17
 70
     1
102
RTVSPropertyOp18
 70
     1
102
RTVSPropertyOp19
 70
     1
102
RTVSPropertyOp20
 70
     1
102
RTVSPropertyOp21
 70
     1
102
RTVSPropertyOp22
 70
     1
102
RTVSPropertyOp23
 70
     1
102
RTVSPropertyOp24
 70
     1
102
RTVSPropertyOp25
 70
     1
102
RTVSPropertyOp26
 70
     1
102
RTVSPropertyOp27
 70
     1
102
RTVSPropertyOp28
 70
     1
102
RTVSPropertyOp29
 70
     1
102
RTVSPropertyOp30
 70
     1
102
RTVSPropertyOp31
 70
     1
102
RTVSPropertyOp32
 70
     1
102
RTVSPropertyOp33
 70
     1
102
RTVSPropertyOp34
 70
     1
102
RTVSPropertyOp35
 70
     1
102
RTVSPropertyOp36
 70
     1
102
RTVSPropertyOp37
 70
     1
102
RTVSPropertyOp38
 70
     1
102
RTVSPropertyOp39
 70
     1
102
RTVSPropertyOp40
 70
     1
102
RTVSPropertyOp41
 70
     1
102
RTVSPropertyOp42
 70
     1
102
RTVSPropertyOp43
 70
     1
102
RTVSPropertyOp44
 70
     1
102
RTVSPropertyOp45
 70
     1
102
RTVSPropertyOp46
 70
     1
102
RTVSPropertyOp47
 70
     1
102
RTVSPropertyOp48
 70
     1
102
RTVSPropertyOp49
 70
     1
102
RTVSPropertyOp50
 70
     1
102
RTVSPropertyOp51
 70
     0
102
RTVSPropertyOp52
 70
     0
102
RTVSPropertyOp53
 70
     1
102
RTVSPropertyOp54
 70
     1
102
RTVSPropertyOp55
 70
     1
102
RTVSPropertyOp56
 70
     1
102
RTVSPropertyOp57
 70
     1
102
RTVSPropertyOp58
 70
     1
102
RTVSPropertyOp59
 70
     1
102
RTVSPropertyOp60
 70
     1
102
RTVSPropertyOp61
 70
     1
102
RTVSPropertyOp62
 70
     1
  0
XRECORD
  5
592
102
{ACAD_REACTORS
330
591
102
}
330
591
100
AcDbXrecord
280
     1
102
RTVSPost2010Prop28
280
     0
102
RTVSPost2010PropOp28
 70
     1
102
RTVSPost2010Prop29
280
     1
102
RTVSPost2010PropOp29
 70
     1
102
RTVSPost2010Prop30
280
     1
102
RTVSPost2010PropOp30
 70
     1
102
RTVSPost2010Prop31
280
     0
102
RTVSPost2010PropOp31
 70
     1
102
RTVSPost2010Prop32
280
     0
102
RTVSPost2010PropOp32
 70
     1
102
RTVSPost2010Prop33
280
     0
102
RTVSPost2010PropOp33
 70
     1
102
RTVSPost2010Prop34
280
     0
102
RTVSPost2010PropOp34
 70
     1
102
RTVSPost2010Prop35
280
     0
102
RTVSPost2010PropOp35
 70
     1
102
RTVSPost2010Prop36
280
     0
102
RTVSPost2010PropOp36
 70
     1
102
RTVSPost2010Prop37
 90
       50
102
RTVSPost2010PropOp37
 70
     1
102
RTVSPost2010Prop38
140
0.0
102
RTVSPost2010PropOp38
 70
     1
102
RTVSPost2010Prop39
140
1.0
102
RTVSPost2010PropOp39
 70
     1
102
RTVSPost2010Prop40
 90
        0
102
RTVSPost2010PropOp40
 70
     1
102
RTVSPost2010Prop41ColorIndex
 90
       18
102
RTVSPost2010Prop41ColorRGB
 90
        0
102
RTVSPost2010PropOp41
 70
     1
102
RTVSPost2010Prop42
 90
       50
102
RTVSPost2010PropOp42
 70
     1
102
RTVSPost2010Prop43
 90
        3
102
RTVSPost2010PropOp43
 70
     1
102
RTVSPost2010Prop44ColorIndex
 90
        5
102
RTVSPost2010Prop44ColorRGB
 90
      255
102
RTVSPost2010PropOp44
 70
     1
102
RTVSPost2010Prop45
280
     0
102
RTVSPost2010PropOp45
 70
     1
102
RTVSPost2010Prop46
 90
       50
102
RTVSPost2010PropOp46
 70
     1
102
RTVSPost2010Prop47
 90
       50
102
RTVSPost2010PropOp47
 70
     1
102
RTVSPost2010Prop48
 90
       50
102
RTVSPost2010PropOp48
 70
     1
102
RTVSPost2010Prop49
280
     0
102
RTVSPost2010PropOp49
 70
     1
102
RTVSPost2010Prop50
 90
       50
102
RTVSPost2010PropOp50
 70
     1
102
RTVSPost2010Prop51ColorIndex
 90
      256
102
RTVSPost2010Prop51ColorRGB
 90
-16777216
102
RTVSPost2010PropOp51
 70
     0
102
RTVSPost2010Prop52
140
1.0
102
RTVSPost2010PropOp52
 70
     0
102
RTVSPost2010Prop53
 90
        2
102
RTVSPost2010PropOp53
 70
     1
102
RTVSPost2010Prop54
  1
strokes_ogs.tif
102
RTVSPost2010PropOp54
 70
     1
102
RTVSPost2010Prop55
280
     0
102
RTVSPost2010PropOp55
 70
     1
102
RTVSPost2010Prop56
140
1.0
102
RTVSPost2010PropOp56
 70
     1
102
RTVSPost2010Prop57
140
1.0
102
RTVSPost2010PropOp57
 70
     1
102
RTVSPropertyOp0
 70
     1
102
RTVSPropertyOp1
 70
     1
102
RTVSPropertyOp2
 70
     1
102
RTVSPropertyOp3
 70
     1
102
RTVSPropertyOp4
 70
     1
102
RTVSPropertyOp5
 70
     1
102
RTVSPropertyOp6
 70
     1
102
RTVSPropertyOp7
 70
     1
102
RTVSPropertyOp8
 70
     1
102
RTVSPropertyOp9
 70
     1
102
RTVSPropertyOp10
 70
     1
102
RTVSPropertyOp11
 70
     1
102
RTVSPropertyOp12
 70
     1
102
RTVSPropertyOp13
 70
     1
102
RTVSPropertyOp14
 70
     1
102
RTVSPropertyOp15
 70
     1
102
RTVSPropertyOp16
 70
     1
102
RTVSPropertyOp17
 70
     1
102
RTVSPropertyOp18
 70
     1
102
RTVSPropertyOp19
 70
     1
102
RTVSPropertyOp20
 70
     1
102
RTVSPropertyOp21
 70
     1
102
RTVSPropertyOp22
 70
     1
102
RTVSPropertyOp23
 70
     1
102
RTVSPropertyOp24
 70
     1
102
RTVSPropertyOp25
 70
     1
102
RTVSPropertyOp26
 70
     1
102
RTVSPropertyOp27
 70
     1
102
RTVSPropertyOp28
 70
     1
102
RTVSPropertyOp29
 70
     1
102
RTVSPropertyOp30
 70
     1
102
RTVSPropertyOp31
 70
     1
102
RTVSPropertyOp32
 70
     1
102
RTVSPropertyOp33
 70
     1
102
RTVSPropertyOp34
 70
     1
102
RTVSPropertyOp35
 70
     1
102
RTVSPropertyOp36
 70
     1
102
RTVSPropertyOp37
 70
     1
102
RTVSPropertyOp38
 70
     1
102
RTVSPropertyOp39
 70
     1
102
RTVSPropertyOp40
 70
     1
102
RTVSPropertyOp41
 70
     1
102
RTVSPropertyOp42
 70
     1
102
RTVSPropertyOp43
 70
     1
102
RTVSPropertyOp44
 70
     1
102
RTVSPropertyOp45
 70
     1
102
RTVSPropertyOp46
 70
     1
102
RTVSPropertyOp47
 70
     1
102
RTVSPropertyOp48
 70
     1
102
RTVSPropertyOp49
 70
     1
102
RTVSPropertyOp50
 70
     1
102
RTVSPropertyOp51
 70
     0
102
RTVSPropertyOp52
 70
     0
102
RTVSPropertyOp53
 70
     1
102
RTVSPropertyOp54
 70
     1
102
RTVSPropertyOp55
 70
     1
102
RTVSPropertyOp56
 70
     1
102
RTVSPropertyOp57
 70
     1
102
RTVSPropertyOp58
 70
     1
102
RTVSPropertyOp59
 70
     1
102
RTVSPropertyOp60
 70
     1
102
RTVSPropertyOp61
 70
     1
102
RTVSPropertyOp62
 70
     1
  0
XRECORD
  5
594
102
{ACAD_REACTORS
330
593
102
}
330
593
100
AcDbXrecord
280
     1
102
RTVSPost2010Prop28
280
     0
102
RTVSPost2010PropOp28
 70
     1
102
RTVSPost2010Prop29
280
     1
102
RTVSPost2010PropOp29
 70
     1
102
RTVSPost2010Prop30
280
     1
102
RTVSPost2010PropOp30
 70
     1
102
RTVSPost2010Prop31
280
     0
102
RTVSPost2010PropOp31
 70
     1
102
RTVSPost2010Prop32
280
     0
102
RTVSPost2010PropOp32
 70
     1
102
RTVSPost2010Prop33
280
     0
102
RTVSPost2010PropOp33
 70
     1
102
RTVSPost2010Prop34
280
     0
102
RTVSPost2010PropOp34
 70
     1
102
RTVSPost2010Prop35
280
     0
102
RTVSPost2010PropOp35
 70
     1
102
RTVSPost2010Prop36
280
     0
102
RTVSPost2010PropOp36
 70
     1
102
RTVSPost2010Prop37
 90
       50
102
RTVSPost2010PropOp37
 70
     1
102
RTVSPost2010Prop38
140
0.0
102
RTVSPost2010PropOp38
 70
     1
102
RTVSPost2010Prop39
140
1.0
102
RTVSPost2010PropOp39
 70
     1
102
RTVSPost2010Prop40
 90
        0
102
RTVSPost2010PropOp40
 70
     1
102
RTVSPost2010Prop41ColorIndex
 90
       18
102
RTVSPost2010Prop41ColorRGB
 90
        0
102
RTVSPost2010PropOp41
 70
     1
102
RTVSPost2010Prop42
 90
       50
102
RTVSPost2010PropOp42
 70
     1
102
RTVSPost2010Prop43
 90
        3
102
RTVSPost2010PropOp43
 70
     1
102
RTVSPost2010Prop44ColorIndex
 90
        5
102
RTVSPost2010Prop44ColorRGB
 90
      255
102
RTVSPost2010PropOp44
 70
     1
102
RTVSPost2010Prop45
280
     0
102
RTVSPost2010PropOp45
 70
     1
102
RTVSPost2010Prop46
 90
       50
102
RTVSPost2010PropOp46
 70
     1
102
RTVSPost2010Prop47
 90
       50
102
RTVSPost2010PropOp47
 70
     1
102
RTVSPost2010Prop48
 90
       50
102
RTVSPost2010PropOp48
 70
     1
102
RTVSPost2010Prop49
280
     0
102
RTVSPost2010PropOp49
 70
     1
102
RTVSPost2010Prop50
 90
       50
102
RTVSPost2010PropOp50
 70
     1
102
RTVSPost2010Prop51ColorIndex
 90
      256
102
RTVSPost2010Prop51ColorRGB
 90
-16777216
102
RTVSPost2010PropOp51
 70
     0
102
RTVSPost2010Prop52
140
1.0
102
RTVSPost2010PropOp52
 70
     0
102
RTVSPost2010Prop53
 90
        2
102
RTVSPost2010PropOp53
 70
     1
102
RTVSPost2010Prop54
  1
strokes_ogs.tif
102
RTVSPost2010PropOp54
 70
     1
102
RTVSPost2010Prop55
280
     0
102
RTVSPost2010PropOp55
 70
     1
102
RTVSPost2010Prop56
140
1.0
102
RTVSPost2010PropOp56
 70
     1
102
RTVSPost2010Prop57
140
1.0
102
RTVSPost2010PropOp57
 70
     1
102
RTVSPropertyOp0
 70
     1
102
RTVSPropertyOp1
 70
     1
102
RTVSPropertyOp2
 70
     1
102
RTVSPropertyOp3
 70
     1
102
RTVSPropertyOp4
 70
     1
102
RTVSPropertyOp5
 70
     1
102
RTVSPropertyOp6
 70
     1
102
RTVSPropertyOp7
 70
     1
102
RTVSPropertyOp8
 70
     1
102
RTVSPropertyOp9
 70
     1
102
RTVSPropertyOp10
 70
     1
102
RTVSPropertyOp11
 70
     1
102
RTVSPropertyOp12
 70
     1
102
RTVSPropertyOp13
 70
     1
102
RTVSPropertyOp14
 70
     1
102
RTVSPropertyOp15
 70
     1
102
RTVSPropertyOp16
 70
     1
102
RTVSPropertyOp17
 70
     1
102
RTVSPropertyOp18
 70
     1
102
RTVSPropertyOp19
 70
     1
102
RTVSPropertyOp20
 70
     1
102
RTVSPropertyOp21
 70
     1
102
RTVSPropertyOp22
 70
     1
102
RTVSPropertyOp23
 70
     1
102
RTVSPropertyOp24
 70
     1
102
RTVSPropertyOp25
 70
     1
102
RTVSPropertyOp26
 70
     1
102
RTVSPropertyOp27
 70
     1
102
RTVSPropertyOp28
 70
     1
102
RTVSPropertyOp29
 70
     1
102
RTVSPropertyOp30
 70
     1
102
RTVSPropertyOp31
 70
     1
102
RTVSPropertyOp32
 70
     1
102
RTVSPropertyOp33
 70
     1
102
RTVSPropertyOp34
 70
     1
102
RTVSPropertyOp35
 70
     1
102
RTVSPropertyOp36
 70
     1
102
RTVSPropertyOp37
 70
     1
102
RTVSPropertyOp38
 70
     1
102
RTVSPropertyOp39
 70
     1
102
RTVSPropertyOp40
 70
     1
102
RTVSPropertyOp41
 70
     1
102
RTVSPropertyOp42
 70
     1
102
RTVSPropertyOp43
 70
     1
102
RTVSPropertyOp44
 70
     1
102
RTVSPropertyOp45
 70
     1
102
RTVSPropertyOp46
 70
     1
102
RTVSPropertyOp47
 70
     1
102
RTVSPropertyOp48
 70
     1
102
RTVSPropertyOp49
 70
     1
102
RTVSPropertyOp50
 70
     1
102
RTVSPropertyOp51
 70
     0
102
RTVSPropertyOp52
 70
     0
102
RTVSPropertyOp53
 70
     1
102
RTVSPropertyOp54
 70
     1
102
RTVSPropertyOp55
 70
     1
102
RTVSPropertyOp56
 70
     1
102
RTVSPropertyOp57
 70
     1
102
RTVSPropertyOp58
 70
     1
102
RTVSPropertyOp59
 70
     1
102
RTVSPropertyOp60
 70
     1
102
RTVSPropertyOp61
 70
     1
102
RTVSPropertyOp62
 70
     1
  0
XRECORD
  5
59C
102
{ACAD_REACTORS
330
59B
102
}
330
59B
100
AcDbXrecord
280
     1
102
RTVSPost2010Prop28
280
     0
102
RTVSPost2010PropOp28
 70
     1
102
RTVSPost2010Prop29
280
     1
102
RTVSPost2010PropOp29
 70
     1
102
RTVSPost2010Prop30
280
     1
102
RTVSPost2010PropOp30
 70
     1
102
RTVSPost2010Prop31
280
     0
102
RTVSPost2010PropOp31
 70
     1
102
RTVSPost2010Prop32
280
     0
102
RTVSPost2010PropOp32
 70
     1
102
RTVSPost2010Prop33
280
     0
102
RTVSPost2010PropOp33
 70
     1
102
RTVSPost2010Prop34
280
     0
102
RTVSPost2010PropOp34
 70
     1
102
RTVSPost2010Prop35
280
     0
102
RTVSPost2010PropOp35
 70
     1
102
RTVSPost2010Prop36
280
     0
102
RTVSPost2010PropOp36
 70
     1
102
RTVSPost2010Prop37
 90
       50
102
RTVSPost2010PropOp37
 70
     1
102
RTVSPost2010Prop38
140
0.0
102
RTVSPost2010PropOp38
 70
     1
102
RTVSPost2010Prop39
140
1.0
102
RTVSPost2010PropOp39
 70
     1
102
RTVSPost2010Prop40
 90
        0
102
RTVSPost2010PropOp40
 70
     1
102
RTVSPost2010Prop41ColorIndex
 90
       18
102
RTVSPost2010Prop41ColorRGB
 90
        0
102
RTVSPost2010PropOp41
 70
     1
102
RTVSPost2010Prop42
 90
       50
102
RTVSPost2010PropOp42
 70
     1
102
RTVSPost2010Prop43
 90
        3
102
RTVSPost2010PropOp43
 70
     1
102
RTVSPost2010Prop44ColorIndex
 90
        5
102
RTVSPost2010Prop44ColorRGB
 90
      255
102
RTVSPost2010PropOp44
 70
     1
102
RTVSPost2010Prop45
280
     0
102
RTVSPost2010PropOp45
 70
     1
102
RTVSPost2010Prop46
 90
       50
102
RTVSPost2010PropOp46
 70
     1
102
RTVSPost2010Prop47
 90
       50
102
RTVSPost2010PropOp47
 70
     1
102
RTVSPost2010Prop48
 90
       50
102
RTVSPost2010PropOp48
 70
     1
102
RTVSPost2010Prop49
280
     0
102
RTVSPost2010PropOp49
 70
     1
102
RTVSPost2010Prop50
 90
       50
102
RTVSPost2010PropOp50
 70
     1
102
RTVSPost2010Prop51ColorIndex
 90
      256
102
RTVSPost2010Prop51ColorRGB
 90
-16777216
102
RTVSPost2010PropOp51
 70
     0
102
RTVSPost2010Prop52
140
1.0
102
RTVSPost2010PropOp52
 70
     0
102
RTVSPost2010Prop53
 90
        2
102
RTVSPost2010PropOp53
 70
     1
102
RTVSPost2010Prop54
  1
strokes_ogs.tif
102
RTVSPost2010PropOp54
 70
     1
102
RTVSPost2010Prop55
280
     0
102
RTVSPost2010PropOp55
 70
     1
102
RTVSPost2010Prop56
140
1.0
102
RTVSPost2010PropOp56
 70
     1
102
RTVSPost2010Prop57
140
1.0
102
RTVSPost2010PropOp57
 70
     1
102
RTVSPropertyOp0
 70
     1
102
RTVSPropertyOp1
 70
     1
102
RTVSPropertyOp2
 70
     1
102
RTVSPropertyOp3
 70
     1
102
RTVSPropertyOp4
 70
     1
102
RTVSPropertyOp5
 70
     1
102
RTVSPropertyOp6
 70
     1
102
RTVSPropertyOp7
 70
     1
102
RTVSPropertyOp8
 70
     1
102
RTVSPropertyOp9
 70
     1
102
RTVSPropertyOp10
 70
     1
102
RTVSPropertyOp11
 70
     1
102
RTVSPropertyOp12
 70
     1
102
RTVSPropertyOp13
 70
     1
102
RTVSPropertyOp14
 70
     1
102
RTVSPropertyOp15
 70
     1
102
RTVSPropertyOp16
 70
     1
102
RTVSPropertyOp17
 70
     1
102
RTVSPropertyOp18
 70
     1
102
RTVSPropertyOp19
 70
     1
102
RTVSPropertyOp20
 70
     1
102
RTVSPropertyOp21
 70
     1
102
RTVSPropertyOp22
 70
     1
102
RTVSPropertyOp23
 70
     1
102
RTVSPropertyOp24
 70
     1
102
RTVSPropertyOp25
 70
     1
102
RTVSPropertyOp26
 70
     1
102
RTVSPropertyOp27
 70
     1
102
RTVSPropertyOp28
 70
     1
102
RTVSPropertyOp29
 70
     1
102
RTVSPropertyOp30
 70
     1
102
RTVSPropertyOp31
 70
     1
102
RTVSPropertyOp32
 70
     1
102
RTVSPropertyOp33
 70
     1
102
RTVSPropertyOp34
 70
     1
102
RTVSPropertyOp35
 70
     1
102
RTVSPropertyOp36
 70
     1
102
RTVSPropertyOp37
 70
     1
102
RTVSPropertyOp38
 70
     1
102
RTVSPropertyOp39
 70
     1
102
RTVSPropertyOp40
 70
     1
102
RTVSPropertyOp41
 70
     1
102
RTVSPropertyOp42
 70
     1
102
RTVSPropertyOp43
 70
     1
102
RTVSPropertyOp44
 70
     1
102
RTVSPropertyOp45
 70
     1
102
RTVSPropertyOp46
 70
     1
102
RTVSPropertyOp47
 70
     1
102
RTVSPropertyOp48
 70
     1
102
RTVSPropertyOp49
 70
     1
102
RTVSPropertyOp50
 70
     1
102
RTVSPropertyOp51
 70
     0
102
RTVSPropertyOp52
 70
     0
102
RTVSPropertyOp53
 70
     1
102
RTVSPropertyOp54
 70
     1
102
RTVSPropertyOp55
 70
     1
102
RTVSPropertyOp56
 70
     1
102
RTVSPropertyOp57
 70
     1
102
RTVSPropertyOp58
 70
     1
102
RTVSPropertyOp59
 70
     1
102
RTVSPropertyOp60
 70
     1
102
RTVSPropertyOp61
 70
     1
102
RTVSPropertyOp62
 70
     1
  0
XRECORD
  5
5B8
102
{ACAD_REACTORS
330
5B7
102
}
330
5B7
100
AcDbXrecord
280
     1
102
RTVSPost2010Prop28
280
     0
102
RTVSPost2010PropOp28
 70
     1
102
RTVSPost2010Prop29
280
     1
102
RTVSPost2010PropOp29
 70
     1
102
RTVSPost2010Prop30
280
     1
102
RTVSPost2010PropOp30
 70
     1
102
RTVSPost2010Prop31
280
     0
102
RTVSPost2010PropOp31
 70
     1
102
RTVSPost2010Prop32
280
     0
102
RTVSPost2010PropOp32
 70
     1
102
RTVSPost2010Prop33
280
     0
102
RTVSPost2010PropOp33
 70
     1
102
RTVSPost2010Prop34
280
     0
102
RTVSPost2010PropOp34
 70
     1
102
RTVSPost2010Prop35
280
     0
102
RTVSPost2010PropOp35
 70
     1
102
RTVSPost2010Prop36
280
     0
102
RTVSPost2010PropOp36
 70
     1
102
RTVSPost2010Prop37
 90
       50
102
RTVSPost2010PropOp37
 70
     0
102
RTVSPost2010Prop38
140
0.0
102
RTVSPost2010PropOp38
 70
     0
102
RTVSPost2010Prop39
140
1.0
102
RTVSPost2010PropOp39
 70
     0
102
RTVSPost2010Prop40
 90
        0
102
RTVSPost2010PropOp40
 70
     0
102
RTVSPost2010Prop41ColorIndex
 90
       18
102
RTVSPost2010Prop41ColorRGB
 90
        0
102
RTVSPost2010PropOp41
 70
     0
102
RTVSPost2010Prop42
 90
       50
102
RTVSPost2010PropOp42
 70
     0
102
RTVSPost2010Prop43
 90
        3
102
RTVSPost2010PropOp43
 70
     0
102
RTVSPost2010Prop44ColorIndex
 90
        5
102
RTVSPost2010Prop44ColorRGB
 90
      255
102
RTVSPost2010PropOp44
 70
     0
102
RTVSPost2010Prop45
280
     0
102
RTVSPost2010PropOp45
 70
     1
102
RTVSPost2010Prop46
 90
       50
102
RTVSPost2010PropOp46
 70
     0
102
RTVSPost2010Prop47
 90
       50
102
RTVSPost2010PropOp47
 70
     0
102
RTVSPost2010Prop48
 90
       50
102
RTVSPost2010PropOp48
 70
     0
102
RTVSPost2010Prop49
280
     0
102
RTVSPost2010PropOp49
 70
     1
102
RTVSPost2010Prop50
 90
       50
102
RTVSPost2010PropOp50
 70
     0
102
RTVSPost2010Prop51ColorIndex
 90
      256
102
RTVSPost2010Prop51ColorRGB
 90
-16777216
102
RTVSPost2010PropOp51
 70
     0
102
RTVSPost2010Prop52
140
1.0
102
RTVSPost2010PropOp52
 70
     0
102
RTVSPost2010Prop53
 90
        2
102
RTVSPost2010PropOp53
 70
     0
102
RTVSPost2010Prop54
  1
strokes_ogs.tif
102
RTVSPost2010PropOp54
 70
     0
102
RTVSPost2010Prop55
280
     0
102
RTVSPost2010PropOp55
 70
     1
102
RTVSPost2010Prop56
140
1.0
102
RTVSPost2010PropOp56
 70
     0
102
RTVSPost2010Prop57
140
1.0
102
RTVSPost2010PropOp57
 70
     0
102
RTVSPropertyOp0
 70
     0
102
RTVSPropertyOp1
 70
     0
102
RTVSPropertyOp2
 70
     0
102
RTVSPropertyOp3
 70
     0
102
RTVSPropertyOp4
 70
     0
102
RTVSPropertyOp5
 70
     0
102
RTVSPropertyOp6
 70
     0
102
RTVSPropertyOp7
 70
     0
102
RTVSPropertyOp8
 70
     0
102
RTVSPropertyOp9
 70
     0
102
RTVSPropertyOp10
 70
     0
102
RTVSPropertyOp11
 70
     0
102
RTVSPropertyOp12
 70
     0
102
RTVSPropertyOp13
 70
     0
102
RTVSPropertyOp14
 70
     2
102
RTVSPropertyOp15
 70
     0
102
RTVSPropertyOp16
 70
     0
102
RTVSPropertyOp17
 70
     0
102
RTVSPropertyOp18
 70
     0
102
RTVSPropertyOp19
 70
     0
102
RTVSPropertyOp20
 70
     0
102
RTVSPropertyOp21
 70
     0
102
RTVSPropertyOp22
 70
     0
102
RTVSPropertyOp23
 70
     0
102
RTVSPropertyOp24
 70
     0
102
RTVSPropertyOp25
 70
     0
102
RTVSPropertyOp26
 70
     0
102
RTVSPropertyOp27
 70
     0
102
RTVSPropertyOp28
 70
     1
102
RTVSPropertyOp29
 70
     1
102
RTVSPropertyOp30
 70
     1
102
RTVSPropertyOp31
 70
     1
102
RTVSPropertyOp32
 70
     1
102
RTVSPropertyOp33
 70
     1
102
RTVSPropertyOp34
 70
     1
102
RTVSPropertyOp35
 70
     1
102
RTVSPropertyOp36
 70
     1
102
RTVSPropertyOp37
 70
     0
102
RTVSPropertyOp38
 70
     0
102
RTVSPropertyOp39
 70
     0
102
RTVSPropertyOp40
 70
     0
102
RTVSPropertyOp41
 70
     0
102
RTVSPropertyOp42
 70
     0
102
RTVSPropertyOp43
 70
     0
102
RTVSPropertyOp44
 70
     0
102
RTVSPropertyOp45
 70
     1
102
RTVSPropertyOp46
 70
     0
102
RTVSPropertyOp47
 70
     0
102
RTVSPropertyOp48
 70
     0
102
RTVSPropertyOp49
 70
     1
102
RTVSPropertyOp50
 70
     0
102
RTVSPropertyOp51
 70
     0
102
RTVSPropertyOp52
 70
     0
102
RTVSPropertyOp53
 70
     0
102
RTVSPropertyOp54
 70
     0
102
RTVSPropertyOp55
 70
     1
102
RTVSPropertyOp56
 70
     0
102
RTVSPropertyOp57
 70
     0
102
RTVSPropertyOp58
 70
     0
102
RTVSPropertyOp59
 70
     0
102
RTVSPropertyOp60
 70
     0
102
RTVSPropertyOp61
 70
     0
102
RTVSPropertyOp62
 70
     0
  0
XRECORD
  5
5A8
102
{ACAD_REACTORS
330
5A7
102
}
330
5A7
100
AcDbXrecord
280
     1
102
RTVSPost2010Prop28
280
     0
102
RTVSPost2010PropOp28
 70
     1
102
RTVSPost2010Prop29
280
     1
102
RTVSPost2010PropOp29
 70
     1
102
RTVSPost2010Prop30
280
     1
102
RTVSPost2010PropOp30
 70
     1
102
RTVSPost2010Prop31
280
     0
102
RTVSPost2010PropOp31
 70
     1
102
RTVSPost2010Prop32
280
     0
102
RTVSPost2010PropOp32
 70
     1
102
RTVSPost2010Prop33
280
     0
102
RTVSPost2010PropOp33
 70
     1
102
RTVSPost2010Prop34
280
     0
102
RTVSPost2010PropOp34
 70
     1
102
RTVSPost2010Prop35
280
     0
102
RTVSPost2010PropOp35
 70
     1
102
RTVSPost2010Prop36
280
     0
102
RTVSPost2010PropOp36
 70
     1
102
RTVSPost2010Prop37
 90
       50
102
RTVSPost2010PropOp37
 70
     1
102
RTVSPost2010Prop38
140
0.0
102
RTVSPost2010PropOp38
 70
     1
102
RTVSPost2010Prop39
140
1.0
102
RTVSPost2010PropOp39
 70
     1
102
RTVSPost2010Prop40
 90
        0
102
RTVSPost2010PropOp40
 70
     1
102
RTVSPost2010Prop41ColorIndex
 90
       18
102
RTVSPost2010Prop41ColorRGB
 90
        0
102
RTVSPost2010PropOp41
 70
     1
102
RTVSPost2010Prop42
 90
       50
102
RTVSPost2010PropOp42
 70
     1
102
RTVSPost2010Prop43
 90
        3
102
RTVSPost2010PropOp43
 70
     1
102
RTVSPost2010Prop44ColorIndex
 90
        5
102
RTVSPost2010Prop44ColorRGB
 90
      255
102
RTVSPost2010PropOp44
 70
     1
102
RTVSPost2010Prop45
280
     0
102
RTVSPost2010PropOp45
 70
     1
102
RTVSPost2010Prop46
 90
       50
102
RTVSPost2010PropOp46
 70
     1
102
RTVSPost2010Prop47
 90
       50
102
RTVSPost2010PropOp47
 70
     1
102
RTVSPost2010Prop48
 90
       50
102
RTVSPost2010PropOp48
 70
     1
102
RTVSPost2010Prop49
280
     0
102
RTVSPost2010PropOp49
 70
     1
102
RTVSPost2010Prop50
 90
       50
102
RTVSPost2010PropOp50
 70
     1
102
RTVSPost2010Prop51ColorIndex
 90
      256
102
RTVSPost2010Prop51ColorRGB
 90
-16777216
102
RTVSPost2010PropOp51
 70
     0
102
RTVSPost2010Prop52
140
1.0
102
RTVSPost2010PropOp52
 70
     0
102
RTVSPost2010Prop53
 90
        2
102
RTVSPost2010PropOp53
 70
     1
102
RTVSPost2010Prop54
  1
strokes_ogs.tif
102
RTVSPost2010PropOp54
 70
     1
102
RTVSPost2010Prop55
280
     0
102
RTVSPost2010PropOp55
 70
     1
102
RTVSPost2010Prop56
140
1.0
102
RTVSPost2010PropOp56
 70
     1
102
RTVSPost2010Prop57
140
1.0
102
RTVSPost2010PropOp57
 70
     1
102
RTVSPropertyOp0
 70
     1
102
RTVSPropertyOp1
 70
     1
102
RTVSPropertyOp2
 70
     1
102
RTVSPropertyOp3
 70
     1
102
RTVSPropertyOp4
 70
     1
102
RTVSPropertyOp5
 70
     1
102
RTVSPropertyOp6
 70
     1
102
RTVSPropertyOp7
 70
     1
102
RTVSPropertyOp8
 70
     1
102
RTVSPropertyOp9
 70
     1
102
RTVSPropertyOp10
 70
     1
102
RTVSPropertyOp11
 70
     1
102
RTVSPropertyOp12
 70
     1
102
RTVSPropertyOp13
 70
     1
102
RTVSPropertyOp14
 70
     1
102
RTVSPropertyOp15
 70
     1
102
RTVSPropertyOp16
 70
     1
102
RTVSPropertyOp17
 70
     1
102
RTVSPropertyOp18
 70
     1
102
RTVSPropertyOp19
 70
     1
102
RTVSPropertyOp20
 70
     1
102
RTVSPropertyOp21
 70
     1
102
RTVSPropertyOp22
 70
     1
102
RTVSPropertyOp23
 70
     1
102
RTVSPropertyOp24
 70
     1
102
RTVSPropertyOp25
 70
     1
102
RTVSPropertyOp26
 70
     1
102
RTVSPropertyOp27
 70
     1
102
RTVSPropertyOp28
 70
     1
102
RTVSPropertyOp29
 70
     1
102
RTVSPropertyOp30
 70
     1
102
RTVSPropertyOp31
 70
     1
102
RTVSPropertyOp32
 70
     1
102
RTVSPropertyOp33
 70
     1
102
RTVSPropertyOp34
 70
     1
102
RTVSPropertyOp35
 70
     1
102
RTVSPropertyOp36
 70
     1
102
RTVSPropertyOp37
 70
     1
102
RTVSPropertyOp38
 70
     1
102
RTVSPropertyOp39
 70
     1
102
RTVSPropertyOp40
 70
     1
102
RTVSPropertyOp41
 70
     1
102
RTVSPropertyOp42
 70
     1
102
RTVSPropertyOp43
 70
     1
102
RTVSPropertyOp44
 70
     1
102
RTVSPropertyOp45
 70
     1
102
RTVSPropertyOp46
 70
     1
102
RTVSPropertyOp47
 70
     1
102
RTVSPropertyOp48
 70
     1
102
RTVSPropertyOp49
 70
     1
102
RTVSPropertyOp50
 70
     1
102
RTVSPropertyOp51
 70
     0
102
RTVSPropertyOp52
 70
     0
102
RTVSPropertyOp53
 70
     1
102
RTVSPropertyOp54
 70
     1
102
RTVSPropertyOp55
 70
     1
102
RTVSPropertyOp56
 70
     1
102
RTVSPropertyOp57
 70
     1
102
RTVSPropertyOp58
 70
     1
102
RTVSPropertyOp59
 70
     1
102
RTVSPropertyOp60
 70
     1
102
RTVSPropertyOp61
 70
     1
102
RTVSPropertyOp62
 70
     1
  0
XRECORD
  5
5BA
102
{ACAD_REACTORS
330
5B9
102
}
330
5B9
100
AcDbXrecord
280
     1
102
RTVSPost2010Prop28
280
     0
102
RTVSPost2010PropOp28
 70
     1
102
RTVSPost2010Prop29
280
     1
102
RTVSPost2010PropOp29
 70
     1
102
RTVSPost2010Prop30
280
     1
102
RTVSPost2010PropOp30
 70
     1
102
RTVSPost2010Prop31
280
     0
102
RTVSPost2010PropOp31
 70
     1
102
RTVSPost2010Prop32
280
     0
102
RTVSPost2010PropOp32
 70
     1
102
RTVSPost2010Prop33
280
     0
102
RTVSPost2010PropOp33
 70
     1
102
RTVSPost2010Prop34
280
     0
102
RTVSPost2010PropOp34
 70
     1
102
RTVSPost2010Prop35
280
     0
102
RTVSPost2010PropOp35
 70
     1
102
RTVSPost2010Prop36
280
     0
102
RTVSPost2010PropOp36
 70
     1
102
RTVSPost2010Prop37
 90
       50
102
RTVSPost2010PropOp37
 70
     0
102
RTVSPost2010Prop38
140
0.0
102
RTVSPost2010PropOp38
 70
     0
102
RTVSPost2010Prop39
140
1.0
102
RTVSPost2010PropOp39
 70
     0
102
RTVSPost2010Prop40
 90
        0
102
RTVSPost2010PropOp40
 70
     0
102
RTVSPost2010Prop41ColorIndex
 90
       18
102
RTVSPost2010Prop41ColorRGB
 90
        0
102
RTVSPost2010PropOp41
 70
     0
102
RTVSPost2010Prop42
 90
       50
102
RTVSPost2010PropOp42
 70
     0
102
RTVSPost2010Prop43
 90
        3
102
RTVSPost2010PropOp43
 70
     0
102
RTVSPost2010Prop44ColorIndex
 90
        5
102
RTVSPost2010Prop44ColorRGB
 90
      255
102
RTVSPost2010PropOp44
 70
     0
102
RTVSPost2010Prop45
280
     0
102
RTVSPost2010PropOp45
 70
     1
102
RTVSPost2010Prop46
 90
       50
102
RTVSPost2010PropOp46
 70
     0
102
RTVSPost2010Prop47
 90
       50
102
RTVSPost2010PropOp47
 70
     0
102
RTVSPost2010Prop48
 90
       50
102
RTVSPost2010PropOp48
 70
     0
102
RTVSPost2010Prop49
280
     0
102
RTVSPost2010PropOp49
 70
     1
102
RTVSPost2010Prop50
 90
       50
102
RTVSPost2010PropOp50
 70
     0
102
RTVSPost2010Prop51ColorIndex
 90
      256
102
RTVSPost2010Prop51ColorRGB
 90
-16777216
102
RTVSPost2010PropOp51
 70
     0
102
RTVSPost2010Prop52
140
1.0
102
RTVSPost2010PropOp52
 70
     0
102
RTVSPost2010Prop53
 90
        2
102
RTVSPost2010PropOp53
 70
     0
102
RTVSPost2010Prop54
  1
strokes_ogs.tif
102
RTVSPost2010PropOp54
 70
     0
102
RTVSPost2010Prop55
280
     0
102
RTVSPost2010PropOp55
 70
     1
102
RTVSPost2010Prop56
140
1.0
102
RTVSPost2010PropOp56
 70
     0
102
RTVSPost2010Prop57
140
1.0
102
RTVSPost2010PropOp57
 70
     0
102
RTVSPropertyOp0
 70
     0
102
RTVSPropertyOp1
 70
     0
102
RTVSPropertyOp2
 70
     0
102
RTVSPropertyOp3
 70
     0
102
RTVSPropertyOp4
 70
     0
102
RTVSPropertyOp5
 70
     0
102
RTVSPropertyOp6
 70
     0
102
RTVSPropertyOp7
 70
     0
102
RTVSPropertyOp8
 70
     0
102
RTVSPropertyOp9
 70
     0
102
RTVSPropertyOp10
 70
     0
102
RTVSPropertyOp11
 70
     0
102
RTVSPropertyOp12
 70
     0
102
RTVSPropertyOp13
 70
     0
102
RTVSPropertyOp14
 70
     2
102
RTVSPropertyOp15
 70
     0
102
RTVSPropertyOp16
 70
     0
102
RTVSPropertyOp17
 70
     0
102
RTVSPropertyOp18
 70
     0
102
RTVSPropertyOp19
 70
     0
102
RTVSPropertyOp20
 70
     0
102
RTVSPropertyOp21
 70
     0
102
RTVSPropertyOp22
 70
     0
102
RTVSPropertyOp23
 70
     0
102
RTVSPropertyOp24
 70
     0
102
RTVSPropertyOp25
 70
     0
102
RTVSPropertyOp26
 70
     0
102
RTVSPropertyOp27
 70
     0
102
RTVSPropertyOp28
 70
     1
102
RTVSPropertyOp29
 70
     1
102
RTVSPropertyOp30
 70
     1
102
RTVSPropertyOp31
 70
     1
102
RTVSPropertyOp32
 70
     1
102
RTVSPropertyOp33
 70
     1
102
RTVSPropertyOp34
 70
     1
102
RTVSPropertyOp35
 70
     1
102
RTVSPropertyOp36
 70
     1
102
RTVSPropertyOp37
 70
     0
102
RTVSPropertyOp38
 70
     0
102
RTVSPropertyOp39
 70
     0
102
RTVSPropertyOp40
 70
     0
102
RTVSPropertyOp41
 70
     0
102
RTVSPropertyOp42
 70
     0
102
RTVSPropertyOp43
 70
     0
102
RTVSPropertyOp44
 70
     0
102
RTVSPropertyOp45
 70
     1
102
RTVSPropertyOp46
 70
     0
102
RTVSPropertyOp47
 70
     0
102
RTVSPropertyOp48
 70
     0
102
RTVSPropertyOp49
 70
     1
102
RTVSPropertyOp50
 70
     0
102
RTVSPropertyOp51
 70
     0
102
RTVSPropertyOp52
 70
     0
102
RTVSPropertyOp53
 70
     0
102
RTVSPropertyOp54
 70
     0
102
RTVSPropertyOp55
 70
     1
102
RTVSPropertyOp56
 70
     0
102
RTVSPropertyOp57
 70
     0
102
RTVSPropertyOp58
 70
     0
102
RTVSPropertyOp59
 70
     0
102
RTVSPropertyOp60
 70
     0
102
RTVSPropertyOp61
 70
     0
102
RTVSPropertyOp62
 70
     0
  0
XRECORD
  5
5A0
102
{ACAD_REACTORS
330
59F
102
}
330
59F
100
AcDbXrecord
280
     1
102
RTVSPost2010Prop28
280
     0
102
RTVSPost2010PropOp28
 70
     1
102
RTVSPost2010Prop29
280
     1
102
RTVSPost2010PropOp29
 70
     1
102
RTVSPost2010Prop30
280
     1
102
RTVSPost2010PropOp30
 70
     1
102
RTVSPost2010Prop31
280
     0
102
RTVSPost2010PropOp31
 70
     1
102
RTVSPost2010Prop32
280
     0
102
RTVSPost2010PropOp32
 70
     1
102
RTVSPost2010Prop33
280
     0
102
RTVSPost2010PropOp33
 70
     1
102
RTVSPost2010Prop34
280
     0
102
RTVSPost2010PropOp34
 70
     1
102
RTVSPost2010Prop35
280
     0
102
RTVSPost2010PropOp35
 70
     1
102
RTVSPost2010Prop36
280
     0
102
RTVSPost2010PropOp36
 70
     1
102
RTVSPost2010Prop37
 90
       50
102
RTVSPost2010PropOp37
 70
     1
102
RTVSPost2010Prop38
140
0.0
102
RTVSPost2010PropOp38
 70
     1
102
RTVSPost2010Prop39
140
1.0
102
RTVSPost2010PropOp39
 70
     1
102
RTVSPost2010Prop40
 90
        0
102
RTVSPost2010PropOp40
 70
     1
102
RTVSPost2010Prop41ColorIndex
 90
       18
102
RTVSPost2010Prop41ColorRGB
 90
        0
102
RTVSPost2010PropOp41
 70
     1
102
RTVSPost2010Prop42
 90
       50
102
RTVSPost2010PropOp42
 70
     1
102
RTVSPost2010Prop43
 90
        3
102
RTVSPost2010PropOp43
 70
     1
102
RTVSPost2010Prop44ColorIndex
 90
        5
102
RTVSPost2010Prop44ColorRGB
 90
      255
102
RTVSPost2010PropOp44
 70
     1
102
RTVSPost2010Prop45
280
     0
102
RTVSPost2010PropOp45
 70
     1
102
RTVSPost2010Prop46
 90
       50
102
RTVSPost2010PropOp46
 70
     1
102
RTVSPost2010Prop47
 90
       50
102
RTVSPost2010PropOp47
 70
     1
102
RTVSPost2010Prop48
 90
       50
102
RTVSPost2010PropOp48
 70
     1
102
RTVSPost2010Prop49
280
     0
102
RTVSPost2010PropOp49
 70
     1
102
RTVSPost2010Prop50
 90
       50
102
RTVSPost2010PropOp50
 70
     1
102
RTVSPost2010Prop51ColorIndex
 90
      256
102
RTVSPost2010Prop51ColorRGB
 90
-16777216
102
RTVSPost2010PropOp51
 70
     0
102
RTVSPost2010Prop52
140
1.0
102
RTVSPost2010PropOp52
 70
     0
102
RTVSPost2010Prop53
 90
        2
102
RTVSPost2010PropOp53
 70
     1
102
RTVSPost2010Prop54
  1
strokes_ogs.tif
102
RTVSPost2010PropOp54
 70
     1
102
RTVSPost2010Prop55
280
     0
102
RTVSPost2010PropOp55
 70
     1
102
RTVSPost2010Prop56
140
1.0
102
RTVSPost2010PropOp56
 70
     1
102
RTVSPost2010Prop57
140
1.0
102
RTVSPost2010PropOp57
 70
     1
102
RTVSPropertyOp0
 70
     1
102
RTVSPropertyOp1
 70
     1
102
RTVSPropertyOp2
 70
     1
102
RTVSPropertyOp3
 70
     1
102
RTVSPropertyOp4
 70
     1
102
RTVSPropertyOp5
 70
     1
102
RTVSPropertyOp6
 70
     1
102
RTVSPropertyOp7
 70
     1
102
RTVSPropertyOp8
 70
     1
102
RTVSPropertyOp9
 70
     1
102
RTVSPropertyOp10
 70
     1
102
RTVSPropertyOp11
 70
     1
102
RTVSPropertyOp12
 70
     1
102
RTVSPropertyOp13
 70
     1
102
RTVSPropertyOp14
 70
     1
102
RTVSPropertyOp15
 70
     1
102
RTVSPropertyOp16
 70
     1
102
RTVSPropertyOp17
 70
     1
102
RTVSPropertyOp18
 70
     1
102
RTVSPropertyOp19
 70
     1
102
RTVSPropertyOp20
 70
     1
102
RTVSPropertyOp21
 70
     1
102
RTVSPropertyOp22
 70
     1
102
RTVSPropertyOp23
 70
     1
102
RTVSPropertyOp24
 70
     1
102
RTVSPropertyOp25
 70
     1
102
RTVSPropertyOp26
 70
     1
102
RTVSPropertyOp27
 70
     1
102
RTVSPropertyOp28
 70
     1
102
RTVSPropertyOp29
 70
     1
102
RTVSPropertyOp30
 70
     1
102
RTVSPropertyOp31
 70
     1
102
RTVSPropertyOp32
 70
     1
102
RTVSPropertyOp33
 70
     1
102
RTVSPropertyOp34
 70
     1
102
RTVSPropertyOp35
 70
     1
102
RTVSPropertyOp36
 70
     1
102
RTVSPropertyOp37
 70
     1
102
RTVSPropertyOp38
 70
     1
102
RTVSPropertyOp39
 70
     1
102
RTVSPropertyOp40
 70
     1
102
RTVSPropertyOp41
 70
     1
102
RTVSPropertyOp42
 70
     1
102
RTVSPropertyOp43
 70
     1
102
RTVSPropertyOp44
 70
     1
102
RTVSPropertyOp45
 70
     1
102
RTVSPropertyOp46
 70
     1
102
RTVSPropertyOp47
 70
     1
102
RTVSPropertyOp48
 70
     1
102
RTVSPropertyOp49
 70
     1
102
RTVSPropertyOp50
 70
     1
102
RTVSPropertyOp51
 70
     0
102
RTVSPropertyOp52
 70
     0
102
RTVSPropertyOp53
 70
     1
102
RTVSPropertyOp54
 70
     1
102
RTVSPropertyOp55
 70
     1
102
RTVSPropertyOp56
 70
     1
102
RTVSPropertyOp57
 70
     1
102
RTVSPropertyOp58
 70
     1
102
RTVSPropertyOp59
 70
     1
102
RTVSPropertyOp60
 70
     1
102
RTVSPropertyOp61
 70
     1
102
RTVSPropertyOp62
 70
     1
  0
XRECORD
  5
5B6
102
{ACAD_REACTORS
330
5B5
102
}
330
5B5
100
AcDbXrecord
280
     1
102
RTVSPost2010Prop28
280
     0
102
RTVSPost2010PropOp28
 70
     1
102
RTVSPost2010Prop29
280
     1
102
RTVSPost2010PropOp29
 70
     1
102
RTVSPost2010Prop30
280
     1
102
RTVSPost2010PropOp30
 70
     1
102
RTVSPost2010Prop31
280
     0
102
RTVSPost2010PropOp31
 70
     1
102
RTVSPost2010Prop32
280
     0
102
RTVSPost2010PropOp32
 70
     1
102
RTVSPost2010Prop33
280
     0
102
RTVSPost2010PropOp33
 70
     1
102
RTVSPost2010Prop34
280
     0
102
RTVSPost2010PropOp34
 70
     1
102
RTVSPost2010Prop35
280
     0
102
RTVSPost2010PropOp35
 70
     1
102
RTVSPost2010Prop36
280
     0
102
RTVSPost2010PropOp36
 70
     1
102
RTVSPost2010Prop37
 90
       50
102
RTVSPost2010PropOp37
 70
     1
102
RTVSPost2010Prop38
140
0.0
102
RTVSPost2010PropOp38
 70
     1
102
RTVSPost2010Prop39
140
1.0
102
RTVSPost2010PropOp39
 70
     1
102
RTVSPost2010Prop40
 90
        0
102
RTVSPost2010PropOp40
 70
     1
102
RTVSPost2010Prop41ColorIndex
 90
       18
102
RTVSPost2010Prop41ColorRGB
 90
        0
102
RTVSPost2010PropOp41
 70
     1
102
RTVSPost2010Prop42
 90
       50
102
RTVSPost2010PropOp42
 70
     1
102
RTVSPost2010Prop43
 90
        3
102
RTVSPost2010PropOp43
 70
     1
102
RTVSPost2010Prop44ColorIndex
 90
        5
102
RTVSPost2010Prop44ColorRGB
 90
      255
102
RTVSPost2010PropOp44
 70
     1
102
RTVSPost2010Prop45
280
     0
102
RTVSPost2010PropOp45
 70
     1
102
RTVSPost2010Prop46
 90
       50
102
RTVSPost2010PropOp46
 70
     1
102
RTVSPost2010Prop47
 90
       50
102
RTVSPost2010PropOp47
 70
     1
102
RTVSPost2010Prop48
 90
       50
102
RTVSPost2010PropOp48
 70
     1
102
RTVSPost2010Prop49
280
     0
102
RTVSPost2010PropOp49
 70
     1
102
RTVSPost2010Prop50
 90
       50
102
RTVSPost2010PropOp50
 70
     1
102
RTVSPost2010Prop51ColorIndex
 90
      256
102
RTVSPost2010Prop51ColorRGB
 90
-16777216
102
RTVSPost2010PropOp51
 70
     0
102
RTVSPost2010Prop52
140
1.0
102
RTVSPost2010PropOp52
 70
     0
102
RTVSPost2010Prop53
 90
        2
102
RTVSPost2010PropOp53
 70
     1
102
RTVSPost2010Prop54
  1
strokes_ogs.tif
102
RTVSPost2010PropOp54
 70
     1
102
RTVSPost2010Prop55
280
     0
102
RTVSPost2010PropOp55
 70
     1
102
RTVSPost2010Prop56
140
1.0
102
RTVSPost2010PropOp56
 70
     1
102
RTVSPost2010Prop57
140
1.0
102
RTVSPost2010PropOp57
 70
     1
102
RTVSPropertyOp0
 70
     1
102
RTVSPropertyOp1
 70
     1
102
RTVSPropertyOp2
 70
     1
102
RTVSPropertyOp3
 70
     1
102
RTVSPropertyOp4
 70
     1
102
RTVSPropertyOp5
 70
     1
102
RTVSPropertyOp6
 70
     1
102
RTVSPropertyOp7
 70
     1
102
RTVSPropertyOp8
 70
     1
102
RTVSPropertyOp9
 70
     1
102
RTVSPropertyOp10
 70
     1
102
RTVSPropertyOp11
 70
     1
102
RTVSPropertyOp12
 70
     1
102
RTVSPropertyOp13
 70
     1
102
RTVSPropertyOp14
 70
     1
102
RTVSPropertyOp15
 70
     1
102
RTVSPropertyOp16
 70
     1
102
RTVSPropertyOp17
 70
     1
102
RTVSPropertyOp18
 70
     1
102
RTVSPropertyOp19
 70
     1
102
RTVSPropertyOp20
 70
     1
102
RTVSPropertyOp21
 70
     1
102
RTVSPropertyOp22
 70
     1
102
RTVSPropertyOp23
 70
     1
102
RTVSPropertyOp24
 70
     1
102
RTVSPropertyOp25
 70
     1
102
RTVSPropertyOp26
 70
     1
102
RTVSPropertyOp27
 70
     1
102
RTVSPropertyOp28
 70
     1
102
RTVSPropertyOp29
 70
     1
102
RTVSPropertyOp30
 70
     1
102
RTVSPropertyOp31
 70
     1
102
RTVSPropertyOp32
 70
     1
102
RTVSPropertyOp33
 70
     1
102
RTVSPropertyOp34
 70
     1
102
RTVSPropertyOp35
 70
     1
102
RTVSPropertyOp36
 70
     1
102
RTVSPropertyOp37
 70
     1
102
RTVSPropertyOp38
 70
     1
102
RTVSPropertyOp39
 70
     1
102
RTVSPropertyOp40
 70
     1
102
RTVSPropertyOp41
 70
     1
102
RTVSPropertyOp42
 70
     1
102
RTVSPropertyOp43
 70
     1
102
RTVSPropertyOp44
 70
     1
102
RTVSPropertyOp45
 70
     1
102
RTVSPropertyOp46
 70
     1
102
RTVSPropertyOp47
 70
     1
102
RTVSPropertyOp48
 70
     1
102
RTVSPropertyOp49
 70
     1
102
RTVSPropertyOp50
 70
     1
102
RTVSPropertyOp51
 70
     0
102
RTVSPropertyOp52
 70
     0
102
RTVSPropertyOp53
 70
     1
102
RTVSPropertyOp54
 70
     1
102
RTVSPropertyOp55
 70
     1
102
RTVSPropertyOp56
 70
     1
102
RTVSPropertyOp57
 70
     1
102
RTVSPropertyOp58
 70
     1
102
RTVSPropertyOp59
 70
     1
102
RTVSPropertyOp60
 70
     1
102
RTVSPropertyOp61
 70
     1
102
RTVSPropertyOp62
 70
     1
  0
XRECORD
  5
5B4
102
{ACAD_REACTORS
330
5B3
102
}
330
5B3
100
AcDbXrecord
280
     1
102
RTVSPost2010Prop28
280
     0
102
RTVSPost2010PropOp28
 70
     1
102
RTVSPost2010Prop29
280
     1
102
RTVSPost2010PropOp29
 70
     1
102
RTVSPost2010Prop30
280
     1
102
RTVSPost2010PropOp30
 70
     1
102
RTVSPost2010Prop31
280
     0
102
RTVSPost2010PropOp31
 70
     1
102
RTVSPost2010Prop32
280
     0
102
RTVSPost2010PropOp32
 70
     1
102
RTVSPost2010Prop33
280
     0
102
RTVSPost2010PropOp33
 70
     1
102
RTVSPost2010Prop34
280
     0
102
RTVSPost2010PropOp34
 70
     1
102
RTVSPost2010Prop35
280
     0
102
RTVSPost2010PropOp35
 70
     1
102
RTVSPost2010Prop36
280
     0
102
RTVSPost2010PropOp36
 70
     1
102
RTVSPost2010Prop37
 90
       50
102
RTVSPost2010PropOp37
 70
     1
102
RTVSPost2010Prop38
140
0.0
102
RTVSPost2010PropOp38
 70
     1
102
RTVSPost2010Prop39
140
1.0
102
RTVSPost2010PropOp39
 70
     1
102
RTVSPost2010Prop40
 90
        0
102
RTVSPost2010PropOp40
 70
     1
102
RTVSPost2010Prop41ColorIndex
 90
       18
102
RTVSPost2010Prop41ColorRGB
 90
        0
102
RTVSPost2010PropOp41
 70
     1
102
RTVSPost2010Prop42
 90
       50
102
RTVSPost2010PropOp42
 70
     1
102
RTVSPost2010Prop43
 90
        3
102
RTVSPost2010PropOp43
 70
     1
102
RTVSPost2010Prop44ColorIndex
 90
        5
102
RTVSPost2010Prop44ColorRGB
 90
      255
102
RTVSPost2010PropOp44
 70
     1
102
RTVSPost2010Prop45
280
     0
102
RTVSPost2010PropOp45
 70
     1
102
RTVSPost2010Prop46
 90
       50
102
RTVSPost2010PropOp46
 70
     1
102
RTVSPost2010Prop47
 90
       50
102
RTVSPost2010PropOp47
 70
     1
102
RTVSPost2010Prop48
 90
       50
102
RTVSPost2010PropOp48
 70
     1
102
RTVSPost2010Prop49
280
     0
102
RTVSPost2010PropOp49
 70
     1
102
RTVSPost2010Prop50
 90
       50
102
RTVSPost2010PropOp50
 70
     1
102
RTVSPost2010Prop51ColorIndex
 90
      256
102
RTVSPost2010Prop51ColorRGB
 90
-16777216
102
RTVSPost2010PropOp51
 70
     0
102
RTVSPost2010Prop52
140
1.0
102
RTVSPost2010PropOp52
 70
     0
102
RTVSPost2010Prop53
 90
        2
102
RTVSPost2010PropOp53
 70
     1
102
RTVSPost2010Prop54
  1
strokes_ogs.tif
102
RTVSPost2010PropOp54
 70
     1
102
RTVSPost2010Prop55
280
     0
102
RTVSPost2010PropOp55
 70
     1
102
RTVSPost2010Prop56
140
1.0
102
RTVSPost2010PropOp56
 70
     1
102
RTVSPost2010Prop57
140
1.0
102
RTVSPost2010PropOp57
 70
     1
102
RTVSPropertyOp0
 70
     1
102
RTVSPropertyOp1
 70
     1
102
RTVSPropertyOp2
 70
     1
102
RTVSPropertyOp3
 70
     1
102
RTVSPropertyOp4
 70
     1
102
RTVSPropertyOp5
 70
     1
102
RTVSPropertyOp6
 70
     1
102
RTVSPropertyOp7
 70
     1
102
RTVSPropertyOp8
 70
     1
102
RTVSPropertyOp9
 70
     1
102
RTVSPropertyOp10
 70
     1
102
RTVSPropertyOp11
 70
     1
102
RTVSPropertyOp12
 70
     1
102
RTVSPropertyOp13
 70
     1
102
RTVSPropertyOp14
 70
     1
102
RTVSPropertyOp15
 70
     1
102
RTVSPropertyOp16
 70
     1
102
RTVSPropertyOp17
 70
     1
102
RTVSPropertyOp18
 70
     1
102
RTVSPropertyOp19
 70
     1
102
RTVSPropertyOp20
 70
     1
102
RTVSPropertyOp21
 70
     1
102
RTVSPropertyOp22
 70
     1
102
RTVSPropertyOp23
 70
     1
102
RTVSPropertyOp24
 70
     1
102
RTVSPropertyOp25
 70
     1
102
RTVSPropertyOp26
 70
     1
102
RTVSPropertyOp27
 70
     1
102
RTVSPropertyOp28
 70
     1
102
RTVSPropertyOp29
 70
     1
102
RTVSPropertyOp30
 70
     1
102
RTVSPropertyOp31
 70
     1
102
RTVSPropertyOp32
 70
     1
102
RTVSPropertyOp33
 70
     1
102
RTVSPropertyOp34
 70
     1
102
RTVSPropertyOp35
 70
     1
102
RTVSPropertyOp36
 70
     1
102
RTVSPropertyOp37
 70
     1
102
RTVSPropertyOp38
 70
     1
102
RTVSPropertyOp39
 70
     1
102
RTVSPropertyOp40
 70
     1
102
RTVSPropertyOp41
 70
     1
102
RTVSPropertyOp42
 70
     1
102
RTVSPropertyOp43
 70
     1
102
RTVSPropertyOp44
 70
     1
102
RTVSPropertyOp45
 70
     1
102
RTVSPropertyOp46
 70
     1
102
RTVSPropertyOp47
 70
     1
102
RTVSPropertyOp48
 70
     1
102
RTVSPropertyOp49
 70
     1
102
RTVSPropertyOp50
 70
     1
102
RTVSPropertyOp51
 70
     0
102
RTVSPropertyOp52
 70
     0
102
RTVSPropertyOp53
 70
     1
102
RTVSPropertyOp54
 70
     1
102
RTVSPropertyOp55
 70
     1
102
RTVSPropertyOp56
 70
     1
102
RTVSPropertyOp57
 70
     1
102
RTVSPropertyOp58
 70
     1
102
RTVSPropertyOp59
 70
     1
102
RTVSPropertyOp60
 70
     1
102
RTVSPropertyOp61
 70
     1
102
RTVSPropertyOp62
 70
     1
  0
XRECORD
  5
5AE
102
{ACAD_REACTORS
330
5AD
102
}
330
5AD
100
AcDbXrecord
280
     1
102
RTVSPost2010Prop28
280
     0
102
RTVSPost2010PropOp28
 70
     1
102
RTVSPost2010Prop29
280
     1
102
RTVSPost2010PropOp29
 70
     1
102
RTVSPost2010Prop30
280
     1
102
RTVSPost2010PropOp30
 70
     1
102
RTVSPost2010Prop31
280
     0
102
RTVSPost2010PropOp31
 70
     1
102
RTVSPost2010Prop32
280
     0
102
RTVSPost2010PropOp32
 70
     1
102
RTVSPost2010Prop33
280
     0
102
RTVSPost2010PropOp33
 70
     1
102
RTVSPost2010Prop34
280
     0
102
RTVSPost2010PropOp34
 70
     1
102
RTVSPost2010Prop35
280
     0
102
RTVSPost2010PropOp35
 70
     1
102
RTVSPost2010Prop36
280
     0
102
RTVSPost2010PropOp36
 70
     1
102
RTVSPost2010Prop37
 90
       50
102
RTVSPost2010PropOp37
 70
     1
102
RTVSPost2010Prop38
140
0.0
102
RTVSPost2010PropOp38
 70
     1
102
RTVSPost2010Prop39
140
1.0
102
RTVSPost2010PropOp39
 70
     1
102
RTVSPost2010Prop40
 90
        0
102
RTVSPost2010PropOp40
 70
     1
102
RTVSPost2010Prop41ColorIndex
 90
       18
102
RTVSPost2010Prop41ColorRGB
 90
        0
102
RTVSPost2010PropOp41
 70
     1
102
RTVSPost2010Prop42
 90
       50
102
RTVSPost2010PropOp42
 70
     1
102
RTVSPost2010Prop43
 90
        3
102
RTVSPost2010PropOp43
 70
     1
102
RTVSPost2010Prop44ColorIndex
 90
        5
102
RTVSPost2010Prop44ColorRGB
 90
      255
102
RTVSPost2010PropOp44
 70
     1
102
RTVSPost2010Prop45
280
     0
102
RTVSPost2010PropOp45
 70
     1
102
RTVSPost2010Prop46
 90
       50
102
RTVSPost2010PropOp46
 70
     1
102
RTVSPost2010Prop47
 90
       50
102
RTVSPost2010PropOp47
 70
     1
102
RTVSPost2010Prop48
 90
       50
102
RTVSPost2010PropOp48
 70
     1
102
RTVSPost2010Prop49
280
     0
102
RTVSPost2010PropOp49
 70
     1
102
RTVSPost2010Prop50
 90
       50
102
RTVSPost2010PropOp50
 70
     1
102
RTVSPost2010Prop51ColorIndex
 90
      256
102
RTVSPost2010Prop51ColorRGB
 90
-16777216
102
RTVSPost2010PropOp51
 70
     0
102
RTVSPost2010Prop52
140
1.0
102
RTVSPost2010PropOp52
 70
     0
102
RTVSPost2010Prop53
 90
        2
102
RTVSPost2010PropOp53
 70
     1
102
RTVSPost2010Prop54
  1
strokes_ogs.tif
102
RTVSPost2010PropOp54
 70
     1
102
RTVSPost2010Prop55
280
     0
102
RTVSPost2010PropOp55
 70
     1
102
RTVSPost2010Prop56
140
1.0
102
RTVSPost2010PropOp56
 70
     1
102
RTVSPost2010Prop57
140
1.0
102
RTVSPost2010PropOp57
 70
     1
102
RTVSPropertyOp0
 70
     1
102
RTVSPropertyOp1
 70
     1
102
RTVSPropertyOp2
 70
     1
102
RTVSPropertyOp3
 70
     1
102
RTVSPropertyOp4
 70
     1
102
RTVSPropertyOp5
 70
     1
102
RTVSPropertyOp6
 70
     1
102
RTVSPropertyOp7
 70
     1
102
RTVSPropertyOp8
 70
     1
102
RTVSPropertyOp9
 70
     1
102
RTVSPropertyOp10
 70
     1
102
RTVSPropertyOp11
 70
     1
102
RTVSPropertyOp12
 70
     1
102
RTVSPropertyOp13
 70
     1
102
RTVSPropertyOp14
 70
     1
102
RTVSPropertyOp15
 70
     1
102
RTVSPropertyOp16
 70
     1
102
RTVSPropertyOp17
 70
     1
102
RTVSPropertyOp18
 70
     1
102
RTVSPropertyOp19
 70
     1
102
RTVSPropertyOp20
 70
     1
102
RTVSPropertyOp21
 70
     1
102
RTVSPropertyOp22
 70
     1
102
RTVSPropertyOp23
 70
     1
102
RTVSPropertyOp24
 70
     1
102
RTVSPropertyOp25
 70
     1
102
RTVSPropertyOp26
 70
     1
102
RTVSPropertyOp27
 70
     1
102
RTVSPropertyOp28
 70
     1
102
RTVSPropertyOp29
 70
     1
102
RTVSPropertyOp30
 70
     1
102
RTVSPropertyOp31
 70
     1
102
RTVSPropertyOp32
 70
     1
102
RTVSPropertyOp33
 70
     1
102
RTVSPropertyOp34
 70
     1
102
RTVSPropertyOp35
 70
     1
102
RTVSPropertyOp36
 70
     1
102
RTVSPropertyOp37
 70
     1
102
RTVSPropertyOp38
 70
     1
102
RTVSPropertyOp39
 70
     1
102
RTVSPropertyOp40
 70
     1
102
RTVSPropertyOp41
 70
     1
102
RTVSPropertyOp42
 70
     1
102
RTVSPropertyOp43
 70
     1
102
RTVSPropertyOp44
 70
     1
102
RTVSPropertyOp45
 70
     1
102
RTVSPropertyOp46
 70
     1
102
RTVSPropertyOp47
 70
     1
102
RTVSPropertyOp48
 70
     1
102
RTVSPropertyOp49
 70
     1
102
RTVSPropertyOp50
 70
     1
102
RTVSPropertyOp51
 70
     0
102
RTVSPropertyOp52
 70
     0
102
RTVSPropertyOp53
 70
     1
102
RTVSPropertyOp54
 70
     1
102
RTVSPropertyOp55
 70
     1
102
RTVSPropertyOp56
 70
     1
102
RTVSPropertyOp57
 70
     1
102
RTVSPropertyOp58
 70
     1
102
RTVSPropertyOp59
 70
     1
102
RTVSPropertyOp60
 70
     1
102
RTVSPropertyOp61
 70
     1
102
RTVSPropertyOp62
 70
     1
  0
XRECORD
  5
5B0
102
{ACAD_REACTORS
330
5AF
102
}
330
5AF
100
AcDbXrecord
280
     1
102
RTVSPost2010Prop28
280
     0
102
RTVSPost2010PropOp28
 70
     1
102
RTVSPost2010Prop29
280
     1
102
RTVSPost2010PropOp29
 70
     1
102
RTVSPost2010Prop30
280
     1
102
RTVSPost2010PropOp30
 70
     1
102
RTVSPost2010Prop31
280
     0
102
RTVSPost2010PropOp31
 70
     1
102
RTVSPost2010Prop32
280
     0
102
RTVSPost2010PropOp32
 70
     1
102
RTVSPost2010Prop33
280
     0
102
RTVSPost2010PropOp33
 70
     1
102
RTVSPost2010Prop34
280
     0
102
RTVSPost2010PropOp34
 70
     1
102
RTVSPost2010Prop35
280
     0
102
RTVSPost2010PropOp35
 70
     1
102
RTVSPost2010Prop36
280
     0
102
RTVSPost2010PropOp36
 70
     1
102
RTVSPost2010Prop37
 90
       50
102
RTVSPost2010PropOp37
 70
     1
102
RTVSPost2010Prop38
140
0.0
102
RTVSPost2010PropOp38
 70
     1
102
RTVSPost2010Prop39
140
1.0
102
RTVSPost2010PropOp39
 70
     1
102
RTVSPost2010Prop40
 90
        0
102
RTVSPost2010PropOp40
 70
     1
102
RTVSPost2010Prop41ColorIndex
 90
       18
102
RTVSPost2010Prop41ColorRGB
 90
        0
102
RTVSPost2010PropOp41
 70
     1
102
RTVSPost2010Prop42
 90
       50
102
RTVSPost2010PropOp42
 70
     1
102
RTVSPost2010Prop43
 90
        3
102
RTVSPost2010PropOp43
 70
     1
102
RTVSPost2010Prop44ColorIndex
 90
        5
102
RTVSPost2010Prop44ColorRGB
 90
      255
102
RTVSPost2010PropOp44
 70
     1
102
RTVSPost2010Prop45
280
     0
102
RTVSPost2010PropOp45
 70
     1
102
RTVSPost2010Prop46
 90
       50
102
RTVSPost2010PropOp46
 70
     1
102
RTVSPost2010Prop47
 90
       50
102
RTVSPost2010PropOp47
 70
     1
102
RTVSPost2010Prop48
 90
       50
102
RTVSPost2010PropOp48
 70
     1
102
RTVSPost2010Prop49
280
     0
102
RTVSPost2010PropOp49
 70
     1
102
RTVSPost2010Prop50
 90
       50
102
RTVSPost2010PropOp50
 70
     1
102
RTVSPost2010Prop51ColorIndex
 90
      256
102
RTVSPost2010Prop51ColorRGB
 90
-16777216
102
RTVSPost2010PropOp51
 70
     0
102
RTVSPost2010Prop52
140
1.0
102
RTVSPost2010PropOp52
 70
     0
102
RTVSPost2010Prop53
 90
        2
102
RTVSPost2010PropOp53
 70
     1
102
RTVSPost2010Prop54
  1
strokes_ogs.tif
102
RTVSPost2010PropOp54
 70
     1
102
RTVSPost2010Prop55
280
     0
102
RTVSPost2010PropOp55
 70
     1
102
RTVSPost2010Prop56
140
1.0
102
RTVSPost2010PropOp56
 70
     1
102
RTVSPost2010Prop57
140
1.0
102
RTVSPost2010PropOp57
 70
     1
102
RTVSPropertyOp0
 70
     1
102
RTVSPropertyOp1
 70
     1
102
RTVSPropertyOp2
 70
     1
102
RTVSPropertyOp3
 70
     1
102
RTVSPropertyOp4
 70
     1
102
RTVSPropertyOp5
 70
     1
102
RTVSPropertyOp6
 70
     1
102
RTVSPropertyOp7
 70
     1
102
RTVSPropertyOp8
 70
     1
102
RTVSPropertyOp9
 70
     1
102
RTVSPropertyOp10
 70
     1
102
RTVSPropertyOp11
 70
     1
102
RTVSPropertyOp12
 70
     1
102
RTVSPropertyOp13
 70
     1
102
RTVSPropertyOp14
 70
     1
102
RTVSPropertyOp15
 70
     1
102
RTVSPropertyOp16
 70
     1
102
RTVSPropertyOp17
 70
     1
102
RTVSPropertyOp18
 70
     1
102
RTVSPropertyOp19
 70
     1
102
RTVSPropertyOp20
 70
     1
102
RTVSPropertyOp21
 70
     1
102
RTVSPropertyOp22
 70
     1
102
RTVSPropertyOp23
 70
     1
102
RTVSPropertyOp24
 70
     1
102
RTVSPropertyOp25
 70
     1
102
RTVSPropertyOp26
 70
     1
102
RTVSPropertyOp27
 70
     1
102
RTVSPropertyOp28
 70
     1
102
RTVSPropertyOp29
 70
     1
102
RTVSPropertyOp30
 70
     1
102
RTVSPropertyOp31
 70
     1
102
RTVSPropertyOp32
 70
     1
102
RTVSPropertyOp33
 70
     1
102
RTVSPropertyOp34
 70
     1
102
RTVSPropertyOp35
 70
     1
102
RTVSPropertyOp36
 70
     1
102
RTVSPropertyOp37
 70
     1
102
RTVSPropertyOp38
 70
     1
102
RTVSPropertyOp39
 70
     1
102
RTVSPropertyOp40
 70
     1
102
RTVSPropertyOp41
 70
     1
102
RTVSPropertyOp42
 70
     1
102
RTVSPropertyOp43
 70
     1
102
RTVSPropertyOp44
 70
     1
102
RTVSPropertyOp45
 70
     1
102
RTVSPropertyOp46
 70
     1
102
RTVSPropertyOp47
 70
     1
102
RTVSPropertyOp48
 70
     1
102
RTVSPropertyOp49
 70
     1
102
RTVSPropertyOp50
 70
     1
102
RTVSPropertyOp51
 70
     0
102
RTVSPropertyOp52
 70
     0
102
RTVSPropertyOp53
 70
     1
102
RTVSPropertyOp54
 70
     1
102
RTVSPropertyOp55
 70
     1
102
RTVSPropertyOp56
 70
     1
102
RTVSPropertyOp57
 70
     1
102
RTVSPropertyOp58
 70
     1
102
RTVSPropertyOp59
 70
     1
102
RTVSPropertyOp60
 70
     1
102
RTVSPropertyOp61
 70
     1
102
RTVSPropertyOp62
 70
     1
  0
XRECORD
  5
5A6
102
{ACAD_REACTORS
330
5A5
102
}
330
5A5
100
AcDbXrecord
280
     1
102
RTVSPost2010Prop28
280
     0
102
RTVSPost2010PropOp28
 70
     1
102
RTVSPost2010Prop29
280
     1
102
RTVSPost2010PropOp29
 70
     1
102
RTVSPost2010Prop30
280
     1
102
RTVSPost2010PropOp30
 70
     1
102
RTVSPost2010Prop31
280
     0
102
RTVSPost2010PropOp31
 70
     1
102
RTVSPost2010Prop32
280
     0
102
RTVSPost2010PropOp32
 70
     1
102
RTVSPost2010Prop33
280
     0
102
RTVSPost2010PropOp33
 70
     1
102
RTVSPost2010Prop34
280
     0
102
RTVSPost2010PropOp34
 70
     1
102
RTVSPost2010Prop35
280
     0
102
RTVSPost2010PropOp35
 70
     1
102
RTVSPost2010Prop36
280
     0
102
RTVSPost2010PropOp36
 70
     1
102
RTVSPost2010Prop37
 90
       50
102
RTVSPost2010PropOp37
 70
     1
102
RTVSPost2010Prop38
140
0.0
102
RTVSPost2010PropOp38
 70
     1
102
RTVSPost2010Prop39
140
1.0
102
RTVSPost2010PropOp39
 70
     1
102
RTVSPost2010Prop40
 90
        0
102
RTVSPost2010PropOp40
 70
     1
102
RTVSPost2010Prop41ColorIndex
 90
       18
102
RTVSPost2010Prop41ColorRGB
 90
        0
102
RTVSPost2010PropOp41
 70
     1
102
RTVSPost2010Prop42
 90
       50
102
RTVSPost2010PropOp42
 70
     1
102
RTVSPost2010Prop43
 90
        3
102
RTVSPost2010PropOp43
 70
     1
102
RTVSPost2010Prop44ColorIndex
 90
        5
102
RTVSPost2010Prop44ColorRGB
 90
      255
102
RTVSPost2010PropOp44
 70
     1
102
RTVSPost2010Prop45
280
     0
102
RTVSPost2010PropOp45
 70
     1
102
RTVSPost2010Prop46
 90
       50
102
RTVSPost2010PropOp46
 70
     1
102
RTVSPost2010Prop47
 90
       50
102
RTVSPost2010PropOp47
 70
     1
102
RTVSPost2010Prop48
 90
       50
102
RTVSPost2010PropOp48
 70
     1
102
RTVSPost2010Prop49
280
     0
102
RTVSPost2010PropOp49
 70
     1
102
RTVSPost2010Prop50
 90
       50
102
RTVSPost2010PropOp50
 70
     1
102
RTVSPost2010Prop51ColorIndex
 90
      256
102
RTVSPost2010Prop51ColorRGB
 90
-16777216
102
RTVSPost2010PropOp51
 70
     0
102
RTVSPost2010Prop52
140
1.0
102
RTVSPost2010PropOp52
 70
     0
102
RTVSPost2010Prop53
 90
        2
102
RTVSPost2010PropOp53
 70
     1
102
RTVSPost2010Prop54
  1
strokes_ogs.tif
102
RTVSPost2010PropOp54
 70
     1
102
RTVSPost2010Prop55
280
     0
102
RTVSPost2010PropOp55
 70
     1
102
RTVSPost2010Prop56
140
1.0
102
RTVSPost2010PropOp56
 70
     1
102
RTVSPost2010Prop57
140
1.0
102
RTVSPost2010PropOp57
 70
     1
102
RTVSPropertyOp0
 70
     1
102
RTVSPropertyOp1
 70
     1
102
RTVSPropertyOp2
 70
     1
102
RTVSPropertyOp3
 70
     1
102
RTVSPropertyOp4
 70
     1
102
RTVSPropertyOp5
 70
     1
102
RTVSPropertyOp6
 70
     1
102
RTVSPropertyOp7
 70
     1
102
RTVSPropertyOp8
 70
     1
102
RTVSPropertyOp9
 70
     1
102
RTVSPropertyOp10
 70
     1
102
RTVSPropertyOp11
 70
     1
102
RTVSPropertyOp12
 70
     1
102
RTVSPropertyOp13
 70
     1
102
RTVSPropertyOp14
 70
     1
102
RTVSPropertyOp15
 70
     1
102
RTVSPropertyOp16
 70
     1
102
RTVSPropertyOp17
 70
     1
102
RTVSPropertyOp18
 70
     1
102
RTVSPropertyOp19
 70
     1
102
RTVSPropertyOp20
 70
     1
102
RTVSPropertyOp21
 70
     1
102
RTVSPropertyOp22
 70
     1
102
RTVSPropertyOp23
 70
     1
102
RTVSPropertyOp24
 70
     1
102
RTVSPropertyOp25
 70
     1
102
RTVSPropertyOp26
 70
     1
102
RTVSPropertyOp27
 70
     1
102
RTVSPropertyOp28
 70
     1
102
RTVSPropertyOp29
 70
     1
102
RTVSPropertyOp30
 70
     1
102
RTVSPropertyOp31
 70
     1
102
RTVSPropertyOp32
 70
     1
102
RTVSPropertyOp33
 70
     1
102
RTVSPropertyOp34
 70
     1
102
RTVSPropertyOp35
 70
     1
102
RTVSPropertyOp36
 70
     1
102
RTVSPropertyOp37
 70
     1
102
RTVSPropertyOp38
 70
     1
102
RTVSPropertyOp39
 70
     1
102
RTVSPropertyOp40
 70
     1
102
RTVSPropertyOp41
 70
     1
102
RTVSPropertyOp42
 70
     1
102
RTVSPropertyOp43
 70
     1
102
RTVSPropertyOp44
 70
     1
102
RTVSPropertyOp45
 70
     1
102
RTVSPropertyOp46
 70
     1
102
RTVSPropertyOp47
 70
     1
102
RTVSPropertyOp48
 70
     1
102
RTVSPropertyOp49
 70
     1
102
RTVSPropertyOp50
 70
     1
102
RTVSPropertyOp51
 70
     0
102
RTVSPropertyOp52
 70
     0
102
RTVSPropertyOp53
 70
     1
102
RTVSPropertyOp54
 70
     1
102
RTVSPropertyOp55
 70
     1
102
RTVSPropertyOp56
 70
     1
102
RTVSPropertyOp57
 70
     1
102
RTVSPropertyOp58
 70
     1
102
RTVSPropertyOp59
 70
     1
102
RTVSPropertyOp60
 70
     1
102
RTVSPropertyOp61
 70
     1
102
RTVSPropertyOp62
 70
     1
  0
XRECORD
  5
59A
102
{ACAD_REACTORS
330
599
102
}
330
599
100
AcDbXrecord
280
     1
102
RTVSPost2010Prop28
280
     0
102
RTVSPost2010PropOp28
 70
     1
102
RTVSPost2010Prop29
280
     1
102
RTVSPost2010PropOp29
 70
     1
102
RTVSPost2010Prop30
280
     1
102
RTVSPost2010PropOp30
 70
     1
102
RTVSPost2010Prop31
280
     0
102
RTVSPost2010PropOp31
 70
     1
102
RTVSPost2010Prop32
280
     0
102
RTVSPost2010PropOp32
 70
     1
102
RTVSPost2010Prop33
280
     0
102
RTVSPost2010PropOp33
 70
     1
102
RTVSPost2010Prop34
280
     0
102
RTVSPost2010PropOp34
 70
     1
102
RTVSPost2010Prop35
280
     0
102
RTVSPost2010PropOp35
 70
     1
102
RTVSPost2010Prop36
280
     0
102
RTVSPost2010PropOp36
 70
     1
102
RTVSPost2010Prop37
 90
       50
102
RTVSPost2010PropOp37
 70
     1
102
RTVSPost2010Prop38
140
0.0
102
RTVSPost2010PropOp38
 70
     1
102
RTVSPost2010Prop39
140
1.0
102
RTVSPost2010PropOp39
 70
     1
102
RTVSPost2010Prop40
 90
        0
102
RTVSPost2010PropOp40
 70
     1
102
RTVSPost2010Prop41ColorIndex
 90
       18
102
RTVSPost2010Prop41ColorRGB
 90
        0
102
RTVSPost2010PropOp41
 70
     1
102
RTVSPost2010Prop42
 90
       50
102
RTVSPost2010PropOp42
 70
     1
102
RTVSPost2010Prop43
 90
        3
102
RTVSPost2010PropOp43
 70
     1
102
RTVSPost2010Prop44ColorIndex
 90
        5
102
RTVSPost2010Prop44ColorRGB
 90
      255
102
RTVSPost2010PropOp44
 70
     1
102
RTVSPost2010Prop45
280
     0
102
RTVSPost2010PropOp45
 70
     1
102
RTVSPost2010Prop46
 90
       50
102
RTVSPost2010PropOp46
 70
     1
102
RTVSPost2010Prop47
 90
       50
102
RTVSPost2010PropOp47
 70
     1
102
RTVSPost2010Prop48
 90
       50
102
RTVSPost2010PropOp48
 70
     1
102
RTVSPost2010Prop49
280
     0
102
RTVSPost2010PropOp49
 70
     1
102
RTVSPost2010Prop50
 90
       50
102
RTVSPost2010PropOp50
 70
     1
102
RTVSPost2010Prop51ColorIndex
 90
      256
102
RTVSPost2010Prop51ColorRGB
 90
-16777216
102
RTVSPost2010PropOp51
 70
     0
102
RTVSPost2010Prop52
140
1.0
102
RTVSPost2010PropOp52
 70
     0
102
RTVSPost2010Prop53
 90
        2
102
RTVSPost2010PropOp53
 70
     1
102
RTVSPost2010Prop54
  1
strokes_ogs.tif
102
RTVSPost2010PropOp54
 70
     1
102
RTVSPost2010Prop55
280
     0
102
RTVSPost2010PropOp55
 70
     1
102
RTVSPost2010Prop56
140
1.0
102
RTVSPost2010PropOp56
 70
     1
102
RTVSPost2010Prop57
140
1.0
102
RTVSPost2010PropOp57
 70
     1
102
RTVSPropertyOp0
 70
     1
102
RTVSPropertyOp1
 70
     1
102
RTVSPropertyOp2
 70
     1
102
RTVSPropertyOp3
 70
     1
102
RTVSPropertyOp4
 70
     1
102
RTVSPropertyOp5
 70
     1
102
RTVSPropertyOp6
 70
     1
102
RTVSPropertyOp7
 70
     1
102
RTVSPropertyOp8
 70
     1
102
RTVSPropertyOp9
 70
     1
102
RTVSPropertyOp10
 70
     1
102
RTVSPropertyOp11
 70
     1
102
RTVSPropertyOp12
 70
     1
102
RTVSPropertyOp13
 70
     1
102
RTVSPropertyOp14
 70
     1
102
RTVSPropertyOp15
 70
     1
102
RTVSPropertyOp16
 70
     1
102
RTVSPropertyOp17
 70
     1
102
RTVSPropertyOp18
 70
     1
102
RTVSPropertyOp19
 70
     1
102
RTVSPropertyOp20
 70
     1
102
RTVSPropertyOp21
 70
     1
102
RTVSPropertyOp22
 70
     1
102
RTVSPropertyOp23
 70
     1
102
RTVSPropertyOp24
 70
     1
102
RTVSPropertyOp25
 70
     1
102
RTVSPropertyOp26
 70
     1
102
RTVSPropertyOp27
 70
     1
102
RTVSPropertyOp28
 70
     1
102
RTVSPropertyOp29
 70
     1
102
RTVSPropertyOp30
 70
     1
102
RTVSPropertyOp31
 70
     1
102
RTVSPropertyOp32
 70
     1
102
RTVSPropertyOp33
 70
     1
102
RTVSPropertyOp34
 70
     1
102
RTVSPropertyOp35
 70
     1
102
RTVSPropertyOp36
 70
     1
102
RTVSPropertyOp37
 70
     1
102
RTVSPropertyOp38
 70
     1
102
RTVSPropertyOp39
 70
     1
102
RTVSPropertyOp40
 70
     1
102
RTVSPropertyOp41
 70
     1
102
RTVSPropertyOp42
 70
     1
102
RTVSPropertyOp43
 70
     1
102
RTVSPropertyOp44
 70
     1
102
RTVSPropertyOp45
 70
     1
102
RTVSPropertyOp46
 70
     1
102
RTVSPropertyOp47
 70
     1
102
RTVSPropertyOp48
 70
     1
102
RTVSPropertyOp49
 70
     1
102
RTVSPropertyOp50
 70
     1
102
RTVSPropertyOp51
 70
     0
102
RTVSPropertyOp52
 70
     0
102
RTVSPropertyOp53
 70
     1
102
RTVSPropertyOp54
 70
     1
102
RTVSPropertyOp55
 70
     1
102
RTVSPropertyOp56
 70
     1
102
RTVSPropertyOp57
 70
     1
102
RTVSPropertyOp58
 70
     1
102
RTVSPropertyOp59
 70
     1
102
RTVSPropertyOp60
 70
     1
102
RTVSPropertyOp61
 70
     1
102
RTVSPropertyOp62
 70
     1
  0
XRECORD
  5
5B2
102
{ACAD_REACTORS
330
5B1
102
}
330
5B1
100
AcDbXrecord
280
     1
102
RTVSPost2010Prop28
280
     0
102
RTVSPost2010PropOp28
 70
     1
102
RTVSPost2010Prop29
280
     1
102
RTVSPost2010PropOp29
 70
     1
102
RTVSPost2010Prop30
280
     1
102
RTVSPost2010PropOp30
 70
     1
102
RTVSPost2010Prop31
280
     0
102
RTVSPost2010PropOp31
 70
     1
102
RTVSPost2010Prop32
280
     0
102
RTVSPost2010PropOp32
 70
     1
102
RTVSPost2010Prop33
280
     0
102
RTVSPost2010PropOp33
 70
     1
102
RTVSPost2010Prop34
280
     0
102
RTVSPost2010PropOp34
 70
     1
102
RTVSPost2010Prop35
280
     0
102
RTVSPost2010PropOp35
 70
     1
102
RTVSPost2010Prop36
280
     0
102
RTVSPost2010PropOp36
 70
     1
102
RTVSPost2010Prop37
 90
       50
102
RTVSPost2010PropOp37
 70
     1
102
RTVSPost2010Prop38
140
0.0
102
RTVSPost2010PropOp38
 70
     1
102
RTVSPost2010Prop39
140
1.0
102
RTVSPost2010PropOp39
 70
     1
102
RTVSPost2010Prop40
 90
        0
102
RTVSPost2010PropOp40
 70
     1
102
RTVSPost2010Prop41ColorIndex
 90
       18
102
RTVSPost2010Prop41ColorRGB
 90
        0
102
RTVSPost2010PropOp41
 70
     1
102
RTVSPost2010Prop42
 90
       50
102
RTVSPost2010PropOp42
 70
     1
102
RTVSPost2010Prop43
 90
        3
102
RTVSPost2010PropOp43
 70
     1
102
RTVSPost2010Prop44ColorIndex
 90
        5
102
RTVSPost2010Prop44ColorRGB
 90
      255
102
RTVSPost2010PropOp44
 70
     1
102
RTVSPost2010Prop45
280
     0
102
RTVSPost2010PropOp45
 70
     1
102
RTVSPost2010Prop46
 90
       50
102
RTVSPost2010PropOp46
 70
     1
102
RTVSPost2010Prop47
 90
       50
102
RTVSPost2010PropOp47
 70
     1
102
RTVSPost2010Prop48
 90
       50
102
RTVSPost2010PropOp48
 70
     1
102
RTVSPost2010Prop49
280
     0
102
RTVSPost2010PropOp49
 70
     1
102
RTVSPost2010Prop50
 90
       50
102
RTVSPost2010PropOp50
 70
     1
102
RTVSPost2010Prop51ColorIndex
 90
      256
102
RTVSPost2010Prop51ColorRGB
 90
-16777216
102
RTVSPost2010PropOp51
 70
     0
102
RTVSPost2010Prop52
140
1.0
102
RTVSPost2010PropOp52
 70
     0
102
RTVSPost2010Prop53
 90
        2
102
RTVSPost2010PropOp53
 70
     1
102
RTVSPost2010Prop54
  1
strokes_ogs.tif
102
RTVSPost2010PropOp54
 70
     1
102
RTVSPost2010Prop55
280
     0
102
RTVSPost2010PropOp55
 70
     1
102
RTVSPost2010Prop56
140
1.0
102
RTVSPost2010PropOp56
 70
     1
102
RTVSPost2010Prop57
140
1.0
102
RTVSPost2010PropOp57
 70
     1
102
RTVSPropertyOp0
 70
     1
102
RTVSPropertyOp1
 70
     1
102
RTVSPropertyOp2
 70
     1
102
RTVSPropertyOp3
 70
     1
102
RTVSPropertyOp4
 70
     1
102
RTVSPropertyOp5
 70
     1
102
RTVSPropertyOp6
 70
     1
102
RTVSPropertyOp7
 70
     1
102
RTVSPropertyOp8
 70
     1
102
RTVSPropertyOp9
 70
     1
102
RTVSPropertyOp10
 70
     1
102
RTVSPropertyOp11
 70
     1
102
RTVSPropertyOp12
 70
     1
102
RTVSPropertyOp13
 70
     1
102
RTVSPropertyOp14
 70
     1
102
RTVSPropertyOp15
 70
     1
102
RTVSPropertyOp16
 70
     1
102
RTVSPropertyOp17
 70
     1
102
RTVSPropertyOp18
 70
     1
102
RTVSPropertyOp19
 70
     1
102
RTVSPropertyOp20
 70
     1
102
RTVSPropertyOp21
 70
     1
102
RTVSPropertyOp22
 70
     1
102
RTVSPropertyOp23
 70
     1
102
RTVSPropertyOp24
 70
     1
102
RTVSPropertyOp25
 70
     1
102
RTVSPropertyOp26
 70
     1
102
RTVSPropertyOp27
 70
     1
102
RTVSPropertyOp28
 70
     1
102
RTVSPropertyOp29
 70
     1
102
RTVSPropertyOp30
 70
     1
102
RTVSPropertyOp31
 70
     1
102
RTVSPropertyOp32
 70
     1
102
RTVSPropertyOp33
 70
     1
102
RTVSPropertyOp34
 70
     1
102
RTVSPropertyOp35
 70
     1
102
RTVSPropertyOp36
 70
     1
102
RTVSPropertyOp37
 70
     1
102
RTVSPropertyOp38
 70
     1
102
RTVSPropertyOp39
 70
     1
102
RTVSPropertyOp40
 70
     1
102
RTVSPropertyOp41
 70
     1
102
RTVSPropertyOp42
 70
     1
102
RTVSPropertyOp43
 70
     1
102
RTVSPropertyOp44
 70
     1
102
RTVSPropertyOp45
 70
     1
102
RTVSPropertyOp46
 70
     1
102
RTVSPropertyOp47
 70
     1
102
RTVSPropertyOp48
 70
     1
102
RTVSPropertyOp49
 70
     1
102
RTVSPropertyOp50
 70
     1
102
RTVSPropertyOp51
 70
     0
102
RTVSPropertyOp52
 70
     0
102
RTVSPropertyOp53
 70
     1
102
RTVSPropertyOp54
 70
     1
102
RTVSPropertyOp55
 70
     1
102
RTVSPropertyOp56
 70
     1
102
RTVSPropertyOp57
 70
     1
102
RTVSPropertyOp58
 70
     1
102
RTVSPropertyOp59
 70
     1
102
RTVSPropertyOp60
 70
     1
102
RTVSPropertyOp61
 70
     1
102
RTVSPropertyOp62
 70
     1
  0
ENDSEC
  0
EOF
