  0
SECTION
  2
HEADER
  9
$ACADVER
  1
AC1009
  9
$INSBASE
 10
0.0
 20
0.0
 30
0.0
  9
$EXTMIN
 10
-23.17667162796954
 20
-61.37074016158931
 30
-0.0015258207003583
  9
$EXTMAX
 10
316.0165826993366
 20
199.0362005594526
 30
0.0000000349246037
  9
$LIMMIN
 10
62.088372124565971
 20
115.37176920572909
  9
$LIMMAX
 10
147.75118815104159
 20
181.32846679687489
  9
$ORTHOMODE
 70
     0
  9
$REGENMODE
 70
     1
  9
$FILLMODE
 70
     1
  9
$QTEXTMODE
 70
     0
  9
$MIRRTEXT
 70
     1
  9
$DRAGMODE
 70
     2
  9
$LTSCALE
 40
1.0
  9
$OSMODE
 70
    37
  9
$ATTMODE
 70
     1
  9
$TEXTSIZE
 40
0.0
  9
$TRACEWID
 40
0.05
  9
$TEXTSTYLE
  7
STANDARD
  9
$CLAYER
  8
0
  9
$CELTYPE
  6
CONTINUOUS
  9
$CECOLOR
 62
   256
  9
$DIMSCALE
 40
1.0
  9
$DIMASZ
 40
0.18
  9
$DIMEXO
 40
0.0625
  9
$DIMDLI
 40
0.38
  9
$DIMRND
 40
0.0
  9
$DIMDLE
 40
0.0
  9
$DIMEXE
 40
0.18
  9
$DIMTP
 40
0.0
  9
$DIMTM
 40
0.0
  9
$DIMTXT
 40
0.18
  9
$DIMCEN
 40
0.09
  9
$DIMTSZ
 40
0.0
  9
$DIMTOL
 70
     0
  9
$DIMLIM
 70
     0
  9
$DIMTIH
 70
     1
  9
$DIMTOH
 70
     1
  9
$DIMSE1
 70
     0
  9
$DIMSE2
 70
     0
  9
$DIMTAD
 70
     0
  9
$DIMZIN
 70
     0
  9
$DIMBLK
  1

  9
$DIMASO
 70
     1
  9
$DIMSHO
 70
     1
  9
$DIMPOST
  1

  9
$DIMAPOST
  1

  9
$DIMALT
 70
     0
  9
$DIMALTD
 70
     2
  9
$DIMALTF
 40
25.399999999999999
  9
$DIMLFAC
 40
1.0
  9
$DIMTOFL
 70
     0
  9
$DIMTVP
 40
0.0
  9
$DIMTIX
 70
     0
  9
$DIMSOXD
 70
     0
  9
$DIMSAH
 70
     0
  9
$DIMBLK1
  1

  9
$DIMBLK2
  1

  9
$DIMSTYLE
  2
STANDARD
  9
$DIMCLRD
 70
     0
  9
$DIMCLRE
 70
     0
  9
$DIMCLRT
 70
     0
  9
$DIMTFAC
 40
1.0
  9
$DIMGAP
 40
0.09
  9
$LUNITS
 70
     2
  9
$LUPREC
 70
     4
  9
$SKETCHINC
 40
0.1
  9
$FILLETRAD
 40
0.0
  9
$AUNITS
 70
     0
  9
$AUPREC
 70
     0
  9
$MENU
  1
acad
  9
$ELEVATION
 40
0.0
  9
$PELEVATION
 40
0.0
  9
$THICKNESS
 40
0.0
  9
$LIMCHECK
 70
     0
  9
$BLIPMODE
 70
     0
  9
$CHAMFERA
 40
0.0
  9
$CHAMFERB
 40
0.0
  9
$SKPOLY
 70
     0
  9
$TDCREATE
 40
2454796.4769006828
  9
$TDUPDATE
 40
2454869.7714561229
  9
$TDINDWG
 40
0.0011196759
  9
$TDUSRTIMER
 40
0.0011196759
  9
$USRTIMER
 70
     1
  9
$ANGBASE
 50
0.0
  9
$ANGDIR
 70
     0
  9
$PDMODE
 70
     0
  9
$PDSIZE
 40
0.0
  9
$PLINEWID
 40
0.0
  9
$COORDS
 70
     1
  9
$SPLFRAME
 70
     0
  9
$SPLINETYPE
 70
     6
  9
$SPLINESEGS
 70
     8
  9
$ATTDIA
 70
     0
  9
$ATTREQ
 70
     1
  9
$HANDLING
 70
     1
  9
$HANDSEED
  5
1260
  9
$SURFTAB1
 70
     6
  9
$SURFTAB2
 70
     6
  9
$SURFTYPE
 70
     6
  9
$SURFU
 70
     6
  9
$SURFV
 70
     6
  9
$UCSNAME
  2

  9
$UCSORG
 10
0.0
 20
0.0
 30
0.0
  9
$UCSXDIR
 10
1.0
 20
0.0
 30
0.0
  9
$UCSYDIR
 10
0.0
 20
1.0
 30
0.0
  9
$PUCSNAME
  2

  9
$PUCSORG
 10
0.0
 20
0.0
 30
0.0
  9
$PUCSXDIR
 10
1.0
 20
0.0
 30
0.0
  9
$PUCSYDIR
 10
0.0
 20
1.0
 30
0.0
  9
$USERI1
 70
     0
  9
$USERI2
 70
     0
  9
$USERI3
 70
     0
  9
$USERI4
 70
     0
  9
$USERI5
 70
     0
  9
$USERR1
 40
0.0
  9
$USERR2
 40
0.0
  9
$USERR3
 40
0.0
  9
$USERR4
 40
0.0
  9
$USERR5
 40
0.0
  9
$WORLDVIEW
 70
     1
  9
$SHADEDGE
 70
     3
  9
$SHADEDIF
 70
    70
  9
$TILEMODE
 70
     1
  9
$MAXACTVP
 70
    16
  9
$PLIMCHECK
 70
     0
  9
$PEXTMIN
 10
1.0000000000000000E+020
 20
1.0000000000000000E+020
 30
1.0000000000000000E+020
  9
$PEXTMAX
 10
-1.0000000000000000E+020
 20
-1.0000000000000000E+020
 30
-1.0000000000000000E+020
  9
$PLIMMIN
 10
0.0
 20
0.0
  9
$PLIMMAX
 10
12.0
 20
9.0
  9
$UNITMODE
 70
     0
  9
$VISRETAIN
 70
     0
  9
$PLINEGEN
 70
     1
  9
$PSLTSCALE
 70
     0
  0
ENDSEC
  0
SECTION
  2
TABLES
  0
TABLE
  2
VPORT
 70
     3
  0
VPORT
  2
*ACTIVE
 70
     0
 10
0.0
 20
0.0
 11
1.0
 21
1.0
 12
146.4199555356835
 22
68.832730198931642
 13
0.0
 23
0.0
 14
1.0
 24
1.0
 15
0.0
 25
0.0
 16
0.0
 26
0.0
 36
1.0
 17
0.0
 27
0.0
 37
0.0
 40
262.33350255128391
 41
1.5086419753086411
 42
50.0
 43
0.0
 44
0.0
 50
0.0
 51
0.0
 71
     0
 72
   100
 73
     1
 74
     1
 75
     0
 76
     0
 77
     0
 78
     0
  0
ENDTAB
  0
TABLE
  2
LTYPE
 70
     1
  0
LTYPE
  2
CONTINUOUS
 70
     0
  3
Solid line
 72
    65
 73
     0
 40
0.0
  0
ENDTAB
  0
TABLE
  2
LAYER
 70
     3
  0
LAYER
  2
0
 70
     0
 62
     7
  6
CONTINUOUS
  0
LAYER
  2
EBENE_1
 70
     0
 62
   160
  6
CONTINUOUS
  0
LAYER
  2
DEFPOINTS
 70
     0
 62
     7
  6
CONTINUOUS
  0
ENDTAB
  0
TABLE
  2
STYLE
 70
     5
  0
STYLE
  2
STANDARD
 70
     0
 40
0.0
 41
1.0
 50
0.0
 71
     0
 42
0.0
  3
txt
  4

  0
STYLE
  2
STD
 70
     0
 40
0.0
 41
1.0
 50
0.0
 71
     0
 42
0.0
  3
txt
  4

  0
STYLE
  2
TATESTD
 70
     4
 40
0.0
 41
1.0
 50
0.0
 71
     0
 42
0.0
  3
txt
  4

  0
STYLE
  2
KANJISTD
 70
     0
 40
0.0
 41
1.0
 50
0.0
 71
     0
 42
0.0
  3
txt
  4
extfont
  0
STYLE
  2
KANJITATE
 70
     4
 40
0.0
 41
1.0
 50
0.0
 71
     0
 42
0.0
  3
txt
  4
extfont
  0
ENDTAB
  0
TABLE
  2
VIEW
 70
     0
  0
ENDTAB
  0
TABLE
  2
UCS
 70
     0
  0
ENDTAB
  0
TABLE
  2
APPID
 70
     1
  0
APPID
  2
ACAD
 70
     0
  0
ENDTAB
  0
TABLE
  2
DIMSTYLE
 70
     1
  0
DIMSTYLE
  2
STANDARD
 70
     0
  3

  4

  5

  6

  7

 40
1.0
 41
0.18
 42
0.0625
 43
0.38
 44
0.18
 45
0.0
 46
0.0
 47
0.0
 48
0.0
140
0.18
141
0.09
142
0.0
143
25.399999999999999
144
1.0
145
0.0
146
1.0
147
0.09
 71
     0
 72
     0
 73
     1
 74
     1
 75
     0
 76
     0
 77
     0
 78
     0
170
     0
171
     2
172
     0
173
     0
174
     0
175
     0
176
     0
177
     0
178
     0
  0
ENDTAB
  0
ENDSEC
  0
SECTION
  2
BLOCKS
  0
BLOCK
  8
0
  2
$MODEL_SPACE
 70
     0
 10
0.0
 20
0.0
 30
0.0
  3
$MODEL_SPACE
  1

  0
ENDBLK
  5
C53
  8
0
  0
BLOCK
 67
     1
  8
0
  2
$PAPER_SPACE
 70
     0
 10
0.0
 20
0.0
 30
0.0
  3
$PAPER_SPACE
  1

  0
ENDBLK
  5
C4F
 67
     1
  8
0
  0
BLOCK
  8
EBENE_1
 62
     7
  2
AI9-BLK1
 70
     0
 10
0.0
 20
0.0
 30
0.0
  3
AI9-BLK1
  1

  0
POLYLINE
  5
5C7
  8
EBENE_1
 62
     7
 66
     1
 10
0.0
 20
0.0
 30
0.0
  0
VERTEX
  5
11D1
  8
EBENE_1
 62
     7
 10
-2.8524529351128471
 20
3.74154595269097
 30
0.0
  0
VERTEX
  5
11D2
  8
EBENE_1
 62
     7
 10
-2.7501335991753471
 20
3.5510321723090259
 30
0.0
  0
VERTEX
  5
11D3
  8
EBENE_1
 62
     7
 10
-2.6548767089843741
 20
3.3569010416666649
 30
0.0
  0
VERTEX
  5
11D4
  8
EBENE_1
 62
     7
 10
-2.5630649142795119
 20
3.1627699110243039
 30
0.0
  0
VERTEX
  5
11D5
  8
EBENE_1
 62
     7
 10
-2.4748704698350679
 20
2.9619208441840259
 30
0.0
  0
VERTEX
  5
11D6
  8
EBENE_1
 62
     7
 10
-2.393738471137151
 20
2.764172363281248
 30
0.0
  0
VERTEX
  5
11D7
  8
EBENE_1
 62
     7
 10
-2.3160515679253471
 20
2.5631510416666661
 30
0.0
  0
VERTEX
  5
11D8
  8
EBENE_1
 62
     7
 10
-2.2419820149739582
 20
2.3586846245659721
 30
0.0
  0
VERTEX
  5
11D9
  8
EBENE_1
 62
     7
 10
-2.1749749077690961
 20
2.1540459526909701
 30
0.0
  0
VERTEX
  5
11DA
  8
EBENE_1
 62
     7
 10
-2.115030246310762
 20
1.9459621853298601
 30
0.0
  0
VERTEX
  5
11DB
  8
EBENE_1
 62
     7
 10
-2.0550855848524301
 20
1.737878417968749
 30
0.0
  0
VERTEX
  5
11DC
  8
EBENE_1
 62
     7
 10
-2.002203369140624
 20
1.5292778862847221
 30
0.0
  0
VERTEX
  5
11DD
  8
EBENE_1
 62
     7
 10
-1.9563835991753471
 20
1.3179212782118039
 30
0.0
  0
VERTEX
  5
11DE
  8
EBENE_1
 62
     7
 10
-1.91400892469618
 20
1.1062201605902771
 30
0.0
  0
VERTEX
  5
11DF
  8
EBENE_1
 62
     7
 10
-1.8786966959635401
 20
0.89451904296875
 30
0.0
  0
VERTEX
  5
11E0
  8
EBENE_1
 62
     7
 10
-1.847001817491319
 20
0.6795450846354166
 30
0.0
  0
VERTEX
  5
11E1
  8
EBENE_1
 62
     7
 10
-1.8187520345052071
 20
0.4643988715277779
 30
0.0
  0
VERTEX
  5
11E2
  8
EBENE_1
 62
     7
 10
-1.7975646972656241
 20
0.2490804036458333
 30
0.0
  0
VERTEX
  5
11E3
  8
EBENE_1
 62
     7
 10
-1.7834398057725691
 20
0.0341064453125
 30
0.0
  0
VERTEX
  5
11E4
  8
EBENE_1
 62
     7
 10
-1.772932264539929
 20
-0.1815565321180555
 30
0.0
  0
VERTEX
  5
11E5
  8
EBENE_1
 62
     7
 10
-1.7656975640190971
 20
-0.3967027452256944
 30
0.0
  0
VERTEX
  5
11E6
  8
EBENE_1
 62
     7
 10
-1.7656975640190971
 20
-0.6116767035590277
 30
0.0
  0
VERTEX
  5
11E7
  8
EBENE_1
 62
     7
 10
-1.772932264539929
 20
-0.8273396809895832
 30
0.0
  0
VERTEX
  5
11E8
  8
EBENE_1
 62
     7
 10
-1.7834398057725691
 20
-1.045758734809026
 30
0.0
  0
VERTEX
  5
11E9
  8
EBENE_1
 62
     7
 10
-1.7975646972656241
 20
-1.2607326931423599
 30
0.0
  0
VERTEX
  5
11EA
  8
EBENE_1
 62
     7
 10
-1.8187520345052071
 20
-1.4763956705729151
 30
0.0
  0
VERTEX
  5
11EB
  8
EBENE_1
 62
     7
 10
-1.8433844672309021
 20
-1.687924533420138
 30
0.0
  0
VERTEX
  5
11EC
  8
EBENE_1
 62
     7
 10
-1.8750793457031241
 20
-1.902898491753471
 30
0.0
  0
VERTEX
  5
11ED
  8
EBENE_1
 62
     7
 10
-1.91400892469618
 20
-2.1144273546006942
 30
0.0
  0
VERTEX
  5
11EE
  8
EBENE_1
 62
     7
 10
-1.95276624891493
 20
-2.3266452365451382
 30
0.0
  0
VERTEX
  5
11EF
  8
EBENE_1
 62
     7
 10
-2.002203369140624
 20
-2.5381740993923589
 30
0.0
  0
VERTEX
  5
11F0
  8
EBENE_1
 62
     7
 10
-2.0514682345920119
 20
-2.7497029622395832
 30
0.0
  0
VERTEX
  5
11F1
  8
EBENE_1
 62
     7
 10
-2.1115851508246521
 20
-2.9577867296006941
 30
0.0
  0
VERTEX
  5
11F2
  8
EBENE_1
 62
     7
 10
-2.171529812282984
 20
-3.162425401475693
 30
0.0
  0
VERTEX
  5
11F3
  8
EBENE_1
 62
     7
 10
-2.2385369194878471
 20
-3.3670640733506931
 30
0.0
  0
VERTEX
  5
11F4
  8
EBENE_1
 62
     7
 10
-2.312606472439235
 20
-3.5717027452256942
 30
0.0
  0
VERTEX
  5
11F5
  8
EBENE_1
 62
     7
 10
-2.386676025390623
 20
-3.772896321614581
 30
0.0
  0
VERTEX
  5
11F6
  8
EBENE_1
 62
     7
 10
-2.471253119574651
 20
-3.9740898980034709
 30
0.0
  0
VERTEX
  5
11F7
  8
EBENE_1
 62
     7
 10
-2.5560024685329861
 20
-4.1711493598090259
 30
0.0
  0
VERTEX
  5
11F8
  8
EBENE_1
 62
     7
 10
-2.6476420084635399
 20
-4.365452745225693
 30
0.0
  0
VERTEX
  5
11F9
  8
EBENE_1
 62
     7
 10
-2.7465162489149302
 20
-4.5597561306423611
 30
0.0
  0
VERTEX
  5
11FA
  8
EBENE_1
 62
     7
 10
-2.845218234592013
 20
-4.749925401475692
 30
0.0
  0
VERTEX
  5
11FB
  8
EBENE_1
 62
     7
 10
-2.951154920789929
 20
-4.9407836914062484
 30
0.0
  0
VERTEX
  5
11FC
  8
EBENE_1
 62
     7
 10
-3.060536702473958
 20
-5.1233737521701368
 30
0.0
  0
VERTEX
  5
11FD
  8
EBENE_1
 62
     7
 10
-3.176808675130208
 20
-5.30734185112847
 30
0.0
  0
VERTEX
  5
11FE
  8
EBENE_1
 62
     7
 10
-3.2968702528211802
 20
-5.4871758355034723
 30
0.0
  0
VERTEX
  5
11FF
  8
EBENE_1
 62
     7
 10
-3.4202046712239582
 20
-5.6670098198784711
 30
0.0
  0
VERTEX
  5
1200
  8
EBENE_1
 62
     7
 10
-3.5473286946614562
 20
-5.8399536132812484
 30
0.0
  0
VERTEX
  5
1201
  8
EBENE_1
 62
     7
 10
-3.677897813585068
 20
-6.0128974066840257
 30
0.0
  0
VERTEX
  5
1202
  8
EBENE_1
 62
     7
 10
-3.8153571234809021
 20
-6.1789510091145807
 30
0.0
  0
VERTEX
  5
1203
  8
EBENE_1
 62
     7
 10
-3.952988688151041
 20
-6.3443155924479164
 30
0.0
  0
VERTEX
  5
1204
  8
EBENE_1
 62
     7
 10
-4.0976826985677084
 20
-6.5034790039062491
 30
0.0
  0
VERTEX
  5
1205
  8
EBENE_1
 62
     7
 10
-4.2458218044704861
 20
-6.6619533962673589
 30
0.0
  0
VERTEX
  5
1206
  8
EBENE_1
 62
     7
 10
-4.3975782606336802
 20
-6.8169826931423589
 30
0.0
  0
VERTEX
  5
1207
  8
EBENE_1
 62
     7
 10
-4.552779812282985
 20
-6.9658108181423604
 30
0.0
  0
VERTEX
  5
1208
  8
EBENE_1
 62
     7
 10
-4.7114264594184014
 20
-7.1139499240451372
 30
0.0
  0
VERTEX
  5
1209
  8
EBENE_1
 62
     7
 10
-4.8736904568142361
 20
-7.2545098198784697
 30
0.0
  0
VERTEX
  5
120A
  8
EBENE_1
 62
     7
 10
-5.0395718044704836
 20
-7.3923136393229152
 30
0.0
  0
VERTEX
  5
120B
  8
EBENE_1
 62
     7
 10
-5.2088982476128471
 20
-7.52667236328125
 30
0.0
  0
VERTEX
  5
120C
  8
EBENE_1
 62
     7
 10
-5.381669786241317
 20
-7.6568969726562468
 30
0.0
  0
VERTEX
  5
120D
  8
EBENE_1
 62
     7
 10
-5.5580586751302059
 20
-7.7836764865451373
 30
0.0
  0
VERTEX
  5
120E
  8
EBENE_1
 62
     7
 10
-5.7380649142795122
 20
-7.9035658094618038
 30
0.0
  0
VERTEX
  5
120F
  8
EBENE_1
 62
     7
 10
-5.9180711534288193
 20
-8.0200100368923604
 30
0.0
  0
VERTEX
  5
1210
  8
EBENE_1
 62
     7
 10
-6.1015224880642354
 20
-8.1330091688368054
 30
0.0
  0
VERTEX
  5
1211
  8
EBENE_1
 62
     7
 10
-6.2884189181857622
 20
-8.2418741861979168
 30
0.0
  0
VERTEX
  5
1212
  8
EBENE_1
 62
     7
 10
-6.4789326985677071
 20
-8.3445380316840296
 30
0.0
  0
VERTEX
  5
1213
  8
EBENE_1
 62
     7
 10
-6.6694464789496521
 20
-8.4437567816840264
 30
0.0
  0
VERTEX
  5
1214
  8
EBENE_1
 62
     7
 10
-6.863405354817707
 20
-8.5388414171006932
 30
0.0
  0
VERTEX
  5
1215
  8
EBENE_1
 62
     7
 10
-7.06098158094618
 20
-8.6270358615451368
 30
0.0
  0
VERTEX
  5
1216
  8
EBENE_1
 62
     7
 10
-7.258557807074653
 20
-8.7117852105034697
 30
0.0
  0
VERTEX
  5
1217
  8
EBENE_1
 62
     7
 10
-7.459579128689235
 20
-8.7930894639756936
 30
0.0
  0
VERTEX
  5
1218
  8
EBENE_1
 62
     7
 10
-7.6642178005642352
 20
-8.8668145073784697
 30
0.0
  0
VERTEX
  5
1219
  8
EBENE_1
 62
     7
 10
-7.8688564724392354
 20
-8.9377834743923579
 30
0.0
  0
VERTEX
  5
121A
  8
EBENE_1
 62
     7
 10
-8.0734951443142329
 20
-9.0011732313368054
 30
0.0
  0
VERTEX
  5
121B
  8
EBENE_1
 62
     7
 10
-8.2815789116753464
 20
-9.0604288736979175
 30
0.0
  0
VERTEX
  5
121C
  8
EBENE_1
 62
     7
 10
-8.4896626790364582
 20
-9.1169284396701382
 30
0.0
  0
VERTEX
  5
121D
  8
EBENE_1
 62
     7
 10
-8.7013637966579847
 20
-9.1665378146701357
 30
0.0
  0
VERTEX
  5
121E
  8
EBENE_1
 62
     7
 10
-8.9130649142795129
 20
-9.2127020941840261
 30
0.0
  0
VERTEX
  5
121F
  8
EBENE_1
 62
     7
 10
-9.1247660319010393
 20
-9.2512871636284721
 30
0.0
  0
VERTEX
  5
1220
  8
EBENE_1
 62
     7
 10
-9.3364671495225675
 20
-9.2864271375868022
 30
0.0
  0
VERTEX
  5
1221
  8
EBENE_1
 62
     7
 10
-9.5516133626302082
 20
-9.3146769205729161
 30
0.0
  0
VERTEX
  5
1222
  8
EBENE_1
 62
     7
 10
-9.7667595757378471
 20
-9.3394816080729157
 30
0.0
  0
VERTEX
  5
1223
  8
EBENE_1
 62
     7
 10
-9.9820780436197882
 20
-9.3567070855034729
 30
0.0
  0
VERTEX
  5
1224
  8
EBENE_1
 62
     7
 10
-10.197224256727431
 20
-9.3711764865451368
 30
0.0
  0
VERTEX
  5
1225
  8
EBENE_1
 62
     7
 10
-10.41237046983507
 20
-9.3787556966145846
 30
0.0
  0
VERTEX
  5
1226
  8
EBENE_1
 62
     7
 10
-10.62751668294271
 20
-9.3815117730034707
 30
0.0
  0
VERTEX
  5
1227
  8
EBENE_1
 62
     7
 10
-10.84628024631076
 20
-9.3787556966145846
 30
0.0
  0
VERTEX
  5
1228
  8
EBENE_1
 62
     7
 10
-11.061426459418399
 20
-9.3711764865451368
 30
0.0
  0
VERTEX
  5
1229
  8
EBENE_1
 62
     7
 10
-11.27674492730034
 20
-9.3567070855034729
 30
0.0
  0
VERTEX
  5
122A
  8
EBENE_1
 62
     7
 10
-11.491891140407979
 20
-9.3394816080729157
 30
0.0
  0
VERTEX
  5
122B
  8
EBENE_1
 62
     7
 10
-11.70703735351562
 20
-9.3146769205729161
 30
0.0
  0
VERTEX
  5
122C
  8
EBENE_1
 62
     7
 10
-11.91873847113715
 20
-9.2864271375868022
 30
0.0
  0
VERTEX
  5
122D
  8
EBENE_1
 62
     7
 10
-12.133884684244791
 20
-9.2547322591145846
 30
0.0
  0
VERTEX
  5
122E
  8
EBENE_1
 62
     7
 10
-12.345585801866321
 20
-9.2127020941840261
 30
0.0
  0
VERTEX
  5
122F
  8
EBENE_1
 62
     7
 10
-12.55728691948784
 20
-9.1706719292534729
 30
0.0
  0
VERTEX
  5
1230
  8
EBENE_1
 62
     7
 10
-12.76881578233507
 20
-9.1210625542534718
 30
0.0
  0
VERTEX
  5
1231
  8
EBENE_1
 62
     7
 10
-12.97707180447048
 20
-9.0645629882812475
 30
0.0
  0
VERTEX
  5
1232
  8
EBENE_1
 62
     7
 10
-13.18515557183159
 20
-9.0080634223090268
 30
0.0
  0
VERTEX
  5
1233
  8
EBENE_1
 62
     7
 10
-13.389794243706589
 20
-8.9412285698784721
 30
0.0
  0
VERTEX
  5
1234
  8
EBENE_1
 62
     7
 10
-13.59443291558159
 20
-8.8737046983506929
 30
0.0
  0
VERTEX
  5
1235
  8
EBENE_1
 62
     7
 10
-13.79907158745659
 20
-8.7958455403645832
 30
0.0
  0
VERTEX
  5
1236
  8
EBENE_1
 62
     7
 10
-13.996647813585071
 20
-8.7186754014756946
 30
0.0
  0
VERTEX
  5
1237
  8
EBENE_1
 62
     7
 10
-14.19766913519965
 20
-8.63392605251736
 30
0.0
  0
VERTEX
  5
1238
  8
EBENE_1
 62
     7
 10
-14.39524536132812
 20
-8.5457316080729147
 30
0.0
  0
VERTEX
  5
1239
  8
EBENE_1
 62
     7
 10
-14.58920423719618
 20
-8.4506469726562496
 30
0.0
  0
VERTEX
  5
123A
  8
EBENE_1
 62
     7
 10
-14.779718017578119
 20
-8.3521172417534721
 30
0.0
  0
VERTEX
  5
123B
  8
EBENE_1
 62
     7
 10
-14.97023179796007
 20
-8.2494533962673611
 30
0.0
  0
VERTEX
  5
123C
  8
EBENE_1
 62
     7
 10
-15.1573004828559
 20
-8.1398993598090268
 30
0.0
  0
VERTEX
  5
123D
  8
EBENE_1
 62
     7
 10
-15.340751817491309
 20
-8.0269002278645818
 30
0.0
  0
VERTEX
  5
123E
  8
EBENE_1
 62
     7
 10
-15.52403089735243
 20
-7.9104560004340252
 30
0.0
  0
VERTEX
  5
123F
  8
EBENE_1
 62
     7
 10
-15.70041978624131
 20
-7.7912556966145798
 30
0.0
  0
VERTEX
  5
1240
  8
EBENE_1
 62
     7
 10
-15.876808675130199
 20
-7.6637871636284709
 30
0.0
  0
VERTEX
  5
1241
  8
EBENE_1
 62
     7
 10
-16.049752468532979
 20
-7.5335625542534697
 30
0.0
  0
VERTEX
  5
1242
  8
EBENE_1
 62
     7
 10
-16.219078911675339
 20
-7.3992038302951366
 30
0.0
  0
VERTEX
  5
1243
  8
EBENE_1
 62
     7
 10
-16.384960259331589
 20
-7.2620890299479131
 30
0.0
  0
VERTEX
  5
1244
  8
EBENE_1
 62
     7
 10
-16.547224256727429
 20
-7.1208401150173604
 30
0.0
  0
VERTEX
  5
1245
  8
EBENE_1
 62
     7
 10
-16.709488254123261
 20
-6.9754570855034723
 30
0.0
  0
VERTEX
  5
1246
  8
EBENE_1
 62
     7
 10
-16.864689805772571
 20
-6.824561903211805
 30
0.0
  0
VERTEX
  5
1247
  8
EBENE_1
 62
     7
 10
-17.016446261935759
 20
-6.6729777018229139
 30
0.0
  0
VERTEX
  5
1248
  8
EBENE_1
 62
     7
 10
-17.164585367838541
 20
-6.5138142903645821
 30
0.0
  0
VERTEX
  5
1249
  8
EBENE_1
 62
     7
 10
-17.309107123480899
 20
-6.3553398980034723
 30
0.0
  0
VERTEX
  5
124A
  8
EBENE_1
 62
     7
 10
-17.44673868815104
 20
-6.1892862955729164
 30
0.0
  0
VERTEX
  5
124B
  8
EBENE_1
 62
     7
 10
-17.584370252821181
 20
-6.0232326931423588
 30
0.0
  0
VERTEX
  5
124C
  8
EBENE_1
 62
     7
 10
-17.714767116970471
 20
-5.8509779188368052
 30
0.0
  0
VERTEX
  5
124D
  8
EBENE_1
 62
     7
 10
-17.845508490668401
 20
-5.677345106336805
 30
0.0
  0
VERTEX
  5
124E
  8
EBENE_1
 62
     7
 10
-17.968842909071181
 20
-5.5016452365451372
 30
0.0
  0
VERTEX
  5
124F
  8
EBENE_1
 62
     7
 10
-18.08890448676215
 20
-5.3218112521701366
 30
0.0
  0
VERTEX
  5
1250
  8
EBENE_1
 62
     7
 10
-18.201731363932289
 20
-5.1378431532118052
 30
0.0
  0
VERTEX
  5
1251
  8
EBENE_1
 62
     7
 10
-18.311113145616311
 20
-4.9511189778645832
 30
0.0
  0
VERTEX
  5
1252
  8
EBENE_1
 62
     7
 10
-18.41687757703993
 20
-4.7643948025173604
 30
0.0
  0
SEQEND
  5
1253
  8
EBENE_1
 62
     7
  0
POLYLINE
  5
543
  8
EBENE_1
 62
     7
 66
     1
 10
0.0
 20
0.0
 30
0.0
  0
VERTEX
  5
114E
  8
EBENE_1
 62
     7
 10
-2.8524529351128471
 20
3.74154595269097
 30
0.0
  0
VERTEX
  5
114F
  8
EBENE_1
 62
     7
 10
-2.9582173665364562
 20
3.92878689236111
 30
0.0
  0
VERTEX
  5
1150
  8
EBENE_1
 62
     7
 10
-3.0675991482204839
 20
4.1151665581597214
 30
0.0
  0
VERTEX
  5
1151
  8
EBENE_1
 62
     7
 10
-3.18404337565104
 20
4.2987901475694441
 30
0.0
  0
VERTEX
  5
1152
  8
EBENE_1
 62
     7
 10
-3.3039326985677082
 20
4.4786241319444411
 30
0.0
  0
VERTEX
  5
1153
  8
EBENE_1
 62
     7
 10
-3.427267116970484
 20
4.6550130208333309
 30
0.0
  0
VERTEX
  5
1154
  8
EBENE_1
 62
     7
 10
-3.5543911404079842
 20
4.82795681423611
 30
0.0
  0
VERTEX
  5
1155
  8
EBENE_1
 62
     7
 10
-3.6847880045572912
 20
5.0009006076388882
 30
0.0
  0
VERTEX
  5
1156
  8
EBENE_1
 62
     7
 10
-3.8225918240017349
 20
5.1666097005208309
 30
0.0
  0
VERTEX
  5
1157
  8
EBENE_1
 62
     7
 10
-3.963668484157985
 20
5.3323187934027771
 30
0.0
  0
VERTEX
  5
1158
  8
EBENE_1
 62
     7
 10
-4.1081902398003471
 20
5.4914822048611089
 30
0.0
  0
VERTEX
  5
1159
  8
EBENE_1
 62
     7
 10
-4.256329345703123
 20
5.6501288519965271
 30
0.0
  0
VERTEX
  5
115A
  8
EBENE_1
 62
     7
 10
-4.408085801866318
 20
5.8015407986111089
 30
0.0
  0
VERTEX
  5
115B
  8
EBENE_1
 62
     7
 10
-4.5632873535156229
 20
5.9531249999999991
 30
0.0
  0
VERTEX
  5
115C
  8
EBENE_1
 62
     7
 10
-4.722106255425345
 20
6.09799126519097
 30
0.0
  0
VERTEX
  5
115D
  8
EBENE_1
 62
     7
 10
-4.8843702528211788
 20
6.2392401801215271
 30
0.0
  0
VERTEX
  5
115E
  8
EBENE_1
 62
     7
 10
-5.0500793457031241
 20
6.3766994900173604
 30
0.0
  0
VERTEX
  5
115F
  8
EBENE_1
 62
     7
 10
-5.2195780436197907
 20
6.510713704427082
 30
0.0
  0
VERTEX
  5
1160
  8
EBENE_1
 62
     7
 10
-5.3923495822482632
 20
6.641282823350692
 30
0.0
  0
VERTEX
  5
1161
  8
EBENE_1
 62
     7
 10
-5.5687384711371521
 20
6.7684068467881922
 30
0.0
  0
VERTEX
  5
1162
  8
EBENE_1
 62
     7
 10
-5.7487447102864557
 20
6.8884684244791661
 30
0.0
  0
VERTEX
  5
1163
  8
EBENE_1
 62
     7
 10
-5.9285786946614571
 20
7.0047403971354161
 30
0.0
  0
VERTEX
  5
1164
  8
EBENE_1
 62
     7
 10
-6.1120300292968732
 20
7.1175672743055527
 30
0.0
  0
VERTEX
  5
1165
  8
EBENE_1
 62
     7
 10
-6.3025438096788191
 20
7.2267768012152764
 30
0.0
  0
VERTEX
  5
1166
  8
EBENE_1
 62
     7
 10
-6.489440239800345
 20
7.3292683919270809
 30
0.0
  0
VERTEX
  5
1167
  8
EBENE_1
 62
     7
 10
-6.6833991156684007
 20
7.4281426323784698
 30
0.0
  0
VERTEX
  5
1168
  8
EBENE_1
 62
     7
 10
-6.8775302463107622
 20
7.5230550130208309
 30
0.0
  0
VERTEX
  5
1169
  8
EBENE_1
 62
     7
 10
-7.0751064724392352
 20
7.611421712239582
 30
0.0
  0
VERTEX
  5
116A
  8
EBENE_1
 62
     7
 10
-7.2726826985677073
 20
7.69599880642361
 30
0.0
  0
VERTEX
  5
116B
  8
EBENE_1
 62
     7
 10
-7.4737040201822911
 20
7.7736857096354139
 30
0.0
  0
VERTEX
  5
116C
  8
EBENE_1
 62
     7
 10
-7.674725341796873
 20
7.8512003580729139
 30
0.0
  0
VERTEX
  5
116D
  8
EBENE_1
 62
     7
 10
-7.879536268446178
 20
7.9182074652777761
 30
0.0
  0
VERTEX
  5
116E
  8
EBENE_1
 62
     7
 10
-8.0876200358072872
 20
7.9853868272569422
 30
0.0
  0
VERTEX
  5
116F
  8
EBENE_1
 62
     7
 10
-8.2957038031684007
 20
8.0417141384548607
 30
0.0
  0
VERTEX
  5
1170
  8
EBENE_1
 62
     7
 10
-8.5037875705295125
 20
8.0982137044270832
 30
0.0
  0
VERTEX
  5
1171
  8
EBENE_1
 62
     7
 10
-8.7118713378906243
 20
8.1478230794270807
 30
0.0
  0
VERTEX
  5
1172
  8
EBENE_1
 62
     7
 10
-8.9237447102864582
 20
8.1898532443576375
 30
0.0
  0
VERTEX
  5
1173
  8
EBENE_1
 62
     7
 10
-9.1388909233940954
 20
8.2320556640625
 30
0.0
  0
VERTEX
  5
1174
  8
EBENE_1
 62
     7
 10
-9.3504197862413161
 20
8.2642673068576382
 30
0.0
  0
VERTEX
  5
1175
  8
EBENE_1
 62
     7
 10
-9.5657382541232625
 20
8.2920003255208332
 30
0.0
  0
VERTEX
  5
1176
  8
EBENE_1
 62
     7
 10
-9.7808844672308997
 20
8.3168050130208329
 30
0.0
  0
VERTEX
  5
1177
  8
EBENE_1
 62
     7
 10
-9.9962029351128461
 20
8.3343749999999979
 30
0.0
  0
VERTEX
  5
1178
  8
EBENE_1
 62
     7
 10
-10.21134914822048
 20
8.3484998914930522
 30
0.0
  0
VERTEX
  5
1179
  8
EBENE_1
 62
     7
 10
-10.42649536132812
 20
8.3559068467881943
 30
0.0
  0
VERTEX
  5
117A
  8
EBENE_1
 62
     7
 10
-10.641641574435759
 20
8.3591796874999975
 30
0.0
  0
VERTEX
  5
117B
  8
EBENE_1
 62
     7
 10
-10.8569600423177
 20
8.3559068467881943
 30
0.0
  0
VERTEX
  5
117C
  8
EBENE_1
 62
     7
 10
-11.07555135091145
 20
8.3484998914930522
 30
0.0
  0
VERTEX
  5
117D
  8
EBENE_1
 62
     7
 10
-11.290697564019091
 20
8.3343749999999979
 30
0.0
  0
VERTEX
  5
117E
  8
EBENE_1
 62
     7
 10
-11.506016031901041
 20
8.3168050130208329
 30
0.0
  0
VERTEX
  5
117F
  8
EBENE_1
 62
     7
 10
-11.72116224500868
 20
8.2920003255208332
 30
0.0
  0
VERTEX
  5
1180
  8
EBENE_1
 62
     7
 10
-11.93286336263021
 20
8.2642673068576382
 30
0.0
  0
VERTEX
  5
1181
  8
EBENE_1
 62
     7
 10
-12.14800957573785
 20
8.2287828233506932
 30
0.0
  0
VERTEX
  5
1182
  8
EBENE_1
 62
     7
 10
-12.35971069335937
 20
8.1898532443576375
 30
0.0
  0
VERTEX
  5
1183
  8
EBENE_1
 62
     7
 10
-12.5714118109809
 20
8.1438612196180546
 30
0.0
  0
VERTEX
  5
1184
  8
EBENE_1
 62
     7
 10
-12.77949557834201
 20
8.094596354166665
 30
0.0
  0
VERTEX
  5
1185
  8
EBENE_1
 62
     7
 10
-12.99119669596354
 20
8.03826904296875
 30
0.0
  0
VERTEX
  5
1186
  8
EBENE_1
 62
     7
 10
-13.195835367838541
 20
7.9781521267361102
 30
0.0
  0
VERTEX
  5
1187
  8
EBENE_1
 62
     7
 10
-13.403919135199651
 20
7.9149346245659711
 30
0.0
  0
VERTEX
  5
1188
  8
EBENE_1
 62
     7
 10
-13.60855780707465
 20
7.8441379123263859
 30
0.0
  0
VERTEX
  5
1189
  8
EBENE_1
 62
     7
 10
-13.809579128689229
 20
7.7700683593749984
 30
0.0
  0
VERTEX
  5
118A
  8
EBENE_1
 62
     7
 10
-14.010600450303819
 20
7.688764105902778
 30
0.0
  0
VERTEX
  5
118B
  8
EBENE_1
 62
     7
 10
-14.20834893120659
 20
7.6043592664930539
 30
0.0
  0
VERTEX
  5
118C
  8
EBENE_1
 62
     7
 10
-14.405925157335069
 20
7.5161648220486086
 30
0.0
  0
VERTEX
  5
118D
  8
EBENE_1
 62
     7
 10
-14.59988403320312
 20
7.4209079318576361
 30
0.0
  0
VERTEX
  5
118E
  8
EBENE_1
 62
     7
 10
-14.793842909071181
 20
7.322033691406248
 30
0.0
  0
VERTEX
  5
118F
  8
EBENE_1
 62
     7
 10
-14.980739339192709
 20
7.2197143554687484
 30
0.0
  0
VERTEX
  5
1190
  8
EBENE_1
 62
     7
 10
-15.16780802408854
 20
7.1103325737847198
 30
0.0
  0
VERTEX
  5
1191
  8
EBENE_1
 62
     7
 10
-15.354876708984371
 20
6.9975056966145823
 30
0.0
  0
VERTEX
  5
1192
  8
EBENE_1
 62
     7
 10
-15.53471069335937
 20
6.8810614691840257
 30
0.0
  0
VERTEX
  5
1193
  8
EBENE_1
 62
     7
 10
-15.714716932508679
 20
6.7609998914930562
 30
0.0
  0
VERTEX
  5
1194
  8
EBENE_1
 62
     7
 10
-15.88748847113715
 20
6.6343926323784723
 30
0.0
  0
VERTEX
  5
1195
  8
EBENE_1
 62
     7
 10
-16.06043226453993
 20
6.5038235134548588
 30
0.0
  0
VERTEX
  5
1196
  8
EBENE_1
 62
     7
 10
-16.229586452907981
 20
6.3698092990451372
 30
0.0
  0
VERTEX
  5
1197
  8
EBENE_1
 62
     7
 10
-16.39546780056423
 20
6.2318332248263868
 30
0.0
  0
VERTEX
  5
1198
  8
EBENE_1
 62
     7
 10
-16.557731797960059
 20
6.0909288194444411
 30
0.0
  0
VERTEX
  5
1199
  8
EBENE_1
 62
     7
 10
-16.716550699869789
 20
5.9427897135416652
 30
0.0
  0
VERTEX
  5
119A
  8
EBENE_1
 62
     7
 10
-16.871752251519091
 20
5.7946506076388884
 30
0.0
  0
VERTEX
  5
119B
  8
EBENE_1
 62
     7
 10
-17.02333645290798
 20
5.6392768012152761
 30
0.0
  0
VERTEX
  5
119C
  8
EBENE_1
 62
     7
 10
-17.171647813585071
 20
5.480457899305553
 30
0.0
  0
VERTEX
  5
119D
  8
EBENE_1
 62
     7
 10
-17.316341824001729
 20
5.3216389973958309
 30
0.0
  0
VERTEX
  5
119E
  8
EBENE_1
 62
     7
 10
-17.45741848415798
 20
5.156102159288193
 30
0.0
  0
VERTEX
  5
119F
  8
EBENE_1
 62
     7
 10
-17.591432698567711
 20
4.9903930664062477
 30
0.0
  0
VERTEX
  5
11A0
  8
EBENE_1
 62
     7
 10
-17.725446912977421
 20
4.8172770182291664
 30
0.0
  0
VERTEX
  5
11A1
  8
EBENE_1
 62
     7
 10
-17.852398681640619
 20
4.6443332248263882
 30
0.0
  0
VERTEX
  5
11A2
  8
EBENE_1
 62
     7
 10
-17.975905354817701
 20
4.4644992404513868
 30
0.0
  0
VERTEX
  5
11A3
  8
EBENE_1
 62
     7
 10
-18.095966932508681
 20
4.284837510850692
 30
0.0
  0
VERTEX
  5
11A4
  8
EBENE_1
 62
     7
 10
-18.208793809678809
 20
4.1010416666666654
 30
0.0
  0
VERTEX
  5
11A5
  8
EBENE_1
 62
     7
 10
-18.318175591362841
 20
3.917762586805555
 30
0.0
  0
VERTEX
  5
11A6
  8
EBENE_1
 62
     7
 10
-18.423940022786461
 20
3.72724880642361
 30
0.0
  0
VERTEX
  5
11A7
  8
EBENE_1
 62
     7
 10
-18.526259358723951
 20
3.536735026041665
 30
0.0
  0
VERTEX
  5
11A8
  8
EBENE_1
 62
     7
 10
-18.621516248914919
 20
3.342948404947915
 30
0.0
  0
VERTEX
  5
11A9
  8
EBENE_1
 62
     7
 10
-18.713328043619789
 20
3.148817274305554
 30
0.0
  0
VERTEX
  5
11AA
  8
EBENE_1
 62
     7
 10
-18.801522488064219
 20
2.9510687934027762
 30
0.0
  0
VERTEX
  5
11AB
  8
EBENE_1
 62
     7
 10
-18.882654486762149
 20
2.7500474717881942
 30
0.0
  0
VERTEX
  5
11AC
  8
EBENE_1
 62
     7
 10
-18.960169135199649
 20
2.5491984049479162
 30
0.0
  0
VERTEX
  5
11AD
  8
EBENE_1
 62
     7
 10
-19.030793592664921
 20
2.3445597330729151
 30
0.0
  0
VERTEX
  5
11AE
  8
EBENE_1
 62
     7
 10
-19.09780069986979
 20
2.1397488064236101
 30
0.0
  0
VERTEX
  5
11AF
  8
EBENE_1
 62
     7
 10
-19.161190456814229
 20
1.9351101345486099
 30
0.0
  0
VERTEX
  5
11B0
  8
EBENE_1
 62
     7
 10
-19.217690022786449
 20
1.727026367187499
 30
0.0
  0
VERTEX
  5
11B1
  8
EBENE_1
 62
     7
 10
-19.270572238498261
 20
1.515325249565971
 30
0.0
  0
VERTEX
  5
11B2
  8
EBENE_1
 62
     7
 10
-19.316392008463541
 20
1.303624131944443
 30
0.0
  0
VERTEX
  5
11B3
  8
EBENE_1
 62
     7
 10
-19.358766682942711
 20
1.0924397786458331
 30
0.0
  0
VERTEX
  5
11B4
  8
EBENE_1
 62
     7
 10
-19.394078911675351
 20
0.8803941514756942
 30
0.0
  0
VERTEX
  5
11B5
  8
EBENE_1
 62
     7
 10
-19.425773790147559
 20
0.665420193142361
 30
0.0
  0
VERTEX
  5
11B6
  8
EBENE_1
 62
     7
 10
-19.454023573133679
 20
0.4533745659722224
 30
0.0
  0
VERTEX
  5
11B7
  8
EBENE_1
 62
     7
 10
-19.471765814887149
 20
0.2384006076388889
 30
0.0
  0
VERTEX
  5
11B8
  8
EBENE_1
 62
     7
 10
-19.489335801866321
 20
0.0230821397569445
 30
0.0
  0
VERTEX
  5
11B9
  8
EBENE_1
 62
     7
 10
-19.500015597873261
 20
-0.1955091688368055
 30
0.0
  0
VERTEX
  5
11BA
  8
EBENE_1
 62
     7
 10
-19.503460693359369
 20
-0.410483127170139
 30
0.0
  0
VERTEX
  5
11BB
  8
EBENE_1
 62
     7
 10
-19.503460693359369
 20
-0.6254570855034723
 30
0.0
  0
VERTEX
  5
11BC
  8
EBENE_1
 62
     7
 10
-19.500015597873261
 20
-0.8411200629340276
 30
0.0
  0
VERTEX
  5
11BD
  8
EBENE_1
 62
     7
 10
-19.489335801866321
 20
-1.0560940212673611
 30
0.0
  0
VERTEX
  5
11BE
  8
EBENE_1
 62
     7
 10
-19.471765814887149
 20
-1.2710679796006941
 30
0.0
  0
VERTEX
  5
11BF
  8
EBENE_1
 62
     7
 10
-19.450578477647571
 20
-1.486730957031249
 30
0.0
  0
VERTEX
  5
11C0
  8
EBENE_1
 62
     7
 10
-19.425773790147559
 20
-1.701704915364582
 30
0.0
  0
VERTEX
  5
11C1
  8
EBENE_1
 62
     7
 10
-19.394078911675351
 20
-1.916678873697915
 30
0.0
  0
VERTEX
  5
11C2
  8
EBENE_1
 62
     7
 10
-19.355321587456601
 20
-2.128896755642359
 30
0.0
  0
VERTEX
  5
11C3
  8
EBENE_1
 62
     7
 10
-19.312946912977431
 20
-2.340425618489582
 30
0.0
  0
VERTEX
  5
11C4
  8
EBENE_1
 62
     7
 10
-19.26712714301215
 20
-2.551954481336804
 30
0.0
  0
VERTEX
  5
11C5
  8
EBENE_1
 62
     7
 10
-19.21407267252604
 20
-2.7600382486979149
 30
0.0
  0
VERTEX
  5
11C6
  8
EBENE_1
 62
     7
 10
-19.157745361328121
 20
-2.9688110351562478
 30
0.0
  0
VERTEX
  5
11C7
  8
EBENE_1
 62
     7
 10
-19.09418334960937
 20
-3.17689480251736
 30
0.0
  0
VERTEX
  5
11C8
  8
EBENE_1
 62
     7
 10
-19.027176242404511
 20
-3.3815334743923602
 30
0.0
  0
VERTEX
  5
11C9
  8
EBENE_1
 62
     7
 10
-18.956724039713531
 20
-3.585483127170138
 30
0.0
  0
VERTEX
  5
11CA
  8
EBENE_1
 62
     7
 10
-18.879037136501719
 20
-3.7866767035590261
 30
0.0
  0
VERTEX
  5
11CB
  8
EBENE_1
 62
     7
 10
-18.794460042317692
 20
-3.987870279947916
 30
0.0
  0
VERTEX
  5
11CC
  8
EBENE_1
 62
     7
 10
-18.709710693359369
 20
-4.1856187608506943
 30
0.0
  0
VERTEX
  5
11CD
  8
EBENE_1
 62
     7
 10
-18.618071153428811
 20
-4.3792331271701368
 30
0.0
  0
VERTEX
  5
11CE
  8
EBENE_1
 62
     7
 10
-18.519196912977431
 20
-4.573536512586803
 30
0.0
  0
VERTEX
  5
11CF
  8
EBENE_1
 62
     7
 10
-18.41687757703993
 20
-4.7643948025173604
 30
0.0
  0
SEQEND
  5
11D0
  8
EBENE_1
 62
     7
  0
POLYLINE
  5
4A4
  8
EBENE_1
 62
     7
 66
     1
 10
0.0
 20
0.0
 30
0.0
 70
     1
  0
VERTEX
  5
10B0
  8
EBENE_1
 62
     7
 10
-13.60855780707465
 20
4.9304484049479163
 30
0.0
  0
VERTEX
  5
10B1
  8
EBENE_1
 62
     7
 10
-13.823704020182291
 20
4.8067694769965259
 30
0.0
  0
VERTEX
  5
10B2
  8
EBENE_1
 62
     7
 10
-14.035405137803821
 20
4.67292751736111
 30
0.0
  0
VERTEX
  5
10B3
  8
EBENE_1
 62
     7
 10
-14.243488905164931
 20
4.5320231119791661
 30
0.0
  0
VERTEX
  5
10B4
  8
EBENE_1
 62
     7
 10
-14.444682481553819
 20
4.3837117513020809
 30
0.0
  0
VERTEX
  5
10B5
  8
EBENE_1
 62
     7
 10
-14.63864135742187
 20
4.224720594618053
 30
0.0
  0
VERTEX
  5
10B6
  8
EBENE_1
 62
     7
 10
-14.825710042317709
 20
4.058666992187498
 30
0.0
  0
VERTEX
  5
10B7
  8
EBENE_1
 62
     7
 10
-15.0055440266927
 20
3.886067708333333
 30
0.0
  0
VERTEX
  5
10B8
  8
EBENE_1
 62
     7
 10
-15.17848782009548
 20
3.7060614691840259
 30
0.0
  0
VERTEX
  5
10B9
  8
EBENE_1
 62
     7
 10
-15.344196912977431
 20
3.5191650390624991
 30
0.0
  0
VERTEX
  5
10BA
  8
EBENE_1
 62
     7
 10
-15.503015814887149
 20
3.3288235134548589
 30
0.0
  0
VERTEX
  5
10BB
  8
EBENE_1
 62
     7
 10
-15.65460001627604
 20
3.1276299370659721
 30
0.0
  0
VERTEX
  5
10BC
  8
EBENE_1
 62
     7
 10
-15.799294026692699
 20
2.9229912651909711
 30
0.0
  0
VERTEX
  5
10BD
  8
EBENE_1
 62
     7
 10
-15.933308241102431
 20
2.7112901475694442
 30
0.0
  0
VERTEX
  5
10BE
  8
EBENE_1
 62
     7
 10
-16.05681491427951
 20
2.4959716796874991
 30
0.0
  0
VERTEX
  5
10BF
  8
EBENE_1
 62
     7
 10
-16.173259141710069
 20
2.273763020833333
 30
0.0
  0
VERTEX
  5
10C0
  8
EBENE_1
 62
     7
 10
-16.282640923394091
 20
2.048109266493054
 30
0.0
  0
VERTEX
  5
10C1
  8
EBENE_1
 62
     7
 10
-16.381342909071179
 20
1.8186659071180551
 30
0.0
  0
VERTEX
  5
10C2
  8
EBENE_1
 62
     7
 10
-16.469537353515619
 20
1.5857774522569441
 30
0.0
  0
VERTEX
  5
10C3
  8
EBENE_1
 62
     7
 10
-16.550669352213539
 20
1.349616156684027
 30
0.0
  0
VERTEX
  5
10C4
  8
EBENE_1
 62
     7
 10
-16.621293809678821
 20
1.109837510850693
 30
0.0
  0
VERTEX
  5
10C5
  8
EBENE_1
 62
     7
 10
-16.681238471137149
 20
0.8660970052083332
 30
0.0
  0
VERTEX
  5
10C6
  8
EBENE_1
 62
     7
 10
-16.730675591362839
 20
0.6230455186631944
 30
0.0
  0
VERTEX
  5
10C7
  8
EBENE_1
 62
     7
 10
-16.773050265842009
 20
0.3760321723090278
 30
0.0
  0
VERTEX
  5
10C8
  8
EBENE_1
 62
     7
 10
-16.801127794053819
 20
0.12557373046875
 30
0.0
  0
VERTEX
  5
10C9
  8
EBENE_1
 62
     7
 10
-16.822315131293401
 20
-0.1214396158854166
 30
0.0
  0
VERTEX
  5
10CA
  8
EBENE_1
 62
     7
 10
-16.832822672526039
 20
-0.3718980577256944
 30
0.0
  0
VERTEX
  5
10CB
  8
EBENE_1
 62
     7
 10
-16.832822672526039
 20
-0.6227010091145833
 30
0.0
  0
VERTEX
  5
10CC
  8
EBENE_1
 62
     7
 10
-16.825932481553821
 20
-0.87281494140625
 30
0.0
  0
VERTEX
  5
10CD
  8
EBENE_1
 62
     7
 10
-16.804745144314229
 20
-1.120172797309027
 30
0.0
  0
VERTEX
  5
10CE
  8
EBENE_1
 62
     7
 10
-16.77649536132812
 20
-1.370286729600694
 30
0.0
  0
VERTEX
  5
10CF
  8
EBENE_1
 62
     7
 10
-16.737565782335071
 20
-1.613510470920138
 30
0.0
  0
VERTEX
  5
10D0
  8
EBENE_1
 62
     7
 10
-16.68830091688368
 20
-1.860868326822916
 30
0.0
  0
VERTEX
  5
10D1
  8
EBENE_1
 62
     7
 10
-16.628356255425341
 20
-2.1040920681423589
 30
0.0
  0
VERTEX
  5
10D2
  8
EBENE_1
 62
     7
 10
-16.557731797960059
 20
-2.343870713975694
 30
0.0
  0
VERTEX
  5
10D3
  8
EBENE_1
 62
     7
 10
-16.480217149522559
 20
-2.5802042643229162
 30
0.0
  0
VERTEX
  5
10D4
  8
EBENE_1
 62
     7
 10
-16.39185045030381
 20
-2.8130927191840271
 30
0.0
  0
VERTEX
  5
10D5
  8
EBENE_1
 62
     7
 10
-16.293148464626729
 20
-3.0459811740451381
 30
0.0
  0
VERTEX
  5
10D6
  8
EBENE_1
 62
     7
 10
-16.18738403320312
 20
-3.2712904188368039
 30
0.0
  0
VERTEX
  5
10D7
  8
EBENE_1
 62
     7
 10
-16.070939805772571
 20
-3.4938435872395832
 30
0.0
  0
VERTEX
  5
10D8
  8
EBENE_1
 62
     7
 10
-15.94743313259548
 20
-3.709506564670138
 30
0.0
  0
VERTEX
  5
10D9
  8
EBENE_1
 62
     7
 10
-15.813418918185761
 20
-3.92103542751736
 30
0.0
  0
VERTEX
  5
10DA
  8
EBENE_1
 62
     7
 10
-15.672342258029509
 20
-4.1256740993923611
 30
0.0
  0
VERTEX
  5
10DB
  8
EBENE_1
 62
     7
 10
-15.52403089735243
 20
-4.3268676757812479
 30
0.0
  0
VERTEX
  5
10DC
  8
EBENE_1
 62
     7
 10
-15.36538425021701
 20
-4.520482042100693
 30
0.0
  0
VERTEX
  5
10DD
  8
EBENE_1
 62
     7
 10
-15.19967515733507
 20
-4.707895236545137
 30
0.0
  0
VERTEX
  5
10DE
  8
EBENE_1
 62
     7
 10
-15.02673136393229
 20
-4.8877292209201366
 30
0.0
  0
VERTEX
  5
10DF
  8
EBENE_1
 62
     7
 10
-14.84672512478298
 20
-5.0606730143229148
 30
0.0
  0
VERTEX
  5
10E0
  8
EBENE_1
 62
     7
 10
-14.65982869466144
 20
-5.2260375976562479
 30
0.0
  0
VERTEX
  5
10E1
  8
EBENE_1
 62
     7
 10
-14.4656975640191
 20
-5.3852010091145832
 30
0.0
  0
VERTEX
  5
10E2
  8
EBENE_1
 62
     7
 10
-14.268121337890619
 20
-5.5367852105034707
 30
0.0
  0
VERTEX
  5
10E3
  8
EBENE_1
 62
     7
 10
-14.060037570529509
 20
-5.677345106336805
 30
0.0
  0
VERTEX
  5
10E4
  8
EBENE_1
 62
     7
 10
-13.848336452907979
 20
-5.8117038302951372
 30
0.0
  0
VERTEX
  5
10E5
  8
EBENE_1
 62
     7
 10
-13.63319023980034
 20
-5.9391723632812479
 30
0.0
  0
VERTEX
  5
10E6
  8
EBENE_1
 62
     7
 10
-13.41098158094618
 20
-6.0556165907118036
 30
0.0
  0
VERTEX
  5
10E7
  8
EBENE_1
 62
     7
 10
-13.18515557183159
 20
-6.1610365125868052
 30
0.0
  0
VERTEX
  5
10E8
  8
EBENE_1
 62
     7
 10
-12.9558844672309
 20
-6.2602552625868029
 30
0.0
  0
VERTEX
  5
10E9
  8
EBENE_1
 62
     7
 10
-12.722996012369791
 20
-6.3477606879340271
 30
0.0
  0
VERTEX
  5
10EA
  8
EBENE_1
 62
     7
 10
-12.48666246202257
 20
-6.4290649414062484
 30
0.0
  0
VERTEX
  5
10EB
  8
EBENE_1
 62
     7
 10
-12.24688381618923
 20
-6.5000339084201366
 30
0.0
  0
VERTEX
  5
10EC
  8
EBENE_1
 62
     7
 10
-12.003487820095479
 20
-6.5599785698784707
 30
0.0
  0
VERTEX
  5
10ED
  8
EBENE_1
 62
     7
 10
-11.76009182400173
 20
-6.608898925781248
 30
0.0
  0
VERTEX
  5
10EE
  8
EBENE_1
 62
     7
 10
-11.51307847764757
 20
-6.6481730143229161
 30
0.0
  0
VERTEX
  5
10EF
  8
EBENE_1
 62
     7
 10
-11.26262003580729
 20
-6.6791788736979161
 30
0.0
  0
VERTEX
  5
10F0
  8
EBENE_1
 62
     7
 10
-11.01560668945312
 20
-6.7012274848090252
 30
0.0
  0
VERTEX
  5
10F1
  8
EBENE_1
 62
     7
 10
-10.76514824761284
 20
-6.7108737521701372
 30
0.0
  0
VERTEX
  5
10F2
  8
EBENE_1
 62
     7
 10
-10.514689805772569
 20
-6.7108737521701372
 30
0.0
  0
VERTEX
  5
10F3
  8
EBENE_1
 62
     7
 10
-10.264231363932289
 20
-6.7012274848090252
 30
0.0
  0
VERTEX
  5
10F4
  8
EBENE_1
 62
     7
 10
-10.01721801757812
 20
-6.6791788736979161
 30
0.0
  0
VERTEX
  5
10F5
  8
EBENE_1
 62
     7
 10
-9.7667595757378471
 20
-6.651618109809025
 30
0.0
  0
VERTEX
  5
10F6
  8
EBENE_1
 62
     7
 10
-9.5199184841579836
 20
-6.608898925781248
 30
0.0
  0
VERTEX
  5
10F7
  8
EBENE_1
 62
     7
 10
-9.2765224880642361
 20
-6.5599785698784707
 30
0.0
  0
VERTEX
  5
10F8
  8
EBENE_1
 62
     7
 10
-9.0329542371961793
 20
-6.5000339084201366
 30
0.0
  0
VERTEX
  5
10F9
  8
EBENE_1
 62
     7
 10
-8.7931755913628464
 20
-6.43251003689236
 30
0.0
  0
VERTEX
  5
10FA
  8
EBENE_1
 62
     7
 10
-8.5566697862413186
 20
-6.3518948025173589
 30
0.0
  0
VERTEX
  5
10FB
  8
EBENE_1
 62
     7
 10
-8.3239535861545129
 20
-6.2637003580729163
 30
0.0
  0
VERTEX
  5
10FC
  8
EBENE_1
 62
     7
 10
-8.0946824815538196
 20
-6.164481608072915
 30
0.0
  0
VERTEX
  5
10FD
  8
EBENE_1
 62
     7
 10
-7.8688564724392354
 20
-6.0583726671006941
 30
0.0
  0
VERTEX
  5
10FE
  8
EBENE_1
 62
     7
 10
-7.6466478135850684
 20
-5.9419284396701366
 30
0.0
  0
VERTEX
  5
10FF
  8
EBENE_1
 62
     7
 10
-7.4278842502170122
 20
-5.8185940212673604
 30
0.0
  0
VERTEX
  5
1100
  8
EBENE_1
 62
     7
 10
-7.2161831325954839
 20
-5.6849243164062484
 30
0.0
  0
VERTEX
  5
1101
  8
EBENE_1
 62
     7
 10
-7.0115444607204838
 20
-5.543675401475693
 30
0.0
  0
VERTEX
  5
1102
  8
EBENE_1
 62
     7
 10
-6.8139682345920116
 20
-5.3920912000868029
 30
0.0
  0
VERTEX
  5
1103
  8
EBENE_1
 62
     7
 10
-6.6200093587239559
 20
-5.233616807725693
 30
0.0
  0
VERTEX
  5
1104
  8
EBENE_1
 62
     7
 10
-6.43311292860243
 20
-5.0668741861979161
 30
0.0
  0
VERTEX
  5
1105
  8
EBENE_1
 62
     7
 10
-6.2531066894531229
 20
-4.8946194118923589
 30
0.0
  0
VERTEX
  5
1106
  8
EBENE_1
 62
     7
 10
-6.0767178005642339
 20
-4.7147854275173611
 30
0.0
  0
VERTEX
  5
1107
  8
EBENE_1
 62
     7
 10
-5.9108364529079838
 20
-4.5280612521701373
 30
0.0
  0
VERTEX
  5
1108
  8
EBENE_1
 62
     7
 10
-5.755634901258678
 20
-4.3337578667534711
 30
0.0
  0
VERTEX
  5
1109
  8
EBENE_1
 62
     7
 10
-5.6040506998697923
 20
-4.1360093858506941
 30
0.0
  0
VERTEX
  5
110A
  8
EBENE_1
 62
     7
 10
-5.46297403971354
 20
-3.927925618489581
 30
0.0
  0
VERTEX
  5
110B
  8
EBENE_1
 62
     7
 10
-5.3287875705295118
 20
-3.7163967556423589
 30
0.0
  0
VERTEX
  5
110C
  8
EBENE_1
 62
     7
 10
-5.205280897352428
 20
-3.5014227973090271
 30
0.0
  0
VERTEX
  5
110D
  8
EBENE_1
 62
     7
 10
-5.089008924696178
 20
-3.2788696289062478
 30
0.0
  0
VERTEX
  5
110E
  8
EBENE_1
 62
     7
 10
-4.9796271430121521
 20
-3.05287136501736
 30
0.0
  0
VERTEX
  5
110F
  8
EBENE_1
 62
     7
 10
-4.8843702528211788
 20
-2.824117024739583
 30
0.0
  0
VERTEX
  5
1110
  8
EBENE_1
 62
     7
 10
-4.792558458116317
 20
-2.5912285698784721
 30
0.0
  0
VERTEX
  5
1111
  8
EBENE_1
 62
     7
 10
-4.715043809678817
 20
-2.3542060004340271
 30
0.0
  0
VERTEX
  5
1112
  8
EBENE_1
 62
     7
 10
-4.6444193522135411
 20
-2.110982259114583
 30
0.0
  0
VERTEX
  5
1113
  8
EBENE_1
 62
     7
 10
-4.5844746907552061
 20
-1.871203613281248
 30
0.0
  0
VERTEX
  5
1114
  8
EBENE_1
 62
     7
 10
-4.5350375705295134
 20
-1.6245347764756941
 30
0.0
  0
VERTEX
  5
1115
  8
EBENE_1
 62
     7
 10
-4.4962802463107634
 20
-1.3771769205729161
 30
0.0
  0
VERTEX
  5
1116
  8
EBENE_1
 62
     7
 10
-4.4680304633246521
 20
-1.13050808376736
 30
0.0
  0
VERTEX
  5
1117
  8
EBENE_1
 62
     7
 10
-4.446843126085068
 20
-0.8803941514756942
 30
0.0
  0
VERTEX
  5
1118
  8
EBENE_1
 62
     7
 10
-4.4363355848524302
 20
-0.6330362955729166
 30
0.0
  0
VERTEX
  5
1119
  8
EBENE_1
 62
     7
 10
-4.4363355848524302
 20
-0.38292236328125
 30
0.0
  0
VERTEX
  5
111A
  8
EBENE_1
 62
     7
 10
-4.446843126085068
 20
-0.1322916666666666
 30
0.0
  0
VERTEX
  5
111B
  8
EBENE_1
 62
     7
 10
-4.4680304633246521
 20
0.1183390299479166
 30
0.0
  0
VERTEX
  5
111C
  8
EBENE_1
 62
     7
 10
-4.4962802463107634
 20
0.3653523763020833
 30
0.0
  0
VERTEX
  5
111D
  8
EBENE_1
 62
     7
 10
-4.538654920789928
 20
0.6121934678819444
 30
0.0
  0
VERTEX
  5
111E
  8
EBENE_1
 62
     7
 10
-4.5879197862413186
 20
0.8559339735243053
 30
0.0
  0
VERTEX
  5
111F
  8
EBENE_1
 62
     7
 10
-4.6480367024739557
 20
1.0989854600694431
 30
0.0
  0
VERTEX
  5
1120
  8
EBENE_1
 62
     7
 10
-4.7184889051649286
 20
1.3387641059027771
 30
0.0
  0
VERTEX
  5
1121
  8
EBENE_1
 62
     7
 10
-4.7961758083767361
 20
1.575269911024304
 30
0.0
  0
VERTEX
  5
1122
  8
EBENE_1
 62
     7
 10
-4.8878153483072913
 20
1.812120225694444
 30
0.0
  0
VERTEX
  5
1123
  8
EBENE_1
 62
     7
 10
-4.983072238498262
 20
2.0408745659722221
 30
0.0
  0
VERTEX
  5
1124
  8
EBENE_1
 62
     7
 10
-5.0924540201822914
 20
2.2670450846354151
 30
0.0
  0
VERTEX
  5
1125
  8
EBENE_1
 62
     7
 10
-5.2088982476128471
 20
2.485464138454859
 30
0.0
  0
VERTEX
  5
1126
  8
EBENE_1
 62
     7
 10
-5.33240492078993
 20
2.70405544704861
 30
0.0
  0
VERTEX
  5
1127
  8
EBENE_1
 62
     7
 10
-5.4664191351996507
 20
2.915928819444443
 30
0.0
  0
VERTEX
  5
1128
  8
EBENE_1
 62
     7
 10
-5.6111131456163168
 20
3.120739746093748
 30
0.0
  0
VERTEX
  5
1129
  8
EBENE_1
 62
     7
 10
-5.7592522515190963
 20
3.3181437174479149
 30
0.0
  0
VERTEX
  5
112A
  8
EBENE_1
 62
     7
 10
-5.9180711534288193
 20
3.5119303385416649
 30
0.0
  0
VERTEX
  5
112B
  8
EBENE_1
 62
     7
 10
-6.0837802463107611
 20
3.699171278211804
 30
0.0
  0
VERTEX
  5
112C
  8
EBENE_1
 62
     7
 10
-6.2567240397135411
 20
3.8791775173611089
 30
0.0
  0
VERTEX
  5
112D
  8
EBENE_1
 62
     7
 10
-6.4400031195746523
 20
4.0517768012152757
 30
0.0
  0
VERTEX
  5
112E
  8
EBENE_1
 62
     7
 10
-6.6270718044704839
 20
4.2178304036458334
 30
0.0
  0
VERTEX
  5
112F
  8
EBENE_1
 62
     7
 10
-6.8212029351128463
 20
4.376477050781248
 30
0.0
  0
VERTEX
  5
1130
  8
EBENE_1
 62
     7
 10
-7.0186069064670118
 20
4.5246161566840257
 30
0.0
  0
VERTEX
  5
1131
  8
EBENE_1
 62
     7
 10
-7.2268629286024302
 20
4.6658650716145811
 30
0.0
  0
VERTEX
  5
1132
  8
EBENE_1
 62
     7
 10
-7.43839179144965
 20
4.7998792860243054
 30
0.0
  0
VERTEX
  5
1133
  8
EBENE_1
 62
     7
 10
-7.6535380045572889
 20
4.9232137044270807
 30
0.0
  0
VERTEX
  5
1134
  8
EBENE_1
 62
     7
 10
-7.8759189181857634
 20
5.0396579318576382
 30
0.0
  0
VERTEX
  5
1135
  8
EBENE_1
 62
     7
 10
-8.101744927300345
 20
5.149039713541665
 30
0.0
  0
VERTEX
  5
1136
  8
EBENE_1
 62
     7
 10
-8.3310160319010436
 20
5.2442966037326384
 30
0.0
  0
VERTEX
  5
1137
  8
EBENE_1
 62
     7
 10
-8.5673495822482622
 20
5.3323187934027771
 30
0.0
  0
VERTEX
  5
1138
  8
EBENE_1
 62
     7
 10
-8.8036831325954861
 20
5.410005696614582
 30
0.0
  0
VERTEX
  5
1139
  8
EBENE_1
 62
     7
 10
-9.0436340332031229
 20
5.480457899305553
 30
0.0
  0
VERTEX
  5
113A
  8
EBENE_1
 62
     7
 10
-9.2870300292968722
 20
5.5407470703124977
 30
0.0
  0
VERTEX
  5
113B
  8
EBENE_1
 62
     7
 10
-9.5304260253906232
 20
5.5903564453124979
 30
0.0
  0
VERTEX
  5
113C
  8
EBENE_1
 62
     7
 10
-9.777267116970485
 20
5.6285970052083307
 30
0.0
  0
VERTEX
  5
113D
  8
EBENE_1
 62
     7
 10
-10.027897813585071
 20
5.6570190429687477
 30
0.0
  0
VERTEX
  5
113E
  8
EBENE_1
 62
     7
 10
-10.274738905164931
 20
5.6782063802083309
 30
0.0
  0
VERTEX
  5
113F
  8
EBENE_1
 62
     7
 10
-10.525369601779509
 20
5.6885416666666639
 30
0.0
  0
VERTEX
  5
1140
  8
EBENE_1
 62
     7
 10
-10.775828043619789
 20
5.6885416666666639
 30
0.0
  0
VERTEX
  5
1141
  8
EBENE_1
 62
     7
 10
-11.02611423068576
 20
5.6745890299479163
 30
0.0
  0
VERTEX
  5
1142
  8
EBENE_1
 62
     7
 10
-11.273127577039929
 20
5.6570190429687477
 30
0.0
  0
VERTEX
  5
1143
  8
EBENE_1
 62
     7
 10
-11.5235860188802
 20
5.6253241644965266
 30
0.0
  0
VERTEX
  5
1144
  8
EBENE_1
 62
     7
 10
-11.76698201497395
 20
5.5829494900173602
 30
0.0
  0
VERTEX
  5
1145
  8
EBENE_1
 62
     7
 10
-12.013995361328121
 20
5.5336846245659714
 30
0.0
  0
VERTEX
  5
1146
  8
EBENE_1
 62
     7
 10
-12.25739135742187
 20
5.4735677083333307
 30
0.0
  0
VERTEX
  5
1147
  8
EBENE_1
 62
     7
 10
-12.49734225802951
 20
5.4031155056423588
 30
0.0
  0
VERTEX
  5
1148
  8
EBENE_1
 62
     7
 10
-12.733675808376731
 20
5.3216389973958309
 30
0.0
  0
VERTEX
  5
1149
  8
EBENE_1
 62
     7
 10
-12.96639200846354
 20
5.2334445529513882
 30
0.0
  0
VERTEX
  5
114A
  8
EBENE_1
 62
     7
 10
-13.195835367838541
 20
5.1349148220486089
 30
0.0
  0
VERTEX
  5
114B
  8
EBENE_1
 62
     7
 10
-13.42166137695312
 20
5.028978135850692
 30
0.0
  0
VERTEX
  5
114C
  8
EBENE_1
 62
     7
 10
-13.60855780707465
 20
4.9304484049479163
 30
0.0
  0
SEQEND
  5
114D
  8
EBENE_1
 62
     7
  0
POLYLINE
  5
49F
  8
EBENE_1
 62
     7
 66
     1
 10
0.0
 20
0.0
 30
0.0
  0
VERTEX
  5
10AC
  8
EBENE_1
 62
     7
 10
-11.88687133789062
 20
-21.760428873697919
 30
0.0
  0
VERTEX
  5
10AD
  8
EBENE_1
 62
     7
 10
-11.88687133789062
 20
-21.746648491753469
 30
0.0
  0
VERTEX
  5
10AE
  8
EBENE_1
 62
     7
 10
-9.3857320149739554
 20
-21.746648491753469
 30
0.0
  0
SEQEND
  5
10AF
  8
EBENE_1
 62
     7
  0
POLYLINE
  5
45B
  8
EBENE_1
 62
     7
 66
     1
 10
0.0
 20
0.0
 30
0.0
  0
VERTEX
  5
1069
  8
EBENE_1
 62
     7
 10
-9.3893493652343718
 20
-21.760428873697919
 30
0.0
  0
VERTEX
  5
106A
  8
EBENE_1
 62
     7
 10
-9.1388909233940954
 20
-21.760428873697919
 30
0.0
  0
VERTEX
  5
106B
  8
EBENE_1
 62
     7
 10
-8.8884324815538172
 20
-21.760428873697919
 30
0.0
  0
VERTEX
  5
106C
  8
EBENE_1
 62
     7
 10
-8.6379740397135372
 20
-21.760428873697919
 30
0.0
  0
VERTEX
  5
106D
  8
EBENE_1
 62
     7
 10
-8.3875155978732625
 20
-21.760428873697919
 30
0.0
  0
VERTEX
  5
106E
  8
EBENE_1
 62
     7
 10
-8.1368849012586804
 20
-21.760428873697919
 30
0.0
  0
VERTEX
  5
106F
  8
EBENE_1
 62
     7
 10
-7.8864264594184013
 20
-21.760428873697919
 30
0.0
  0
VERTEX
  5
1070
  8
EBENE_1
 62
     7
 10
-7.6395853678385404
 20
-21.760428873697919
 30
0.0
  0
VERTEX
  5
1071
  8
EBENE_1
 62
     7
 10
-7.3889546712239564
 20
-21.760428873697919
 30
0.0
  0
VERTEX
  5
1072
  8
EBENE_1
 62
     7
 10
-7.1386684841579839
 20
-21.760428873697919
 30
0.0
  0
VERTEX
  5
1073
  8
EBENE_1
 62
     7
 10
-6.8882100423177057
 20
-21.760428873697919
 30
0.0
  0
VERTEX
  5
1074
  8
EBENE_1
 62
     7
 10
-6.6375793457031227
 20
-21.760428873697919
 30
0.0
  0
VERTEX
  5
1075
  8
EBENE_1
 62
     7
 10
-6.3871209038628463
 20
-21.760428873697919
 30
0.0
  0
VERTEX
  5
1076
  8
EBENE_1
 62
     7
 10
-6.1366624620225672
 20
-21.760428873697919
 30
0.0
  0
VERTEX
  5
1077
  8
EBENE_1
 62
     7
 10
-5.8896491156684014
 20
-21.760428873697919
 30
0.0
  0
VERTEX
  5
1078
  8
EBENE_1
 62
     7
 10
-5.639362928602428
 20
-21.760428873697919
 30
0.0
  0
VERTEX
  5
1079
  8
EBENE_1
 62
     7
 10
-5.3889044867621507
 20
-21.760428873697919
 30
0.0
  0
VERTEX
  5
107A
  8
EBENE_1
 62
     7
 10
-5.1382737901475668
 20
-21.760428873697919
 30
0.0
  0
VERTEX
  5
107B
  8
EBENE_1
 62
     7
 10
-4.8878153483072913
 20
-21.760428873697919
 30
0.0
  0
VERTEX
  5
107C
  8
EBENE_1
 62
     7
 10
-4.637356906467013
 20
-21.760428873697919
 30
0.0
  0
VERTEX
  5
107D
  8
EBENE_1
 62
     7
 10
-4.3868984646267339
 20
-21.760428873697919
 30
0.0
  0
VERTEX
  5
107E
  8
EBENE_1
 62
     7
 10
-4.1364400227864566
 20
-21.760428873697919
 30
0.0
  0
VERTEX
  5
107F
  8
EBENE_1
 62
     7
 10
-3.8895989312065962
 20
-21.760428873697919
 30
0.0
  0
VERTEX
  5
1080
  8
EBENE_1
 62
     7
 10
-3.6389682345920118
 20
-21.760428873697919
 30
0.0
  0
VERTEX
  5
1081
  8
EBENE_1
 62
     7
 10
-3.388509792751734
 20
-21.760428873697919
 30
0.0
  0
VERTEX
  5
1082
  8
EBENE_1
 62
     7
 10
-3.138051350911458
 20
-21.760428873697919
 30
0.0
  0
VERTEX
  5
1083
  8
EBENE_1
 62
     7
 10
-2.8875929090711789
 20
-21.760428873697919
 30
0.0
  0
VERTEX
  5
1084
  8
EBENE_1
 62
     7
 10
-2.6371344672309021
 20
-21.760428873697919
 30
0.0
  0
VERTEX
  5
1085
  8
EBENE_1
 62
     7
 10
-2.386676025390623
 20
-21.760428873697919
 30
0.0
  0
VERTEX
  5
1086
  8
EBENE_1
 62
     7
 10
-2.1396626790364581
 20
-21.760428873697919
 30
0.0
  0
VERTEX
  5
1087
  8
EBENE_1
 62
     7
 10
-1.8892042371961799
 20
-21.760428873697919
 30
0.0
  0
VERTEX
  5
1088
  8
EBENE_1
 62
     7
 10
-1.638745795355901
 20
-21.760428873697919
 30
0.0
  0
VERTEX
  5
1089
  8
EBENE_1
 62
     7
 10
-1.388287353515623
 20
-21.760428873697919
 30
0.0
  0
VERTEX
  5
108A
  8
EBENE_1
 62
     7
 10
-1.1378289116753471
 20
-21.760428873697919
 30
0.0
  0
VERTEX
  5
108B
  8
EBENE_1
 62
     7
 10
-0.8873704698350694
 20
-21.760428873697919
 30
0.0
  0
VERTEX
  5
108C
  8
EBENE_1
 62
     7
 10
-0.6369120279947916
 20
-21.760428873697919
 30
0.0
  0
VERTEX
  5
108D
  8
EBENE_1
 62
     7
 10
-0.389898681640625
 20
-21.760428873697919
 30
0.0
  0
VERTEX
  5
108E
  8
EBENE_1
 62
     7
 10
-0.1394402398003472
 20
-21.760428873697919
 30
0.0
  0
VERTEX
  5
108F
  8
EBENE_1
 62
     7
 10
0.1110182020399305
 20
-21.760428873697919
 30
0.0
  0
VERTEX
  5
1090
  8
EBENE_1
 62
     7
 10
0.3616488986545137
 20
-21.760428873697919
 30
0.0
  0
VERTEX
  5
1091
  8
EBENE_1
 62
     7
 10
0.6117628309461805
 20
-21.760428873697919
 30
0.0
  0
VERTEX
  5
1092
  8
EBENE_1
 62
     7
 10
0.8625657823350694
 20
-21.760428873697919
 30
0.0
  0
VERTEX
  5
1093
  8
EBENE_1
 62
     7
 10
1.1126797146267351
 20
-21.760428873697919
 30
0.0
  0
VERTEX
  5
1094
  8
EBENE_1
 62
     7
 10
1.3634826660156241
 20
-21.760428873697919
 30
0.0
  0
VERTEX
  5
1095
  8
EBENE_1
 62
     7
 10
1.610151502821179
 20
-21.760428873697919
 30
0.0
  0
VERTEX
  5
1096
  8
EBENE_1
 62
     7
 10
1.860954454210068
 20
-21.757672797309031
 30
0.0
  0
VERTEX
  5
1097
  8
EBENE_1
 62
     7
 10
2.111068386501735
 20
-21.757672797309031
 30
0.0
  0
VERTEX
  5
1098
  8
EBENE_1
 62
     7
 10
2.3618713378906242
 20
-21.757672797309031
 30
0.0
  0
VERTEX
  5
1099
  8
EBENE_1
 62
     7
 10
2.6119852701822901
 20
-21.757672797309031
 30
0.0
  0
VERTEX
  5
109A
  8
EBENE_1
 62
     7
 10
2.8627882215711802
 20
-21.757672797309031
 30
0.0
  0
VERTEX
  5
109B
  8
EBENE_1
 62
     7
 10
3.1129021538628461
 20
-21.757672797309031
 30
0.0
  0
VERTEX
  5
109C
  8
EBENE_1
 62
     7
 10
3.3602600097656241
 20
-21.757672797309031
 30
0.0
  0
VERTEX
  5
109D
  8
EBENE_1
 62
     7
 10
3.61037394205729
 20
-21.757672797309031
 30
0.0
  0
VERTEX
  5
109E
  8
EBENE_1
 62
     7
 10
3.8611768934461801
 20
-21.757672797309031
 30
0.0
  0
VERTEX
  5
109F
  8
EBENE_1
 62
     7
 10
4.1112908257378464
 20
-21.757672797309031
 30
0.0
  0
VERTEX
  5
10A0
  8
EBENE_1
 62
     7
 10
4.3620937771267361
 20
-21.757672797309031
 30
0.0
  0
VERTEX
  5
10A1
  8
EBENE_1
 62
     7
 10
4.6122077094184011
 20
-21.757672797309031
 30
0.0
  0
VERTEX
  5
10A2
  8
EBENE_1
 62
     7
 10
4.8630106608072898
 20
-21.757672797309031
 30
0.0
  0
VERTEX
  5
10A3
  8
EBENE_1
 62
     7
 10
5.1131245930989557
 20
-21.757672797309031
 30
0.0
  0
VERTEX
  5
10A4
  8
EBENE_1
 62
     7
 10
5.3604824490017347
 20
-21.757672797309031
 30
0.0
  0
VERTEX
  5
10A5
  8
EBENE_1
 62
     7
 10
5.6105963812934014
 20
-21.757672797309031
 30
0.0
  0
VERTEX
  5
10A6
  8
EBENE_1
 62
     7
 10
5.8613993326822911
 20
-21.757672797309031
 30
0.0
  0
VERTEX
  5
10A7
  8
EBENE_1
 62
     7
 10
6.111513264973957
 20
-21.757672797309031
 30
0.0
  0
VERTEX
  5
10A8
  8
EBENE_1
 62
     7
 10
6.3623162163628448
 20
-21.757672797309031
 30
0.0
  0
VERTEX
  5
10A9
  8
EBENE_1
 62
     7
 10
6.6124301486545134
 20
-21.757672797309031
 30
0.0
  0
VERTEX
  5
10AA
  8
EBENE_1
 62
     7
 10
6.8632331000434013
 20
-21.757672797309031
 30
0.0
  0
SEQEND
  5
10AB
  8
EBENE_1
 62
     7
  0
POLYLINE
  5
440
  8
EBENE_1
 62
     7
 66
     1
 10
0.0
 20
0.0
 30
0.0
  0
VERTEX
  5
104F
  8
EBENE_1
 62
     7
 10
6.8666781955295111
 20
-21.757672797309031
 30
0.0
  0
VERTEX
  5
1050
  8
EBENE_1
 62
     7
 10
7.1174811469184007
 20
-21.746648491753469
 30
0.0
  0
VERTEX
  5
1051
  8
EBENE_1
 62
     7
 10
7.364149983723955
 20
-21.721843804253471
 30
0.0
  0
VERTEX
  5
1052
  8
EBENE_1
 62
     7
 10
7.6108188205295111
 20
-21.683258734809019
 30
0.0
  0
VERTEX
  5
1053
  8
EBENE_1
 62
     7
 10
7.8547315809461793
 20
-21.623314073350691
 30
0.0
  0
VERTEX
  5
1054
  8
EBENE_1
 62
     7
 10
8.0945102267795122
 20
-21.54958902994791
 30
0.0
  0
VERTEX
  5
1055
  8
EBENE_1
 62
     7
 10
8.3273986816406218
 20
-21.46139458550347
 30
0.0
  0
VERTEX
  5
1056
  8
EBENE_1
 62
     7
 10
8.5527079264322872
 20
-21.35528564453125
 30
0.0
  0
VERTEX
  5
1057
  8
EBENE_1
 62
     7
 10
8.7718159993489575
 20
-21.23539632161458
 30
0.0
  0
VERTEX
  5
1058
  8
EBENE_1
 62
     7
 10
8.98334486219618
 20
-21.101037597656251
 30
0.0
  0
VERTEX
  5
1059
  8
EBENE_1
 62
     7
 10
9.1845384385850686
 20
-20.952898491753469
 30
0.0
  0
VERTEX
  5
105A
  8
EBENE_1
 62
     7
 10
9.3747077094184021
 20
-20.790979003906251
 30
0.0
  0
VERTEX
  5
105B
  8
EBENE_1
 62
     7
 10
9.5545416937934018
 20
-20.618035210503479
 30
0.0
  0
VERTEX
  5
105C
  8
EBENE_1
 62
     7
 10
9.7240403917100675
 20
-20.434756130642359
 30
0.0
  0
VERTEX
  5
105D
  8
EBENE_1
 62
     7
 10
9.8790696885850693
 20
-20.237007649739581
 30
0.0
  0
VERTEX
  5
105E
  8
EBENE_1
 62
     7
 10
10.020318603515619
 20
-20.032368977864571
 30
0.0
  0
VERTEX
  5
105F
  8
EBENE_1
 62
     7
 10
10.14778713650173
 20
-19.816706000434021
 30
0.0
  0
VERTEX
  5
1060
  8
EBENE_1
 62
     7
 10
10.260097249348959
 20
-19.594841851128471
 30
0.0
  0
VERTEX
  5
1061
  8
EBENE_1
 62
     7
 10
10.35931599934896
 20
-19.36195339626736
 30
0.0
  0
VERTEX
  5
1062
  8
EBENE_1
 62
     7
 10
10.44062025282118
 20
-19.129064941406241
 30
0.0
  0
VERTEX
  5
1063
  8
EBENE_1
 62
     7
 10
10.507455105251729
 20
-18.885841200086801
 30
0.0
  0
VERTEX
  5
1064
  8
EBENE_1
 62
     7
 10
10.55706448025173
 20
-18.641928439670131
 30
0.0
  0
VERTEX
  5
1065
  8
EBENE_1
 62
     7
 10
10.592204454210069
 20
-18.395259602864581
 30
0.0
  0
VERTEX
  5
1066
  8
EBENE_1
 62
     7
 10
10.60598483615451
 20
-18.145145670572902
 30
0.0
  0
VERTEX
  5
1067
  8
EBENE_1
 62
     7
 10
10.609429931640619
 20
-18.014232042100691
 30
0.0
  0
SEQEND
  5
1068
  8
EBENE_1
 62
     7
  0
POLYLINE
  5
3B0
  8
EBENE_1
 62
     7
 66
     1
 10
0.0
 20
0.0
 30
0.0
  0
VERTEX
  5
FC0
  8
EBENE_1
 62
     7
 10
10.61287502712673
 20
-18.021811252170131
 30
0.0
  0
VERTEX
  5
FC1
  8
EBENE_1
 62
     7
 10
10.61287502712673
 20
-17.771008300781251
 30
0.0
  0
VERTEX
  5
FC2
  8
EBENE_1
 62
     7
 10
10.61287502712673
 20
-17.520894368489579
 30
0.0
  0
VERTEX
  5
FC3
  8
EBENE_1
 62
     7
 10
10.61287502712673
 20
-17.270091417100691
 30
0.0
  0
VERTEX
  5
FC4
  8
EBENE_1
 62
     7
 10
10.61287502712673
 20
-17.019977484809019
 30
0.0
  0
VERTEX
  5
FC5
  8
EBENE_1
 62
     7
 10
10.61287502712673
 20
-16.769174533420141
 30
0.0
  0
VERTEX
  5
FC6
  8
EBENE_1
 62
     7
 10
10.61287502712673
 20
-16.52250569661458
 30
0.0
  0
VERTEX
  5
FC7
  8
EBENE_1
 62
     7
 10
10.61287502712673
 20
-16.271702745225689
 30
0.0
  0
VERTEX
  5
FC8
  8
EBENE_1
 62
     7
 10
10.617009141710071
 20
-16.020899793836801
 30
0.0
  0
VERTEX
  5
FC9
  8
EBENE_1
 62
     7
 10
10.617009141710071
 20
-15.770785861545139
 30
0.0
  0
VERTEX
  5
FCA
  8
EBENE_1
 62
     7
 10
10.617009141710071
 20
-15.520671929253471
 30
0.0
  0
VERTEX
  5
FCB
  8
EBENE_1
 62
     7
 10
10.617009141710071
 20
-15.269868977864579
 30
0.0
  0
VERTEX
  5
FCC
  8
EBENE_1
 62
     7
 10
10.617009141710071
 20
-15.01906602647569
 30
0.0
  0
VERTEX
  5
FCD
  8
EBENE_1
 62
     7
 10
10.617009141710071
 20
-14.772397189670141
 30
0.0
  0
VERTEX
  5
FCE
  8
EBENE_1
 62
     7
 10
10.617009141710071
 20
-14.52228325737847
 30
0.0
  0
VERTEX
  5
FCF
  8
EBENE_1
 62
     7
 10
10.617009141710071
 20
-14.271480305989581
 30
0.0
  0
VERTEX
  5
FD0
  8
EBENE_1
 62
     7
 10
10.617009141710071
 20
-14.020677354600689
 30
0.0
  0
VERTEX
  5
FD1
  8
EBENE_1
 62
     7
 10
10.617009141710071
 20
-13.77056342230903
 30
0.0
  0
VERTEX
  5
FD2
  8
EBENE_1
 62
     7
 10
10.617009141710071
 20
-13.51976047092014
 30
0.0
  0
VERTEX
  5
FD3
  8
EBENE_1
 62
     7
 10
10.617009141710071
 20
-13.26895751953125
 30
0.0
  0
VERTEX
  5
FD4
  8
EBENE_1
 62
     7
 10
10.617009141710071
 20
-13.01884358723958
 30
0.0
  0
VERTEX
  5
FD5
  8
EBENE_1
 62
     7
 10
10.617009141710071
 20
-12.772174750434029
 30
0.0
  0
VERTEX
  5
FD6
  8
EBENE_1
 62
     7
 10
10.617009141710071
 20
-12.522060818142361
 30
0.0
  0
VERTEX
  5
FD7
  8
EBENE_1
 62
     7
 10
10.617009141710071
 20
-12.27125786675346
 30
0.0
  0
VERTEX
  5
FD8
  8
EBENE_1
 62
     7
 10
10.617009141710071
 20
-12.02045491536458
 30
0.0
  0
VERTEX
  5
FD9
  8
EBENE_1
 62
     7
 10
10.617009141710071
 20
-11.770340983072909
 30
0.0
  0
VERTEX
  5
FDA
  8
EBENE_1
 62
     7
 10
10.617009141710071
 20
-11.51953803168402
 30
0.0
  0
VERTEX
  5
FDB
  8
EBENE_1
 62
     7
 10
10.617009141710071
 20
-11.26942409939236
 30
0.0
  0
VERTEX
  5
FDC
  8
EBENE_1
 62
     7
 10
10.617009141710071
 20
-11.0227552625868
 30
0.0
  0
VERTEX
  5
FDD
  8
EBENE_1
 62
     7
 10
10.617009141710071
 20
-10.771952311197911
 30
0.0
  0
VERTEX
  5
FDE
  8
EBENE_1
 62
     7
 10
10.617009141710071
 20
-10.521149359809019
 30
0.0
  0
VERTEX
  5
FDF
  8
EBENE_1
 62
     7
 10
10.617009141710071
 20
-10.27103542751736
 30
0.0
  0
VERTEX
  5
FE0
  8
EBENE_1
 62
     7
 10
10.617009141710071
 20
-10.02023247612847
 30
0.0
  0
VERTEX
  5
FE1
  8
EBENE_1
 62
     7
 10
10.617009141710071
 20
-9.770118543836805
 30
0.0
  0
VERTEX
  5
FE2
  8
EBENE_1
 62
     7
 10
10.617009141710071
 20
-9.5193155924479171
 30
0.0
  0
VERTEX
  5
FE3
  8
EBENE_1
 62
     7
 10
10.617009141710071
 20
-9.2692016601562486
 30
0.0
  0
VERTEX
  5
FE4
  8
EBENE_1
 62
     7
 10
10.617009141710071
 20
-9.0218438042534714
 30
0.0
  0
VERTEX
  5
FE5
  8
EBENE_1
 62
     7
 10
10.617009141710071
 20
-8.7710408528645818
 30
0.0
  0
VERTEX
  5
FE6
  8
EBENE_1
 62
     7
 10
10.617009141710071
 20
-8.520926920572915
 30
0.0
  0
VERTEX
  5
FE7
  8
EBENE_1
 62
     7
 10
10.617009141710071
 20
-8.27081298828125
 30
0.0
  0
VERTEX
  5
FE8
  8
EBENE_1
 62
     7
 10
10.617009141710071
 20
-8.0200100368923604
 30
0.0
  0
VERTEX
  5
FE9
  8
EBENE_1
 62
     7
 10
10.617009141710071
 20
-7.7692070855034698
 30
0.0
  0
VERTEX
  5
FEA
  8
EBENE_1
 62
     7
 10
10.617009141710071
 20
-7.5190931532118039
 30
0.0
  0
VERTEX
  5
FEB
  8
EBENE_1
 62
     7
 10
10.617009141710071
 20
-7.2724243164062488
 30
0.0
  0
VERTEX
  5
FEC
  8
EBENE_1
 62
     7
 10
10.617009141710071
 20
-7.02162136501736
 30
0.0
  0
VERTEX
  5
FED
  8
EBENE_1
 62
     7
 10
10.617009141710071
 20
-6.7715074327256941
 30
0.0
  0
VERTEX
  5
FEE
  8
EBENE_1
 62
     7
 10
10.617009141710071
 20
-6.5207044813368036
 30
0.0
  0
VERTEX
  5
FEF
  8
EBENE_1
 62
     7
 10
10.617009141710071
 20
-6.2705905490451368
 30
0.0
  0
VERTEX
  5
FF0
  8
EBENE_1
 62
     7
 10
10.617009141710071
 20
-6.019787597656248
 30
0.0
  0
VERTEX
  5
FF1
  8
EBENE_1
 62
     7
 10
10.617009141710071
 20
-5.7689846462673602
 30
0.0
  0
VERTEX
  5
FF2
  8
EBENE_1
 62
     7
 10
10.617009141710071
 20
-5.5188707139756943
 30
0.0
  0
VERTEX
  5
FF3
  8
EBENE_1
 62
     7
 10
10.617009141710071
 20
-5.2722018771701373
 30
0.0
  0
VERTEX
  5
FF4
  8
EBENE_1
 62
     7
 10
10.617009141710071
 20
-5.0213989257812477
 30
0.0
  0
VERTEX
  5
FF5
  8
EBENE_1
 62
     7
 10
10.617009141710071
 20
-4.7712849934895809
 30
0.0
  0
VERTEX
  5
FF6
  8
EBENE_1
 62
     7
 10
10.617009141710071
 20
-4.520482042100693
 30
0.0
  0
VERTEX
  5
FF7
  8
EBENE_1
 62
     7
 10
10.617009141710071
 20
-4.2703681098090271
 30
0.0
  0
VERTEX
  5
FF8
  8
EBENE_1
 62
     7
 10
10.617009141710071
 20
-4.0195651584201366
 30
0.0
  0
VERTEX
  5
FF9
  8
EBENE_1
 62
     7
 10
10.617009141710071
 20
-3.7687622070312479
 30
0.0
  0
VERTEX
  5
FFA
  8
EBENE_1
 62
     7
 10
10.617009141710071
 20
-3.5220933702256931
 30
0.0
  0
VERTEX
  5
FFB
  8
EBENE_1
 62
     7
 10
10.617009141710071
 20
-3.2712904188368039
 30
0.0
  0
VERTEX
  5
FFC
  8
EBENE_1
 62
     7
 10
10.617009141710071
 20
-3.021176486545138
 30
0.0
  0
VERTEX
  5
FFD
  8
EBENE_1
 62
     7
 10
10.617009141710071
 20
-2.7710625542534721
 30
0.0
  0
VERTEX
  5
FFE
  8
EBENE_1
 62
     7
 10
10.617009141710071
 20
-2.5202596028645821
 30
0.0
  0
VERTEX
  5
FFF
  8
EBENE_1
 62
     7
 10
10.617009141710071
 20
-2.2701456705729162
 30
0.0
  0
VERTEX
  5
1000
  8
EBENE_1
 62
     7
 10
10.62045423719618
 20
-2.0193427191840261
 30
0.0
  0
VERTEX
  5
1001
  8
EBENE_1
 62
     7
 10
10.62045423719618
 20
-1.76922878689236
 30
0.0
  0
VERTEX
  5
1002
  8
EBENE_1
 62
     7
 10
10.62045423719618
 20
-1.521870930989583
 30
0.0
  0
VERTEX
  5
1003
  8
EBENE_1
 62
     7
 10
10.62045423719618
 20
-1.2710679796006941
 30
0.0
  0
VERTEX
  5
1004
  8
EBENE_1
 62
     7
 10
10.62045423719618
 20
-1.0209540473090271
 30
0.0
  0
VERTEX
  5
1005
  8
EBENE_1
 62
     7
 10
10.62045423719618
 20
-0.7708401150173611
 30
0.0
  0
VERTEX
  5
1006
  8
EBENE_1
 62
     7
 10
10.62045423719618
 20
-0.5200371636284722
 30
0.0
  0
VERTEX
  5
1007
  8
EBENE_1
 62
     7
 10
10.62045423719618
 20
-0.2695787217881944
 30
0.0
  0
VERTEX
  5
1008
  8
EBENE_1
 62
     7
 10
10.62045423719618
 20
-0.0192925347222222
 30
0.0
  0
VERTEX
  5
1009
  8
EBENE_1
 62
     7
 10
10.62045423719618
 20
0.22789306640625
 30
0.0
  0
VERTEX
  5
100A
  8
EBENE_1
 62
     7
 10
10.62045423719618
 20
0.4781792534722222
 30
0.0
  0
VERTEX
  5
100B
  8
EBENE_1
 62
     7
 10
10.62045423719618
 20
0.7289822048611111
 30
0.0
  0
VERTEX
  5
100C
  8
EBENE_1
 62
     7
 10
10.62045423719618
 20
0.9792683919270832
 30
0.0
  0
VERTEX
  5
100D
  8
EBENE_1
 62
     7
 10
10.617009141710071
 20
1.2295545789930551
 30
0.0
  0
VERTEX
  5
100E
  8
EBENE_1
 62
     7
 10
10.617009141710071
 20
1.4800130208333331
 30
0.0
  0
VERTEX
  5
100F
  8
EBENE_1
 62
     7
 10
10.617009141710071
 20
1.730643717447915
 30
0.0
  0
VERTEX
  5
1010
  8
EBENE_1
 62
     7
 10
10.617009141710071
 20
1.9811021592881941
 30
0.0
  0
VERTEX
  5
1011
  8
EBENE_1
 62
     7
 10
10.617009141710071
 20
2.2281155056423589
 30
0.0
  0
VERTEX
  5
1012
  8
EBENE_1
 62
     7
 10
10.617009141710071
 20
2.4784016927083319
 30
0.0
  0
VERTEX
  5
1013
  8
EBENE_1
 62
     7
 10
10.617009141710071
 20
2.7288601345486101
 30
0.0
  0
VERTEX
  5
1014
  8
EBENE_1
 62
     7
 10
10.617009141710071
 20
2.9794908311631918
 30
0.0
  0
VERTEX
  5
1015
  8
EBENE_1
 62
     7
 10
10.617009141710071
 20
3.2297770182291661
 30
0.0
  0
VERTEX
  5
1016
  8
EBENE_1
 62
     7
 10
10.617009141710071
 20
3.480235460069443
 30
0.0
  0
VERTEX
  5
1017
  8
EBENE_1
 62
     7
 10
10.617009141710071
 20
3.730866156684026
 30
0.0
  0
VERTEX
  5
1018
  8
EBENE_1
 62
     7
 10
10.617009141710071
 20
3.9780517578124992
 30
0.0
  0
VERTEX
  5
1019
  8
EBENE_1
 62
     7
 10
10.617009141710071
 20
4.2283379448784721
 30
0.0
  0
VERTEX
  5
101A
  8
EBENE_1
 62
     7
 10
10.617009141710071
 20
4.4786241319444411
 30
0.0
  0
VERTEX
  5
101B
  8
EBENE_1
 62
     7
 10
10.617009141710071
 20
4.7290825737847211
 30
0.0
  0
VERTEX
  5
101C
  8
EBENE_1
 62
     7
 10
10.617009141710071
 20
4.979713270399305
 30
0.0
  0
VERTEX
  5
101D
  8
EBENE_1
 62
     7
 10
10.617009141710071
 20
5.2301717122395832
 30
0.0
  0
VERTEX
  5
101E
  8
EBENE_1
 62
     7
 10
10.617009141710071
 20
5.480457899305553
 30
0.0
  0
VERTEX
  5
101F
  8
EBENE_1
 62
     7
 10
10.617009141710071
 20
5.7312608506944418
 30
0.0
  0
VERTEX
  5
1020
  8
EBENE_1
 62
     7
 10
10.617009141710071
 20
5.9779296874999979
 30
0.0
  0
VERTEX
  5
1021
  8
EBENE_1
 62
     7
 10
10.617009141710071
 20
6.2285603841145809
 30
0.0
  0
VERTEX
  5
1022
  8
EBENE_1
 62
     7
 10
10.617009141710071
 20
6.47901882595486
 30
0.0
  0
VERTEX
  5
1023
  8
EBENE_1
 62
     7
 10
10.617009141710071
 20
6.7293050130208307
 30
0.0
  0
VERTEX
  5
1024
  8
EBENE_1
 62
     7
 10
10.617009141710071
 20
6.9799357096354164
 30
0.0
  0
VERTEX
  5
1025
  8
EBENE_1
 62
     7
 10
10.617009141710071
 20
7.2303941514756938
 30
0.0
  0
VERTEX
  5
1026
  8
EBENE_1
 62
     7
 10
10.617009141710071
 20
7.4806803385416654
 30
0.0
  0
VERTEX
  5
1027
  8
EBENE_1
 62
     7
 10
10.617009141710071
 20
7.727693684895832
 30
0.0
  0
VERTEX
  5
1028
  8
EBENE_1
 62
     7
 10
10.617009141710071
 20
7.9781521267361102
 30
0.0
  0
VERTEX
  5
1029
  8
EBENE_1
 62
     7
 10
10.617009141710071
 20
8.2287828233506932
 30
0.0
  0
VERTEX
  5
102A
  8
EBENE_1
 62
     7
 10
10.617009141710071
 20
8.4792412651909714
 30
0.0
  0
VERTEX
  5
102B
  8
EBENE_1
 62
     7
 10
10.617009141710071
 20
8.7295274522569422
 30
0.0
  0
VERTEX
  5
102C
  8
EBENE_1
 62
     7
 10
10.617009141710071
 20
8.98033040364583
 30
0.0
  0
VERTEX
  5
102D
  8
EBENE_1
 62
     7
 10
10.617009141710071
 20
9.2306165907118043
 30
0.0
  0
VERTEX
  5
102E
  8
EBENE_1
 62
     7
 10
10.617009141710071
 20
9.4809027777777768
 30
0.0
  0
VERTEX
  5
102F
  8
EBENE_1
 62
     7
 10
10.617009141710071
 20
9.72808837890625
 30
0.0
  0
VERTEX
  5
1030
  8
EBENE_1
 62
     7
 10
10.617009141710071
 20
9.9783745659722207
 30
0.0
  0
VERTEX
  5
1031
  8
EBENE_1
 62
     7
 10
10.617009141710071
 20
10.22917751736111
 30
0.0
  0
VERTEX
  5
1032
  8
EBENE_1
 62
     7
 10
10.617009141710071
 20
10.479463704427079
 30
0.0
  0
VERTEX
  5
1033
  8
EBENE_1
 62
     7
 10
10.617009141710071
 20
10.72974989149305
 30
0.0
  0
VERTEX
  5
1034
  8
EBENE_1
 62
     7
 10
10.617009141710071
 20
10.98020833333333
 30
0.0
  0
VERTEX
  5
1035
  8
EBENE_1
 62
     7
 10
10.617009141710071
 20
11.23083902994791
 30
0.0
  0
VERTEX
  5
1036
  8
EBENE_1
 62
     7
 10
10.617009141710071
 20
11.47785237630208
 30
0.0
  0
VERTEX
  5
1037
  8
EBENE_1
 62
     7
 10
10.617009141710071
 20
11.72831081814236
 30
0.0
  0
VERTEX
  5
1038
  8
EBENE_1
 62
     7
 10
10.617009141710071
 20
11.97859700520833
 30
0.0
  0
VERTEX
  5
1039
  8
EBENE_1
 62
     7
 10
10.617009141710071
 20
12.22905544704861
 30
0.0
  0
VERTEX
  5
103A
  8
EBENE_1
 62
     7
 10
10.617009141710071
 20
12.479686143663191
 30
0.0
  0
VERTEX
  5
103B
  8
EBENE_1
 62
     7
 10
10.617009141710071
 20
12.72997233072916
 30
0.0
  0
VERTEX
  5
103C
  8
EBENE_1
 62
     7
 10
10.617009141710071
 20
12.98043077256944
 30
0.0
  0
VERTEX
  5
103D
  8
EBENE_1
 62
     7
 10
10.617009141710071
 20
13.227444118923611
 30
0.0
  0
VERTEX
  5
103E
  8
EBENE_1
 62
     7
 10
10.617009141710071
 20
13.4782470703125
 30
0.0
  0
VERTEX
  5
103F
  8
EBENE_1
 62
     7
 10
10.617009141710071
 20
13.72853325737846
 30
0.0
  0
VERTEX
  5
1040
  8
EBENE_1
 62
     7
 10
10.617009141710071
 20
13.97881944444444
 30
0.0
  0
VERTEX
  5
1041
  8
EBENE_1
 62
     7
 10
10.617009141710071
 20
14.22927788628472
 30
0.0
  0
VERTEX
  5
1042
  8
EBENE_1
 62
     7
 10
10.617009141710071
 20
14.4799085828993
 30
0.0
  0
VERTEX
  5
1043
  8
EBENE_1
 62
     7
 10
10.617009141710071
 20
14.73036702473958
 30
0.0
  0
VERTEX
  5
1044
  8
EBENE_1
 62
     7
 10
10.617009141710071
 20
14.98065321180554
 30
0.0
  0
VERTEX
  5
1045
  8
EBENE_1
 62
     7
 10
10.61287502712673
 20
15.22766655815972
 30
0.0
  0
VERTEX
  5
1046
  8
EBENE_1
 62
     7
 10
10.61287502712673
 20
15.478125
 30
0.0
  0
VERTEX
  5
1047
  8
EBENE_1
 62
     7
 10
10.61287502712673
 20
15.728755696614581
 30
0.0
  0
VERTEX
  5
1048
  8
EBENE_1
 62
     7
 10
10.61287502712673
 20
15.979214138454861
 30
0.0
  0
VERTEX
  5
1049
  8
EBENE_1
 62
     7
 10
10.61287502712673
 20
16.229500325520831
 30
0.0
  0
VERTEX
  5
104A
  8
EBENE_1
 62
     7
 10
10.61287502712673
 20
16.48013102213541
 30
0.0
  0
VERTEX
  5
104B
  8
EBENE_1
 62
     7
 10
10.61287502712673
 20
16.730933973524301
 30
0.0
  0
VERTEX
  5
104C
  8
EBENE_1
 62
     7
 10
10.61287502712673
 20
16.977602810329859
 30
0.0
  0
VERTEX
  5
104D
  8
EBENE_1
 62
     7
 10
10.61287502712673
 20
16.995517306857622
 30
0.0
  0
SEQEND
  5
104E
  8
EBENE_1
 62
     7
  0
POLYLINE
  5
395
  8
EBENE_1
 62
     7
 66
     1
 10
0.0
 20
0.0
 30
0.0
  0
VERTEX
  5
FA6
  8
EBENE_1
 62
     7
 10
10.609429931640619
 20
16.991555447048611
 30
0.0
  0
VERTEX
  5
FA7
  8
EBENE_1
 62
     7
 10
10.6025397406684
 20
17.24218614366319
 30
0.0
  0
VERTEX
  5
FA8
  8
EBENE_1
 62
     7
 10
10.5777350531684
 20
17.489199490017359
 30
0.0
  0
VERTEX
  5
FA9
  8
EBENE_1
 62
     7
 10
10.53570488823784
 20
17.736385091145831
 30
0.0
  0
VERTEX
  5
FAA
  8
EBENE_1
 62
     7
 10
10.47576022677951
 20
17.979436577690969
 30
0.0
  0
VERTEX
  5
FAB
  8
EBENE_1
 62
     7
 10
10.40479125976562
 20
18.219559733072899
 30
0.0
  0
VERTEX
  5
FAC
  8
EBENE_1
 62
     7
 10
10.31315171983506
 20
18.452275933159719
 30
0.0
  0
VERTEX
  5
FAD
  8
EBENE_1
 62
     7
 10
10.20773179796007
 20
18.677929687500001
 30
0.0
  0
VERTEX
  5
FAE
  8
EBENE_1
 62
     7
 10
10.0878424750434
 20
18.89686550564236
 30
0.0
  0
VERTEX
  5
FAF
  8
EBENE_1
 62
     7
 10
9.9534837510850682
 20
19.108222113715271
 30
0.0
  0
VERTEX
  5
FB0
  8
EBENE_1
 62
     7
 10
9.8053446451822914
 20
19.309587944878469
 30
0.0
  0
VERTEX
  5
FB1
  8
EBENE_1
 62
     7
 10
9.6468702528211754
 20
19.500101725260411
 30
0.0
  0
VERTEX
  5
FB2
  8
EBENE_1
 62
     7
 10
9.4704813639322882
 20
19.679935709635402
 30
0.0
  0
VERTEX
  5
FB3
  8
EBENE_1
 62
     7
 10
9.286513264973955
 20
19.845644802517359
 30
0.0
  0
VERTEX
  5
FB4
  8
EBENE_1
 62
     7
 10
9.0894538031684
 20
20.000846354166669
 30
0.0
  0
VERTEX
  5
FB5
  8
EBENE_1
 62
     7
 10
8.8848151312934007
 20
20.145712619357639
 30
0.0
  0
VERTEX
  5
FB6
  8
EBENE_1
 62
     7
 10
8.6691521538628464
 20
20.272319878472221
 30
0.0
  0
VERTEX
  5
FB7
  8
EBENE_1
 62
     7
 10
8.4472880045572936
 20
20.385491265190971
 30
0.0
  0
VERTEX
  5
FB8
  8
EBENE_1
 62
     7
 10
8.2178446451822911
 20
20.480748155381939
 30
0.0
  0
VERTEX
  5
FB9
  8
EBENE_1
 62
     7
 10
7.9815110948350672
 20
20.565325249565969
 30
0.0
  0
VERTEX
  5
FBA
  8
EBENE_1
 62
     7
 10
7.7417324490017343
 20
20.632504611545141
 30
0.0
  0
VERTEX
  5
FBB
  8
EBENE_1
 62
     7
 10
7.4943745930989571
 20
20.681769476996529
 30
0.0
  0
VERTEX
  5
FBC
  8
EBENE_1
 62
     7
 10
7.2477057562934011
 20
20.713464355468759
 30
0.0
  0
VERTEX
  5
FBD
  8
EBENE_1
 62
     7
 10
6.9969028049045132
 20
20.731378851996531
 30
0.0
  0
VERTEX
  5
FBE
  8
EBENE_1
 62
     7
 10
6.8666781955295111
 20
20.734651692708329
 30
0.0
  0
SEQEND
  5
FBF
  8
EBENE_1
 62
     7
  0
POLYLINE
  5
305
  8
EBENE_1
 62
     7
 66
     1
 10
0.0
 20
0.0
 30
0.0
  0
VERTEX
  5
F17
  8
EBENE_1
 62
     7
 10
6.8666781955295111
 20
20.734651692708329
 30
0.0
  0
VERTEX
  5
F18
  8
EBENE_1
 62
     7
 10
6.6158752441406241
 20
20.734651692708329
 30
0.0
  0
VERTEX
  5
F19
  8
EBENE_1
 62
     7
 10
6.3657613118489564
 20
20.734651692708329
 30
0.0
  0
VERTEX
  5
F1A
  8
EBENE_1
 62
     7
 10
6.1149583604600668
 20
20.734651692708329
 30
0.0
  0
VERTEX
  5
F1B
  8
EBENE_1
 62
     7
 10
5.8648444281684009
 20
20.734651692708329
 30
0.0
  0
VERTEX
  5
F1C
  8
EBENE_1
 62
     7
 10
5.6181755913628448
 20
20.734651692708329
 30
0.0
  0
VERTEX
  5
F1D
  8
EBENE_1
 62
     7
 10
5.3673726399739561
 20
20.734651692708329
 30
0.0
  0
VERTEX
  5
F1E
  8
EBENE_1
 62
     7
 10
5.1165696885850691
 20
20.734651692708329
 30
0.0
  0
VERTEX
  5
F1F
  8
EBENE_1
 62
     7
 10
4.8664557562934014
 20
20.734651692708329
 30
0.0
  0
VERTEX
  5
F20
  8
EBENE_1
 62
     7
 10
4.6156528049045118
 20
20.734651692708329
 30
0.0
  0
VERTEX
  5
F21
  8
EBENE_1
 62
     7
 10
4.365538872612845
 20
20.734651692708329
 30
0.0
  0
VERTEX
  5
F22
  8
EBENE_1
 62
     7
 10
4.114735921223958
 20
20.734651692708329
 30
0.0
  0
VERTEX
  5
F23
  8
EBENE_1
 62
     7
 10
3.8646219889322899
 20
20.734651692708329
 30
0.0
  0
VERTEX
  5
F24
  8
EBENE_1
 62
     7
 10
3.6172641330295119
 20
20.734651692708329
 30
0.0
  0
VERTEX
  5
F25
  8
EBENE_1
 62
     7
 10
3.3671502007378451
 20
20.734651692708329
 30
0.0
  0
VERTEX
  5
F26
  8
EBENE_1
 62
     7
 10
3.1163472493489581
 20
20.734651692708329
 30
0.0
  0
VERTEX
  5
F27
  8
EBENE_1
 62
     7
 10
2.86623331705729
 20
20.734651692708329
 30
0.0
  0
VERTEX
  5
F28
  8
EBENE_1
 62
     7
 10
2.6154303656684021
 20
20.734651692708329
 30
0.0
  0
VERTEX
  5
F29
  8
EBENE_1
 62
     7
 10
2.365316433376734
 20
20.734651692708329
 30
0.0
  0
VERTEX
  5
F2A
  8
EBENE_1
 62
     7
 10
2.1145134819878471
 20
20.734651692708329
 30
0.0
  0
VERTEX
  5
F2B
  8
EBENE_1
 62
     7
 10
1.867844645182291
 20
20.734651692708329
 30
0.0
  0
VERTEX
  5
F2C
  8
EBENE_1
 62
     7
 10
1.6170416937934009
 20
20.734651692708329
 30
0.0
  0
VERTEX
  5
F2D
  8
EBENE_1
 62
     7
 10
1.366927761501735
 20
20.738269042968749
 30
0.0
  0
VERTEX
  5
F2E
  8
EBENE_1
 62
     7
 10
1.116124810112846
 20
20.738269042968749
 30
0.0
  0
VERTEX
  5
F2F
  8
EBENE_1
 62
     7
 10
0.8660108778211805
 20
20.738269042968749
 30
0.0
  0
VERTEX
  5
F30
  8
EBENE_1
 62
     7
 10
0.6152079264322916
 20
20.738269042968749
 30
0.0
  0
VERTEX
  5
F31
  8
EBENE_1
 62
     7
 10
0.365093994140625
 20
20.738269042968749
 30
0.0
  0
VERTEX
  5
F32
  8
EBENE_1
 62
     7
 10
0.1144632975260416
 20
20.738269042968749
 30
0.0
  0
VERTEX
  5
F33
  8
EBENE_1
 62
     7
 10
-0.1323777940538194
 20
20.738269042968749
 30
0.0
  0
VERTEX
  5
F34
  8
EBENE_1
 62
     7
 10
-0.3830084906684028
 20
20.738269042968749
 30
0.0
  0
VERTEX
  5
F35
  8
EBENE_1
 62
     7
 10
-0.6334669325086805
 20
20.738269042968749
 30
0.0
  0
VERTEX
  5
F36
  8
EBENE_1
 62
     7
 10
-0.8837531195746526
 20
20.738269042968749
 30
0.0
  0
VERTEX
  5
F37
  8
EBENE_1
 62
     7
 10
-1.134383816189235
 20
20.738269042968749
 30
0.0
  0
VERTEX
  5
F38
  8
EBENE_1
 62
     7
 10
-1.384842258029513
 20
20.738269042968749
 30
0.0
  0
VERTEX
  5
F39
  8
EBENE_1
 62
     7
 10
-1.6353006998697901
 20
20.738269042968749
 30
0.0
  0
VERTEX
  5
F3A
  8
EBENE_1
 62
     7
 10
-1.8821417914496521
 20
20.738269042968749
 30
0.0
  0
VERTEX
  5
F3B
  8
EBENE_1
 62
     7
 10
-2.132772488064234
 20
20.738269042968749
 30
0.0
  0
VERTEX
  5
F3C
  8
EBENE_1
 62
     7
 10
-2.383058675130207
 20
20.738269042968749
 30
0.0
  0
VERTEX
  5
F3D
  8
EBENE_1
 62
     7
 10
-2.6335171169704861
 20
20.738269042968749
 30
0.0
  0
VERTEX
  5
F3E
  8
EBENE_1
 62
     7
 10
-2.8841478135850682
 20
20.738269042968749
 30
0.0
  0
VERTEX
  5
F3F
  8
EBENE_1
 62
     7
 10
-3.1346062554253451
 20
20.738269042968749
 30
0.0
  0
VERTEX
  5
F40
  8
EBENE_1
 62
     7
 10
-3.3850646972656242
 20
20.738269042968749
 30
0.0
  0
VERTEX
  5
F41
  8
EBENE_1
 62
     7
 10
-3.6355231391059011
 20
20.738269042968749
 30
0.0
  0
VERTEX
  5
F42
  8
EBENE_1
 62
     7
 10
-3.882364230685762
 20
20.738269042968749
 30
0.0
  0
VERTEX
  5
F43
  8
EBENE_1
 62
     7
 10
-4.132994927300345
 20
20.738269042968749
 30
0.0
  0
VERTEX
  5
F44
  8
EBENE_1
 62
     7
 10
-4.383453369140625
 20
20.738269042968749
 30
0.0
  0
VERTEX
  5
F45
  8
EBENE_1
 62
     7
 10
-4.6339118109809023
 20
20.738269042968749
 30
0.0
  0
VERTEX
  5
F46
  8
EBENE_1
 62
     7
 10
-4.8843702528211788
 20
20.738269042968749
 30
0.0
  0
VERTEX
  5
F47
  8
EBENE_1
 62
     7
 10
-5.1348286946614561
 20
20.738269042968749
 30
0.0
  0
VERTEX
  5
F48
  8
EBENE_1
 62
     7
 10
-5.3852871365017352
 20
20.738269042968749
 30
0.0
  0
VERTEX
  5
F49
  8
EBENE_1
 62
     7
 10
-5.6323004828559009
 20
20.738269042968749
 30
0.0
  0
VERTEX
  5
F4A
  8
EBENE_1
 62
     7
 10
-5.88275892469618
 20
20.738269042968749
 30
0.0
  0
VERTEX
  5
F4B
  8
EBENE_1
 62
     7
 10
-6.1332173665364573
 20
20.738269042968749
 30
0.0
  0
VERTEX
  5
F4C
  8
EBENE_1
 62
     7
 10
-6.3836758083767347
 20
20.738269042968749
 30
0.0
  0
VERTEX
  5
F4D
  8
EBENE_1
 62
     7
 10
-6.6341342502170111
 20
20.738269042968749
 30
0.0
  0
VERTEX
  5
F4E
  8
EBENE_1
 62
     7
 10
-6.8845926920572911
 20
20.738269042968749
 30
0.0
  0
VERTEX
  5
F4F
  8
EBENE_1
 62
     7
 10
-7.1350511338975684
 20
20.738269042968749
 30
0.0
  0
VERTEX
  5
F50
  8
EBENE_1
 62
     7
 10
-7.382064480251735
 20
20.738269042968749
 30
0.0
  0
VERTEX
  5
F51
  8
EBENE_1
 62
     7
 10
-7.6325229220920132
 20
20.738269042968749
 30
0.0
  0
VERTEX
  5
F52
  8
EBENE_1
 62
     7
 10
-7.8829813639322888
 20
20.738269042968749
 30
0.0
  0
VERTEX
  5
F53
  8
EBENE_1
 62
     7
 10
-8.1334398057725679
 20
20.738269042968749
 30
0.0
  0
VERTEX
  5
F54
  8
EBENE_1
 62
     7
 10
-8.3838982476128461
 20
20.738269042968749
 30
0.0
  0
VERTEX
  5
F55
  8
EBENE_1
 62
     7
 10
-8.6343566894531225
 20
20.738269042968749
 30
0.0
  0
VERTEX
  5
F56
  8
EBENE_1
 62
     7
 10
-8.8848151312934007
 20
20.738269042968749
 30
0.0
  0
VERTEX
  5
F57
  8
EBENE_1
 62
     7
 10
-9.1352735731336772
 20
20.738269042968749
 30
0.0
  0
VERTEX
  5
F58
  8
EBENE_1
 62
     7
 10
-9.3822869194878464
 20
20.738269042968749
 30
0.0
  0
VERTEX
  5
F59
  8
EBENE_1
 62
     7
 10
-9.6327453613281246
 20
20.738269042968749
 30
0.0
  0
VERTEX
  5
F5A
  8
EBENE_1
 62
     7
 10
-9.8832038031683993
 20
20.738269042968749
 30
0.0
  0
VERTEX
  5
F5B
  8
EBENE_1
 62
     7
 10
-10.133662245008679
 20
20.738269042968749
 30
0.0
  0
VERTEX
  5
F5C
  8
EBENE_1
 62
     7
 10
-10.384120686848959
 20
20.738269042968749
 30
0.0
  0
VERTEX
  5
F5D
  8
EBENE_1
 62
     7
 10
-10.63457912868923
 20
20.738269042968749
 30
0.0
  0
VERTEX
  5
F5E
  8
EBENE_1
 62
     7
 10
-10.88503757052951
 20
20.738269042968749
 30
0.0
  0
VERTEX
  5
F5F
  8
EBENE_1
 62
     7
 10
-11.13205091688368
 20
20.738269042968749
 30
0.0
  0
VERTEX
  5
F60
  8
EBENE_1
 62
     7
 10
-11.38250935872396
 20
20.738269042968749
 30
0.0
  0
VERTEX
  5
F61
  8
EBENE_1
 62
     7
 10
-11.632967800564231
 20
20.738269042968749
 30
0.0
  0
VERTEX
  5
F62
  8
EBENE_1
 62
     7
 10
-11.883426242404511
 20
20.738269042968749
 30
0.0
  0
VERTEX
  5
F63
  8
EBENE_1
 62
     7
 10
-12.133884684244791
 20
20.738269042968749
 30
0.0
  0
VERTEX
  5
F64
  8
EBENE_1
 62
     7
 10
-12.384343126085071
 20
20.738269042968749
 30
0.0
  0
VERTEX
  5
F65
  8
EBENE_1
 62
     7
 10
-12.63480156792534
 20
20.738269042968749
 30
0.0
  0
VERTEX
  5
F66
  8
EBENE_1
 62
     7
 10
-12.885432264539929
 20
20.738269042968749
 30
0.0
  0
VERTEX
  5
F67
  8
EBENE_1
 62
     7
 10
-13.132273356119789
 20
20.738269042968749
 30
0.0
  0
VERTEX
  5
F68
  8
EBENE_1
 62
     7
 10
-13.382731797960069
 20
20.738269042968749
 30
0.0
  0
VERTEX
  5
F69
  8
EBENE_1
 62
     7
 10
-13.63319023980034
 20
20.738269042968749
 30
0.0
  0
VERTEX
  5
F6A
  8
EBENE_1
 62
     7
 10
-13.88364868164062
 20
20.738269042968749
 30
0.0
  0
VERTEX
  5
F6B
  8
EBENE_1
 62
     7
 10
-14.1341071234809
 20
20.738269042968749
 30
0.0
  0
VERTEX
  5
F6C
  8
EBENE_1
 62
     7
 10
-14.384737820095481
 20
20.738269042968749
 30
0.0
  0
VERTEX
  5
F6D
  8
EBENE_1
 62
     7
 10
-14.635196261935761
 20
20.738269042968749
 30
0.0
  0
VERTEX
  5
F6E
  8
EBENE_1
 62
     7
 10
-14.882037353515621
 20
20.738269042968749
 30
0.0
  0
VERTEX
  5
F6F
  8
EBENE_1
 62
     7
 10
-15.132495795355901
 20
20.738269042968749
 30
0.0
  0
VERTEX
  5
F70
  8
EBENE_1
 62
     7
 10
-15.382954237196181
 20
20.738269042968749
 30
0.0
  0
VERTEX
  5
F71
  8
EBENE_1
 62
     7
 10
-15.633412679036461
 20
20.738269042968749
 30
0.0
  0
VERTEX
  5
F72
  8
EBENE_1
 62
     7
 10
-15.884043375651039
 20
20.738269042968749
 30
0.0
  0
VERTEX
  5
F73
  8
EBENE_1
 62
     7
 10
-16.134501817491319
 20
20.738269042968749
 30
0.0
  0
VERTEX
  5
F74
  8
EBENE_1
 62
     7
 10
-16.384960259331589
 20
20.738269042968749
 30
0.0
  0
VERTEX
  5
F75
  8
EBENE_1
 62
     7
 10
-16.635418701171869
 20
20.738269042968749
 30
0.0
  0
VERTEX
  5
F76
  8
EBENE_1
 62
     7
 10
-16.882259792751729
 20
20.738269042968749
 30
0.0
  0
VERTEX
  5
F77
  8
EBENE_1
 62
     7
 10
-17.132718234592009
 20
20.738269042968749
 30
0.0
  0
VERTEX
  5
F78
  8
EBENE_1
 62
     7
 10
-17.383348931206591
 20
20.738269042968749
 30
0.0
  0
VERTEX
  5
F79
  8
EBENE_1
 62
     7
 10
-17.633807373046871
 20
20.738269042968749
 30
0.0
  0
VERTEX
  5
F7A
  8
EBENE_1
 62
     7
 10
-17.884265814887151
 20
20.738269042968749
 30
0.0
  0
VERTEX
  5
F7B
  8
EBENE_1
 62
     7
 10
-18.134724256727431
 20
20.738269042968749
 30
0.0
  0
VERTEX
  5
F7C
  8
EBENE_1
 62
     7
 10
-18.385182698567711
 20
20.738269042968749
 30
0.0
  0
VERTEX
  5
F7D
  8
EBENE_1
 62
     7
 10
-18.63202379014756
 20
20.738269042968749
 30
0.0
  0
VERTEX
  5
F7E
  8
EBENE_1
 62
     7
 10
-18.882654486762149
 20
20.738269042968749
 30
0.0
  0
VERTEX
  5
F7F
  8
EBENE_1
 62
     7
 10
-19.133112928602419
 20
20.738269042968749
 30
0.0
  0
VERTEX
  5
F80
  8
EBENE_1
 62
     7
 10
-19.3833991156684
 20
20.738269042968749
 30
0.0
  0
VERTEX
  5
F81
  8
EBENE_1
 62
     7
 10
-19.634029812282979
 20
20.738269042968749
 30
0.0
  0
VERTEX
  5
F82
  8
EBENE_1
 62
     7
 10
-19.884488254123251
 20
20.738269042968749
 30
0.0
  0
VERTEX
  5
F83
  8
EBENE_1
 62
     7
 10
-20.134946695963539
 20
20.738269042968749
 30
0.0
  0
VERTEX
  5
F84
  8
EBENE_1
 62
     7
 10
-20.385405137803819
 20
20.738269042968749
 30
0.0
  0
VERTEX
  5
F85
  8
EBENE_1
 62
     7
 10
-20.632418484157991
 20
20.738269042968749
 30
0.0
  0
VERTEX
  5
F86
  8
EBENE_1
 62
     7
 10
-20.882876925998261
 20
20.738269042968749
 30
0.0
  0
VERTEX
  5
F87
  8
EBENE_1
 62
     7
 10
-21.133335367838541
 20
20.738269042968749
 30
0.0
  0
VERTEX
  5
F88
  8
EBENE_1
 62
     7
 10
-21.383793809678821
 20
20.738269042968749
 30
0.0
  0
VERTEX
  5
F89
  8
EBENE_1
 62
     7
 10
-21.63425225151909
 20
20.738269042968749
 30
0.0
  0
VERTEX
  5
F8A
  8
EBENE_1
 62
     7
 10
-21.88471069335937
 20
20.738269042968749
 30
0.0
  0
VERTEX
  5
F8B
  8
EBENE_1
 62
     7
 10
-22.13516913519965
 20
20.738269042968749
 30
0.0
  0
VERTEX
  5
F8C
  8
EBENE_1
 62
     7
 10
-22.382182481553819
 20
20.738269042968749
 30
0.0
  0
VERTEX
  5
F8D
  8
EBENE_1
 62
     7
 10
-22.632640923394089
 20
20.738269042968749
 30
0.0
  0
VERTEX
  5
F8E
  8
EBENE_1
 62
     7
 10
-22.883099365234369
 20
20.734651692708329
 30
0.0
  0
VERTEX
  5
F8F
  8
EBENE_1
 62
     7
 10
-23.133557807074649
 20
20.734651692708329
 30
0.0
  0
VERTEX
  5
F90
  8
EBENE_1
 62
     7
 10
-23.384016248914929
 20
20.734651692708329
 30
0.0
  0
VERTEX
  5
F91
  8
EBENE_1
 62
     7
 10
-23.634474690755201
 20
20.734651692708329
 30
0.0
  0
VERTEX
  5
F92
  8
EBENE_1
 62
     7
 10
-23.884933132595481
 20
20.734651692708329
 30
0.0
  0
VERTEX
  5
F93
  8
EBENE_1
 62
     7
 10
-24.135391574435761
 20
20.734651692708329
 30
0.0
  0
VERTEX
  5
F94
  8
EBENE_1
 62
     7
 10
-24.382404920789931
 20
20.734651692708329
 30
0.0
  0
VERTEX
  5
F95
  8
EBENE_1
 62
     7
 10
-24.632863362630211
 20
20.734651692708329
 30
0.0
  0
VERTEX
  5
F96
  8
EBENE_1
 62
     7
 10
-24.883321804470491
 20
20.734651692708329
 30
0.0
  0
VERTEX
  5
F97
  8
EBENE_1
 62
     7
 10
-25.133780246310771
 20
20.734651692708329
 30
0.0
  0
VERTEX
  5
F98
  8
EBENE_1
 62
     7
 10
-25.38423868815104
 20
20.734651692708329
 30
0.0
  0
VERTEX
  5
F99
  8
EBENE_1
 62
     7
 10
-25.63469712999132
 20
20.734651692708329
 30
0.0
  0
VERTEX
  5
F9A
  8
EBENE_1
 62
     7
 10
-25.885155571831611
 20
20.734651692708329
 30
0.0
  0
VERTEX
  5
F9B
  8
EBENE_1
 62
     7
 10
-26.132168918185759
 20
20.734651692708329
 30
0.0
  0
VERTEX
  5
F9C
  8
EBENE_1
 62
     7
 10
-26.382627360026039
 20
20.734651692708329
 30
0.0
  0
VERTEX
  5
F9D
  8
EBENE_1
 62
     7
 10
-26.633085801866319
 20
20.734651692708329
 30
0.0
  0
VERTEX
  5
F9E
  8
EBENE_1
 62
     7
 10
-26.883544243706599
 20
20.734651692708329
 30
0.0
  0
VERTEX
  5
F9F
  8
EBENE_1
 62
     7
 10
-27.134002685546871
 20
20.734651692708329
 30
0.0
  0
VERTEX
  5
FA0
  8
EBENE_1
 62
     7
 10
-27.384461127387151
 20
20.734651692708329
 30
0.0
  0
VERTEX
  5
FA1
  8
EBENE_1
 62
     7
 10
-27.634919569227431
 20
20.734651692708329
 30
0.0
  0
VERTEX
  5
FA2
  8
EBENE_1
 62
     7
 10
-27.885550265842021
 20
20.734651692708329
 30
0.0
  0
VERTEX
  5
FA3
  8
EBENE_1
 62
     7
 10
-28.132391357421881
 20
20.734651692708329
 30
0.0
  0
VERTEX
  5
FA4
  8
EBENE_1
 62
     7
 10
-28.135836452907981
 20
20.734651692708329
 30
0.0
  0
SEQEND
  5
FA5
  8
EBENE_1
 62
     7
  0
POLYLINE
  5
2EA
  8
EBENE_1
 62
     7
 66
     1
 10
0.0
 20
0.0
 30
0.0
  0
VERTEX
  5
EFD
  8
EBENE_1
 62
     7
 10
-28.139453803168401
 20
20.734651692708329
 30
0.0
  0
VERTEX
  5
EFE
  8
EBENE_1
 62
     7
 10
-28.386294894748261
 20
20.724144151475691
 30
0.0
  0
VERTEX
  5
EFF
  8
EBENE_1
 62
     7
 10
-28.636925591362839
 20
20.699683973524309
 30
0.0
  0
VERTEX
  5
F00
  8
EBENE_1
 62
     7
 10
-28.883766682942699
 20
20.66058213975694
 30
0.0
  0
VERTEX
  5
F01
  8
EBENE_1
 62
     7
 10
-29.127162679036449
 20
20.600809733072911
 30
0.0
  0
VERTEX
  5
F02
  8
EBENE_1
 62
     7
 10
-29.363668484157991
 20
20.526740180121529
 30
0.0
  0
VERTEX
  5
F03
  8
EBENE_1
 62
     7
 10
-29.596384684244789
 20
20.438373480902779
 30
0.0
  0
VERTEX
  5
F04
  8
EBENE_1
 62
     7
 10
-29.82582804361979
 20
20.332953559027779
 30
0.0
  0
VERTEX
  5
F05
  8
EBENE_1
 62
     7
 10
-30.044419352213541
 20
20.212547471788191
 30
0.0
  0
VERTEX
  5
F06
  8
EBENE_1
 62
     7
 10
-30.252503119574651
 20
20.078533257378481
 30
0.0
  0
VERTEX
  5
F07
  8
EBENE_1
 62
     7
 10
-30.457141791449651
 20
19.930394151475689
 30
0.0
  0
VERTEX
  5
F08
  8
EBENE_1
 62
     7
 10
-30.647655571831599
 20
19.76795789930555
 30
0.0
  0
VERTEX
  5
F09
  8
EBENE_1
 62
     7
 10
-30.827661810980889
 20
19.59501410590277
 30
0.0
  0
VERTEX
  5
F0A
  8
EBENE_1
 62
     7
 10
-30.993370903862839
 20
19.411735026041661
 30
0.0
  0
VERTEX
  5
F0B
  8
EBENE_1
 62
     7
 10
-31.148744710286461
 20
19.213986545138891
 30
0.0
  0
VERTEX
  5
F0C
  8
EBENE_1
 62
     7
 10
-31.2896491156684
 20
19.010036892361111
 30
0.0
  0
VERTEX
  5
F0D
  8
EBENE_1
 62
     7
 10
-31.416773139105899
 20
18.794718424479161
 30
0.0
  0
VERTEX
  5
F0E
  8
EBENE_1
 62
     7
 10
-31.529600016276039
 20
18.57233751085068
 30
0.0
  0
VERTEX
  5
F0F
  8
EBENE_1
 62
     7
 10
-31.628474256727429
 20
18.339276801215281
 30
0.0
  0
VERTEX
  5
F10
  8
EBENE_1
 62
     7
 10
-31.709606255425349
 20
18.106388346354159
 30
0.0
  0
VERTEX
  5
F11
  8
EBENE_1
 62
     7
 10
-31.776613362630211
 20
17.863336859809031
 30
0.0
  0
VERTEX
  5
F12
  8
EBENE_1
 62
     7
 10
-31.826050482855901
 20
17.61959635416666
 30
0.0
  0
VERTEX
  5
F13
  8
EBENE_1
 62
     7
 10
-31.861190456814231
 20
17.372927517361099
 30
0.0
  0
VERTEX
  5
F14
  8
EBENE_1
 62
     7
 10
-31.878932698567709
 20
17.122124565972221
 30
0.0
  0
VERTEX
  5
F15
  8
EBENE_1
 62
     7
 10
-31.88237779405382
 20
16.991555447048611
 30
0.0
  0
SEQEND
  5
F16
  8
EBENE_1
 62
     7
  0
POLYLINE
  5
25A
  8
EBENE_1
 62
     7
 66
     1
 10
0.0
 20
0.0
 30
0.0
  0
VERTEX
  5
E6E
  8
EBENE_1
 62
     7
 10
-31.88237779405382
 20
16.991555447048611
 30
0.0
  0
VERTEX
  5
E6F
  8
EBENE_1
 62
     7
 10
-31.88237779405382
 20
16.741097005208331
 30
0.0
  0
VERTEX
  5
E70
  8
EBENE_1
 62
     7
 10
-31.88237779405382
 20
16.494083658854159
 30
0.0
  0
VERTEX
  5
E71
  8
EBENE_1
 62
     7
 10
-31.88237779405382
 20
16.243797471788191
 30
0.0
  0
VERTEX
  5
E72
  8
EBENE_1
 62
     7
 10
-31.88237779405382
 20
15.99333902994791
 30
0.0
  0
VERTEX
  5
E73
  8
EBENE_1
 62
     7
 10
-31.88237779405382
 20
15.742708333333329
 30
0.0
  0
VERTEX
  5
E74
  8
EBENE_1
 62
     7
 10
-31.88237779405382
 20
15.49224989149304
 30
0.0
  0
VERTEX
  5
E75
  8
EBENE_1
 62
     7
 10
-31.88237779405382
 20
15.24196370442708
 30
0.0
  0
VERTEX
  5
E76
  8
EBENE_1
 62
     7
 10
-31.88237779405382
 20
14.99167751736111
 30
0.0
  0
VERTEX
  5
E77
  8
EBENE_1
 62
     7
 10
-31.88237779405382
 20
14.74449191623262
 30
0.0
  0
VERTEX
  5
E78
  8
EBENE_1
 62
     7
 10
-31.88237779405382
 20
14.493861219618051
 30
0.0
  0
VERTEX
  5
E79
  8
EBENE_1
 62
     7
 10
-31.88237779405382
 20
14.243402777777771
 30
0.0
  0
VERTEX
  5
E7A
  8
EBENE_1
 62
     7
 10
-31.88237779405382
 20
13.9931165907118
 30
0.0
  0
VERTEX
  5
E7B
  8
EBENE_1
 62
     7
 10
-31.88237779405382
 20
13.742830403645829
 30
0.0
  0
VERTEX
  5
E7C
  8
EBENE_1
 62
     7
 10
-31.88237779405382
 20
13.49202745225694
 30
0.0
  0
VERTEX
  5
E7D
  8
EBENE_1
 62
     7
 10
-31.88237779405382
 20
13.241741265190971
 30
0.0
  0
VERTEX
  5
E7E
  8
EBENE_1
 62
     7
 10
-31.88237779405382
 20
12.991282823350691
 30
0.0
  0
VERTEX
  5
E7F
  8
EBENE_1
 62
     7
 10
-31.88237779405382
 20
12.74426947699653
 30
0.0
  0
VERTEX
  5
E80
  8
EBENE_1
 62
     7
 10
-31.88237779405382
 20
12.493638780381939
 30
0.0
  0
VERTEX
  5
E81
  8
EBENE_1
 62
     7
 10
-31.88237779405382
 20
12.24318033854167
 30
0.0
  0
VERTEX
  5
E82
  8
EBENE_1
 62
     7
 10
-31.88237779405382
 20
11.99289415147569
 30
0.0
  0
VERTEX
  5
E83
  8
EBENE_1
 62
     7
 10
-31.88237779405382
 20
11.74243570963541
 30
0.0
  0
VERTEX
  5
E84
  8
EBENE_1
 62
     7
 10
-31.88237779405382
 20
11.49180501302083
 30
0.0
  0
VERTEX
  5
E85
  8
EBENE_1
 62
     7
 10
-31.88237779405382
 20
11.241518825954859
 30
0.0
  0
VERTEX
  5
E86
  8
EBENE_1
 62
     7
 10
-31.88237779405382
 20
10.99433322482639
 30
0.0
  0
VERTEX
  5
E87
  8
EBENE_1
 62
     7
 10
-31.88237779405382
 20
10.74404703776041
 30
0.0
  0
VERTEX
  5
E88
  8
EBENE_1
 62
     7
 10
-31.88237779405382
 20
10.493760850694439
 30
0.0
  0
VERTEX
  5
E89
  8
EBENE_1
 62
     7
 10
-31.88237779405382
 20
10.24295789930555
 30
0.0
  0
VERTEX
  5
E8A
  8
EBENE_1
 62
     7
 10
-31.88237779405382
 20
9.9926717122395825
 30
0.0
  0
VERTEX
  5
E8B
  8
EBENE_1
 62
     7
 10
-31.88237779405382
 20
9.7422132703993043
 30
0.0
  0
VERTEX
  5
E8C
  8
EBENE_1
 62
     7
 10
-31.88237779405382
 20
9.4915825737847221
 30
0.0
  0
VERTEX
  5
E8D
  8
EBENE_1
 62
     7
 10
-31.88237779405382
 20
9.2411241319444422
 30
0.0
  0
VERTEX
  5
E8E
  8
EBENE_1
 62
     7
 10
-31.88237779405382
 20
8.9941107855902747
 30
0.0
  0
VERTEX
  5
E8F
  8
EBENE_1
 62
     7
 10
-31.88237779405382
 20
8.7438245985243022
 30
0.0
  0
VERTEX
  5
E90
  8
EBENE_1
 62
     7
 10
-31.88599514431424
 20
8.4933661566840275
 30
0.0
  0
VERTEX
  5
E91
  8
EBENE_1
 62
     7
 10
-31.88599514431424
 20
8.2427354600694436
 30
0.0
  0
VERTEX
  5
E92
  8
EBENE_1
 62
     7
 10
-31.88599514431424
 20
7.9922770182291663
 30
0.0
  0
VERTEX
  5
E93
  8
EBENE_1
 62
     7
 10
-31.88599514431424
 20
7.7419908311631929
 30
0.0
  0
VERTEX
  5
E94
  8
EBENE_1
 62
     7
 10
-31.88599514431424
 20
7.4913601345486107
 30
0.0
  0
VERTEX
  5
E95
  8
EBENE_1
 62
     7
 10
-31.88599514431424
 20
7.244519042968748
 30
0.0
  0
VERTEX
  5
E96
  8
EBENE_1
 62
     7
 10
-31.88599514431424
 20
6.993888346354165
 30
0.0
  0
VERTEX
  5
E97
  8
EBENE_1
 62
     7
 10
-31.88599514431424
 20
6.7436021592881934
 30
0.0
  0
VERTEX
  5
E98
  8
EBENE_1
 62
     7
 10
-31.88599514431424
 20
6.4931437174479161
 30
0.0
  0
VERTEX
  5
E99
  8
EBENE_1
 62
     7
 10
-31.88599514431424
 20
6.2425130208333321
 30
0.0
  0
VERTEX
  5
E9A
  8
EBENE_1
 62
     7
 10
-31.88599514431424
 20
5.992054578993053
 30
0.0
  0
VERTEX
  5
E9B
  8
EBENE_1
 62
     7
 10
-31.88599514431424
 20
5.7417683919270832
 30
0.0
  0
VERTEX
  5
E9C
  8
EBENE_1
 62
     7
 10
-31.88599514431424
 20
5.4914822048611089
 30
0.0
  0
VERTEX
  5
E9D
  8
EBENE_1
 62
     7
 10
-31.88599514431424
 20
5.2442966037326384
 30
0.0
  0
VERTEX
  5
E9E
  8
EBENE_1
 62
     7
 10
-31.88599514431424
 20
4.9936659071180562
 30
0.0
  0
VERTEX
  5
E9F
  8
EBENE_1
 62
     7
 10
-31.88599514431424
 20
4.7432074652777771
 30
0.0
  0
VERTEX
  5
EA0
  8
EBENE_1
 62
     7
 10
-31.88599514431424
 20
4.4929212782118038
 30
0.0
  0
VERTEX
  5
EA1
  8
EBENE_1
 62
     7
 10
-31.88599514431424
 20
4.242635091145833
 30
0.0
  0
VERTEX
  5
EA2
  8
EBENE_1
 62
     7
 10
-31.88599514431424
 20
3.991832139756943
 30
0.0
  0
VERTEX
  5
EA3
  8
EBENE_1
 62
     7
 10
-31.88599514431424
 20
3.74154595269097
 30
0.0
  0
VERTEX
  5
EA4
  8
EBENE_1
 62
     7
 10
-31.88599514431424
 20
3.494360351562499
 30
0.0
  0
VERTEX
  5
EA5
  8
EBENE_1
 62
     7
 10
-31.88599514431424
 20
3.2440741644965261
 30
0.0
  0
VERTEX
  5
EA6
  8
EBENE_1
 62
     7
 10
-31.88599514431424
 20
2.993443467881943
 30
0.0
  0
VERTEX
  5
EA7
  8
EBENE_1
 62
     7
 10
-31.88599514431424
 20
2.7429850260416662
 30
0.0
  0
VERTEX
  5
EA8
  8
EBENE_1
 62
     7
 10
-31.88599514431424
 20
2.4926988389756941
 30
0.0
  0
VERTEX
  5
EA9
  8
EBENE_1
 62
     7
 10
-31.88599514431424
 20
2.242240397135415
 30
0.0
  0
VERTEX
  5
EAA
  8
EBENE_1
 62
     7
 10
-31.88599514431424
 20
1.991609700520832
 30
0.0
  0
VERTEX
  5
EAB
  8
EBENE_1
 62
     7
 10
-31.88599514431424
 20
1.7413235134548599
 30
0.0
  0
VERTEX
  5
EAC
  8
EBENE_1
 62
     7
 10
-31.88599514431424
 20
1.494137912326388
 30
0.0
  0
VERTEX
  5
EAD
  8
EBENE_1
 62
     7
 10
-31.88599514431424
 20
1.2438517252604151
 30
0.0
  0
VERTEX
  5
EAE
  8
EBENE_1
 62
     7
 10
-31.88599514431424
 20
0.9935655381944442
 30
0.0
  0
VERTEX
  5
EAF
  8
EBENE_1
 62
     7
 10
-31.88599514431424
 20
0.7427625868055557
 30
0.0
  0
VERTEX
  5
EB0
  8
EBENE_1
 62
     7
 10
-31.88599514431424
 20
0.4924763997395833
 30
0.0
  0
VERTEX
  5
EB1
  8
EBENE_1
 62
     7
 10
-31.88599514431424
 20
0.2420179578993055
 30
0.0
  0
VERTEX
  5
EB2
  8
EBENE_1
 62
     7
 10
-31.88599514431424
 20
-0.0086127387152778
 30
0.0
  0
VERTEX
  5
EB3
  8
EBENE_1
 62
     7
 10
-31.88599514431424
 20
-0.2554538302951388
 30
0.0
  0
VERTEX
  5
EB4
  8
EBENE_1
 62
     7
 10
-31.88599514431424
 20
-0.5062567816840278
 30
0.0
  0
VERTEX
  5
EB5
  8
EBENE_1
 62
     7
 10
-31.88599514431424
 20
-0.7563707139756943
 30
0.0
  0
VERTEX
  5
EB6
  8
EBENE_1
 62
     7
 10
-31.88599514431424
 20
-1.00648464626736
 30
0.0
  0
VERTEX
  5
EB7
  8
EBENE_1
 62
     7
 10
-31.88599514431424
 20
-1.2572875976562481
 30
0.0
  0
VERTEX
  5
EB8
  8
EBENE_1
 62
     7
 10
-31.88599514431424
 20
-1.5080905490451371
 30
0.0
  0
VERTEX
  5
EB9
  8
EBENE_1
 62
     7
 10
-31.88599514431424
 20
-1.758204481336805
 30
0.0
  0
VERTEX
  5
EBA
  8
EBENE_1
 62
     7
 10
-31.88599514431424
 20
-2.009007432725693
 30
0.0
  0
VERTEX
  5
EBB
  8
EBENE_1
 62
     7
 10
-31.88599514431424
 20
-2.25567626953125
 30
0.0
  0
VERTEX
  5
EBC
  8
EBENE_1
 62
     7
 10
-31.88599514431424
 20
-2.506479220920137
 30
0.0
  0
VERTEX
  5
EBD
  8
EBENE_1
 62
     7
 10
-31.88599514431424
 20
-2.7565931532118042
 30
0.0
  0
VERTEX
  5
EBE
  8
EBENE_1
 62
     7
 10
-31.88599514431424
 20
-3.0067070855034701
 30
0.0
  0
VERTEX
  5
EBF
  8
EBENE_1
 62
     7
 10
-31.88599514431424
 20
-3.2575100368923602
 30
0.0
  0
VERTEX
  5
EC0
  8
EBENE_1
 62
     7
 10
-31.88599514431424
 20
-3.508312988281248
 30
0.0
  0
VERTEX
  5
EC1
  8
EBENE_1
 62
     7
 10
-31.88599514431424
 20
-3.7584269205729162
 30
0.0
  0
VERTEX
  5
EC2
  8
EBENE_1
 62
     7
 10
-31.88599514431424
 20
-4.005784776475692
 30
0.0
  0
VERTEX
  5
EC3
  8
EBENE_1
 62
     7
 10
-31.88599514431424
 20
-4.2558987087673588
 30
0.0
  0
VERTEX
  5
EC4
  8
EBENE_1
 62
     7
 10
-31.88599514431424
 20
-4.5067016601562484
 30
0.0
  0
VERTEX
  5
EC5
  8
EBENE_1
 62
     7
 10
-31.88599514431424
 20
-4.7568155924479161
 30
0.0
  0
VERTEX
  5
EC6
  8
EBENE_1
 62
     7
 10
-31.88599514431424
 20
-5.007618543836803
 30
0.0
  0
VERTEX
  5
EC7
  8
EBENE_1
 62
     7
 10
-31.88599514431424
 20
-5.2577324761284707
 30
0.0
  0
VERTEX
  5
EC8
  8
EBENE_1
 62
     7
 10
-31.88599514431424
 20
-5.5085354275173604
 30
0.0
  0
VERTEX
  5
EC9
  8
EBENE_1
 62
     7
 10
-31.88599514431424
 20
-5.7586493598090271
 30
0.0
  0
VERTEX
  5
ECA
  8
EBENE_1
 62
     7
 10
-31.88599514431424
 20
-6.0060072157118052
 30
0.0
  0
VERTEX
  5
ECB
  8
EBENE_1
 62
     7
 10
-31.88599514431424
 20
-6.2561211480034711
 30
0.0
  0
VERTEX
  5
ECC
  8
EBENE_1
 62
     7
 10
-31.88599514431424
 20
-6.5069240993923589
 30
0.0
  0
VERTEX
  5
ECD
  8
EBENE_1
 62
     7
 10
-31.88599514431424
 20
-6.7570380316840257
 30
0.0
  0
VERTEX
  5
ECE
  8
EBENE_1
 62
     7
 10
-31.88599514431424
 20
-7.0078409830729163
 30
0.0
  0
VERTEX
  5
ECF
  8
EBENE_1
 62
     7
 10
-31.88599514431424
 20
-7.2579549153645821
 30
0.0
  0
VERTEX
  5
ED0
  8
EBENE_1
 62
     7
 10
-31.88599514431424
 20
-7.5087578667534709
 30
0.0
  0
VERTEX
  5
ED1
  8
EBENE_1
 62
     7
 10
-31.88599514431424
 20
-7.7554267035590252
 30
0.0
  0
VERTEX
  5
ED2
  8
EBENE_1
 62
     7
 10
-31.88599514431424
 20
-8.0062296549479157
 30
0.0
  0
VERTEX
  5
ED3
  8
EBENE_1
 62
     7
 10
-31.88599514431424
 20
-8.2563435872395825
 30
0.0
  0
VERTEX
  5
ED4
  8
EBENE_1
 62
     7
 10
-31.88599514431424
 20
-8.5064575195312493
 30
0.0
  0
VERTEX
  5
ED5
  8
EBENE_1
 62
     7
 10
-31.88599514431424
 20
-8.7572604709201372
 30
0.0
  0
VERTEX
  5
ED6
  8
EBENE_1
 62
     7
 10
-31.88599514431424
 20
-9.0080634223090268
 30
0.0
  0
VERTEX
  5
ED7
  8
EBENE_1
 62
     7
 10
-31.88599514431424
 20
-9.2581773546006918
 30
0.0
  0
VERTEX
  5
ED8
  8
EBENE_1
 62
     7
 10
-31.88599514431424
 20
-9.5089803059895832
 30
0.0
  0
VERTEX
  5
ED9
  8
EBENE_1
 62
     7
 10
-31.88237779405382
 20
-9.7556491427951357
 30
0.0
  0
VERTEX
  5
EDA
  8
EBENE_1
 62
     7
 10
-31.88237779405382
 20
-10.006452094184031
 30
0.0
  0
VERTEX
  5
EDB
  8
EBENE_1
 62
     7
 10
-31.88237779405382
 20
-10.25656602647569
 30
0.0
  0
VERTEX
  5
EDC
  8
EBENE_1
 62
     7
 10
-31.88237779405382
 20
-10.50736897786458
 30
0.0
  0
VERTEX
  5
EDD
  8
EBENE_1
 62
     7
 10
-31.88237779405382
 20
-10.75817192925347
 30
0.0
  0
VERTEX
  5
EDE
  8
EBENE_1
 62
     7
 10
-31.88237779405382
 20
-11.00828586154514
 30
0.0
  0
VERTEX
  5
EDF
  8
EBENE_1
 62
     7
 10
-31.88237779405382
 20
-11.2583997938368
 30
0.0
  0
VERTEX
  5
EE0
  8
EBENE_1
 62
     7
 10
-31.88237779405382
 20
-11.50575764973958
 30
0.0
  0
VERTEX
  5
EE1
  8
EBENE_1
 62
     7
 10
-31.88237779405382
 20
-11.755871582031251
 30
0.0
  0
VERTEX
  5
EE2
  8
EBENE_1
 62
     7
 10
-31.88237779405382
 20
-12.00667453342014
 30
0.0
  0
VERTEX
  5
EE3
  8
EBENE_1
 62
     7
 10
-31.88237779405382
 20
-12.257477484809019
 30
0.0
  0
VERTEX
  5
EE4
  8
EBENE_1
 62
     7
 10
-31.88237779405382
 20
-12.50759141710069
 30
0.0
  0
VERTEX
  5
EE5
  8
EBENE_1
 62
     7
 10
-31.88237779405382
 20
-12.758394368489579
 30
0.0
  0
VERTEX
  5
EE6
  8
EBENE_1
 62
     7
 10
-31.88237779405382
 20
-13.00850830078125
 30
0.0
  0
VERTEX
  5
EE7
  8
EBENE_1
 62
     7
 10
-31.88237779405382
 20
-13.2551771375868
 30
0.0
  0
VERTEX
  5
EE8
  8
EBENE_1
 62
     7
 10
-31.88237779405382
 20
-13.50598008897569
 30
0.0
  0
VERTEX
  5
EE9
  8
EBENE_1
 62
     7
 10
-31.88237779405382
 20
-13.75609402126736
 30
0.0
  0
VERTEX
  5
EEA
  8
EBENE_1
 62
     7
 10
-31.88237779405382
 20
-14.00689697265625
 30
0.0
  0
VERTEX
  5
EEB
  8
EBENE_1
 62
     7
 10
-31.88237779405382
 20
-14.25769992404514
 30
0.0
  0
VERTEX
  5
EEC
  8
EBENE_1
 62
     7
 10
-31.88237779405382
 20
-14.507813856336799
 30
0.0
  0
VERTEX
  5
EED
  8
EBENE_1
 62
     7
 10
-31.88237779405382
 20
-14.758616807725691
 30
0.0
  0
VERTEX
  5
EEE
  8
EBENE_1
 62
     7
 10
-31.88237779405382
 20
-15.008730740017359
 30
0.0
  0
VERTEX
  5
EEF
  8
EBENE_1
 62
     7
 10
-31.88237779405382
 20
-15.25608859592014
 30
0.0
  0
VERTEX
  5
EF0
  8
EBENE_1
 62
     7
 10
-31.88237779405382
 20
-15.5062025282118
 30
0.0
  0
VERTEX
  5
EF1
  8
EBENE_1
 62
     7
 10
-31.88237779405382
 20
-15.75631646050347
 30
0.0
  0
VERTEX
  5
EF2
  8
EBENE_1
 62
     7
 10
-31.88237779405382
 20
-16.007119411892361
 30
0.0
  0
VERTEX
  5
EF3
  8
EBENE_1
 62
     7
 10
-31.88237779405382
 20
-16.257922363281249
 30
0.0
  0
VERTEX
  5
EF4
  8
EBENE_1
 62
     7
 10
-31.88237779405382
 20
-16.508036295572911
 30
0.0
  0
VERTEX
  5
EF5
  8
EBENE_1
 62
     7
 10
-31.88237779405382
 20
-16.758150227864579
 30
0.0
  0
VERTEX
  5
EF6
  8
EBENE_1
 62
     7
 10
-31.88237779405382
 20
-17.00550808376736
 30
0.0
  0
VERTEX
  5
EF7
  8
EBENE_1
 62
     7
 10
-31.88237779405382
 20
-17.256311035156251
 30
0.0
  0
VERTEX
  5
EF8
  8
EBENE_1
 62
     7
 10
-31.88237779405382
 20
-17.506424967447909
 30
0.0
  0
VERTEX
  5
EF9
  8
EBENE_1
 62
     7
 10
-31.88237779405382
 20
-17.757227918836801
 30
0.0
  0
VERTEX
  5
EFA
  8
EBENE_1
 62
     7
 10
-31.88237779405382
 20
-18.007341851128469
 30
0.0
  0
VERTEX
  5
EFB
  8
EBENE_1
 62
     7
 10
-31.88237779405382
 20
-18.014232042100691
 30
0.0
  0
SEQEND
  5
EFC
  8
EBENE_1
 62
     7
  0
POLYLINE
  5
23F
  8
EBENE_1
 62
     7
 66
     1
 10
0.0
 20
0.0
 30
0.0
  0
VERTEX
  5
E54
  8
EBENE_1
 62
     7
 10
-31.88237779405382
 20
-18.014232042100691
 30
0.0
  0
VERTEX
  5
E55
  8
EBENE_1
 62
     7
 10
-31.871870252821171
 20
-18.265034993489571
 30
0.0
  0
VERTEX
  5
E56
  8
EBENE_1
 62
     7
 10
-31.84723782009549
 20
-18.511703830295129
 30
0.0
  0
VERTEX
  5
E57
  8
EBENE_1
 62
     7
 10
-31.80486314561632
 20
-18.758372667100691
 30
0.0
  0
VERTEX
  5
E58
  8
EBENE_1
 62
     7
 10
-31.748363579644089
 20
-19.002285427517361
 30
0.0
  0
VERTEX
  5
E59
  8
EBENE_1
 62
     7
 10
-31.67429402669271
 20
-19.24206407335069
 30
0.0
  0
VERTEX
  5
E5A
  8
EBENE_1
 62
     7
 10
-31.586099582248249
 20
-19.474952528211801
 30
0.0
  0
VERTEX
  5
E5B
  8
EBENE_1
 62
     7
 10
-31.480335150824651
 20
-19.700261773003469
 30
0.0
  0
VERTEX
  5
E5C
  8
EBENE_1
 62
     7
 10
-31.360273573133679
 20
-19.919369845920141
 30
0.0
  0
VERTEX
  5
E5D
  8
EBENE_1
 62
     7
 10
-31.226259358723961
 20
-20.130898708767361
 30
0.0
  0
VERTEX
  5
E5E
  8
EBENE_1
 62
     7
 10
-31.078120252821169
 20
-20.33209228515625
 30
0.0
  0
VERTEX
  5
E5F
  8
EBENE_1
 62
     7
 10
-30.915856255425339
 20
-20.522950575086799
 30
0.0
  0
VERTEX
  5
E60
  8
EBENE_1
 62
     7
 10
-30.74291246202257
 20
-20.702095540364581
 30
0.0
  0
VERTEX
  5
E61
  8
EBENE_1
 62
     7
 10
-30.556016031901041
 20
-20.86814914279514
 30
0.0
  0
VERTEX
  5
E62
  8
EBENE_1
 62
     7
 10
-30.36188490125868
 20
-21.02317843967014
 30
0.0
  0
VERTEX
  5
E63
  8
EBENE_1
 62
     7
 10
-30.15380113389757
 20
-21.168561469184031
 30
0.0
  0
VERTEX
  5
E64
  8
EBENE_1
 62
     7
 10
-29.94210001627604
 20
-21.295340983072919
 30
0.0
  0
VERTEX
  5
E65
  8
EBENE_1
 62
     7
 10
-29.716446261935761
 20
-21.40834011501736
 30
0.0
  0
VERTEX
  5
E66
  8
EBENE_1
 62
     7
 10
-29.487002902560771
 20
-21.503424750434029
 30
0.0
  0
VERTEX
  5
E67
  8
EBENE_1
 62
     7
 10
-29.250669352213539
 20
-21.588174099392361
 30
0.0
  0
VERTEX
  5
E68
  8
EBENE_1
 62
     7
 10
-29.010890706380199
 20
-21.655008951822921
 30
0.0
  0
VERTEX
  5
E69
  8
EBENE_1
 62
     7
 10
-28.767494710286449
 20
-21.70461832682291
 30
0.0
  0
VERTEX
  5
E6A
  8
EBENE_1
 62
     7
 10
-28.51703626844618
 20
-21.73562418619791
 30
0.0
  0
VERTEX
  5
E6B
  8
EBENE_1
 62
     7
 10
-28.270022922092011
 20
-21.75422770182292
 30
0.0
  0
VERTEX
  5
E6C
  8
EBENE_1
 62
     7
 10
-28.139453803168401
 20
-21.757672797309031
 30
0.0
  0
SEQEND
  5
E6D
  8
EBENE_1
 62
     7
  0
POLYLINE
  5
1FA
  8
EBENE_1
 62
     7
 66
     1
 10
0.0
 20
0.0
 30
0.0
  0
VERTEX
  5
E10
  8
EBENE_1
 62
     7
 10
-28.132391357421881
 20
-21.757672797309031
 30
0.0
  0
VERTEX
  5
E11
  8
EBENE_1
 62
     7
 10
-27.885550265842021
 20
-21.757672797309031
 30
0.0
  0
VERTEX
  5
E12
  8
EBENE_1
 62
     7
 10
-27.634919569227431
 20
-21.757672797309031
 30
0.0
  0
VERTEX
  5
E13
  8
EBENE_1
 62
     7
 10
-27.384461127387151
 20
-21.757672797309031
 30
0.0
  0
VERTEX
  5
E14
  8
EBENE_1
 62
     7
 10
-27.134002685546871
 20
-21.757672797309031
 30
0.0
  0
VERTEX
  5
E15
  8
EBENE_1
 62
     7
 10
-26.883544243706599
 20
-21.757672797309031
 30
0.0
  0
VERTEX
  5
E16
  8
EBENE_1
 62
     7
 10
-26.633085801866319
 20
-21.757672797309031
 30
0.0
  0
VERTEX
  5
E17
  8
EBENE_1
 62
     7
 10
-26.382627360026039
 20
-21.757672797309031
 30
0.0
  0
VERTEX
  5
E18
  8
EBENE_1
 62
     7
 10
-26.135786268446171
 20
-21.757672797309031
 30
0.0
  0
VERTEX
  5
E19
  8
EBENE_1
 62
     7
 10
-25.885155571831611
 20
-21.757672797309031
 30
0.0
  0
VERTEX
  5
E1A
  8
EBENE_1
 62
     7
 10
-25.63469712999132
 20
-21.757672797309031
 30
0.0
  0
VERTEX
  5
E1B
  8
EBENE_1
 62
     7
 10
-25.38423868815104
 20
-21.757672797309031
 30
0.0
  0
VERTEX
  5
E1C
  8
EBENE_1
 62
     7
 10
-25.133780246310771
 20
-21.757672797309031
 30
0.0
  0
VERTEX
  5
E1D
  8
EBENE_1
 62
     7
 10
-24.883321804470491
 20
-21.757672797309031
 30
0.0
  0
VERTEX
  5
E1E
  8
EBENE_1
 62
     7
 10
-24.632863362630211
 20
-21.757672797309031
 30
0.0
  0
VERTEX
  5
E1F
  8
EBENE_1
 62
     7
 10
-24.382404920789931
 20
-21.757672797309031
 30
0.0
  0
VERTEX
  5
E20
  8
EBENE_1
 62
     7
 10
-24.135391574435761
 20
-21.757672797309031
 30
0.0
  0
VERTEX
  5
E21
  8
EBENE_1
 62
     7
 10
-23.884933132595481
 20
-21.757672797309031
 30
0.0
  0
VERTEX
  5
E22
  8
EBENE_1
 62
     7
 10
-23.634474690755201
 20
-21.757672797309031
 30
0.0
  0
VERTEX
  5
E23
  8
EBENE_1
 62
     7
 10
-23.384016248914929
 20
-21.757672797309031
 30
0.0
  0
VERTEX
  5
E24
  8
EBENE_1
 62
     7
 10
-23.133557807074649
 20
-21.757672797309031
 30
0.0
  0
VERTEX
  5
E25
  8
EBENE_1
 62
     7
 10
-22.883099365234369
 20
-21.760428873697919
 30
0.0
  0
VERTEX
  5
E26
  8
EBENE_1
 62
     7
 10
-22.632640923394089
 20
-21.760428873697919
 30
0.0
  0
VERTEX
  5
E27
  8
EBENE_1
 62
     7
 10
-22.38562757703993
 20
-21.760428873697919
 30
0.0
  0
VERTEX
  5
E28
  8
EBENE_1
 62
     7
 10
-22.13516913519965
 20
-21.760428873697919
 30
0.0
  0
VERTEX
  5
E29
  8
EBENE_1
 62
     7
 10
-21.88471069335937
 20
-21.760428873697919
 30
0.0
  0
VERTEX
  5
E2A
  8
EBENE_1
 62
     7
 10
-21.63425225151909
 20
-21.760428873697919
 30
0.0
  0
VERTEX
  5
E2B
  8
EBENE_1
 62
     7
 10
-21.383793809678821
 20
-21.760428873697919
 30
0.0
  0
VERTEX
  5
E2C
  8
EBENE_1
 62
     7
 10
-21.133335367838541
 20
-21.760428873697919
 30
0.0
  0
VERTEX
  5
E2D
  8
EBENE_1
 62
     7
 10
-20.882876925998261
 20
-21.760428873697919
 30
0.0
  0
VERTEX
  5
E2E
  8
EBENE_1
 62
     7
 10
-20.632418484157991
 20
-21.760428873697919
 30
0.0
  0
VERTEX
  5
E2F
  8
EBENE_1
 62
     7
 10
-20.385405137803819
 20
-21.760428873697919
 30
0.0
  0
VERTEX
  5
E30
  8
EBENE_1
 62
     7
 10
-20.134946695963539
 20
-21.760428873697919
 30
0.0
  0
VERTEX
  5
E31
  8
EBENE_1
 62
     7
 10
-19.884488254123251
 20
-21.760428873697919
 30
0.0
  0
VERTEX
  5
E32
  8
EBENE_1
 62
     7
 10
-19.634029812282979
 20
-21.760428873697919
 30
0.0
  0
VERTEX
  5
E33
  8
EBENE_1
 62
     7
 10
-19.3833991156684
 20
-21.760428873697919
 30
0.0
  0
VERTEX
  5
E34
  8
EBENE_1
 62
     7
 10
-19.133112928602419
 20
-21.760428873697919
 30
0.0
  0
VERTEX
  5
E35
  8
EBENE_1
 62
     7
 10
-18.882654486762149
 20
-21.760428873697919
 30
0.0
  0
VERTEX
  5
E36
  8
EBENE_1
 62
     7
 10
-18.63564114040798
 20
-21.760428873697919
 30
0.0
  0
VERTEX
  5
E37
  8
EBENE_1
 62
     7
 10
-18.385182698567711
 20
-21.760428873697919
 30
0.0
  0
VERTEX
  5
E38
  8
EBENE_1
 62
     7
 10
-18.134724256727431
 20
-21.760428873697919
 30
0.0
  0
VERTEX
  5
E39
  8
EBENE_1
 62
     7
 10
-17.884265814887151
 20
-21.760428873697919
 30
0.0
  0
VERTEX
  5
E3A
  8
EBENE_1
 62
     7
 10
-17.633807373046871
 20
-21.760428873697919
 30
0.0
  0
VERTEX
  5
E3B
  8
EBENE_1
 62
     7
 10
-17.383348931206591
 20
-21.760428873697919
 30
0.0
  0
VERTEX
  5
E3C
  8
EBENE_1
 62
     7
 10
-17.132718234592009
 20
-21.760428873697919
 30
0.0
  0
VERTEX
  5
E3D
  8
EBENE_1
 62
     7
 10
-16.882259792751729
 20
-21.760428873697919
 30
0.0
  0
VERTEX
  5
E3E
  8
EBENE_1
 62
     7
 10
-16.635418701171869
 20
-21.760428873697919
 30
0.0
  0
VERTEX
  5
E3F
  8
EBENE_1
 62
     7
 10
-16.384960259331589
 20
-21.760428873697919
 30
0.0
  0
VERTEX
  5
E40
  8
EBENE_1
 62
     7
 10
-16.134501817491319
 20
-21.760428873697919
 30
0.0
  0
VERTEX
  5
E41
  8
EBENE_1
 62
     7
 10
-15.884043375651039
 20
-21.760428873697919
 30
0.0
  0
VERTEX
  5
E42
  8
EBENE_1
 62
     7
 10
-15.633412679036461
 20
-21.760428873697919
 30
0.0
  0
VERTEX
  5
E43
  8
EBENE_1
 62
     7
 10
-15.382954237196181
 20
-21.760428873697919
 30
0.0
  0
VERTEX
  5
E44
  8
EBENE_1
 62
     7
 10
-15.132495795355901
 20
-21.760428873697919
 30
0.0
  0
VERTEX
  5
E45
  8
EBENE_1
 62
     7
 10
-14.88548244900173
 20
-21.760428873697919
 30
0.0
  0
VERTEX
  5
E46
  8
EBENE_1
 62
     7
 10
-14.635196261935761
 20
-21.760428873697919
 30
0.0
  0
VERTEX
  5
E47
  8
EBENE_1
 62
     7
 10
-14.384737820095481
 20
-21.760428873697919
 30
0.0
  0
VERTEX
  5
E48
  8
EBENE_1
 62
     7
 10
-14.1341071234809
 20
-21.760428873697919
 30
0.0
  0
VERTEX
  5
E49
  8
EBENE_1
 62
     7
 10
-13.88364868164062
 20
-21.760428873697919
 30
0.0
  0
VERTEX
  5
E4A
  8
EBENE_1
 62
     7
 10
-13.63319023980034
 20
-21.760428873697919
 30
0.0
  0
VERTEX
  5
E4B
  8
EBENE_1
 62
     7
 10
-13.382731797960069
 20
-21.760428873697919
 30
0.0
  0
VERTEX
  5
E4C
  8
EBENE_1
 62
     7
 10
-13.132273356119789
 20
-21.760428873697919
 30
0.0
  0
VERTEX
  5
E4D
  8
EBENE_1
 62
     7
 10
-12.885432264539929
 20
-21.760428873697919
 30
0.0
  0
VERTEX
  5
E4E
  8
EBENE_1
 62
     7
 10
-12.63480156792534
 20
-21.760428873697919
 30
0.0
  0
VERTEX
  5
E4F
  8
EBENE_1
 62
     7
 10
-12.384343126085071
 20
-21.760428873697919
 30
0.0
  0
VERTEX
  5
E50
  8
EBENE_1
 62
     7
 10
-12.133884684244791
 20
-21.760428873697919
 30
0.0
  0
VERTEX
  5
E51
  8
EBENE_1
 62
     7
 10
-11.883426242404511
 20
-21.760428873697919
 30
0.0
  0
VERTEX
  5
E52
  8
EBENE_1
 62
     7
 10
-11.8799811469184
 20
-21.760428873697919
 30
0.0
  0
SEQEND
  5
E53
  8
EBENE_1
 62
     7
  0
LINE
  5
1F9
  8
EBENE_1
 62
     7
 10
-9.3857320149739554
 20
-21.760428873697919
 30
0.0
 11
-9.3857320149739554
 21
-21.746648491753469
 31
0.0
  0
POLYLINE
  5
1AC
  8
EBENE_1
 62
     7
 66
     1
 10
0.0
 20
0.0
 30
0.0
 70
     1
  0
VERTEX
  5
DC4
  8
EBENE_1
 62
     7
 10
-9.2270853678385407
 20
2.0656792534722221
 30
0.0
  0
VERTEX
  5
DC5
  8
EBENE_1
 62
     7
 10
-9.4529113769531232
 20
2.1788506401909711
 30
0.0
  0
VERTEX
  5
DC6
  8
EBENE_1
 62
     7
 10
-9.6821824815538182
 20
2.2670450846354151
 30
0.0
  0
VERTEX
  5
DC7
  8
EBENE_1
 62
     7
 10
-9.9219611273871529
 20
2.3371527777777761
 30
0.0
  0
VERTEX
  5
DC8
  8
EBENE_1
 62
     7
 10
-10.16897447374132
 20
2.390551757812498
 30
0.0
  0
VERTEX
  5
DC9
  8
EBENE_1
 62
     7
 10
-10.415987820095481
 20
2.4186292860243039
 30
0.0
  0
VERTEX
  5
DCA
  8
EBENE_1
 62
     7
 10
-10.666446261935761
 20
2.4255194769965271
 30
0.0
  0
VERTEX
  5
DCB
  8
EBENE_1
 62
     7
 10
-10.91673244900173
 20
2.4112223307291649
 30
0.0
  0
VERTEX
  5
DCC
  8
EBENE_1
 62
     7
 10
-11.163745795355901
 20
2.379527452256943
 30
0.0
  0
VERTEX
  5
DCD
  8
EBENE_1
 62
     7
 10
-11.40714179144965
 20
2.3230278862847209
 30
0.0
  0
VERTEX
  5
DCE
  8
EBENE_1
 62
     7
 10
-11.64347534179687
 20
2.2489583333333321
 30
0.0
  0
VERTEX
  5
DCF
  8
EBENE_1
 62
     7
 10
-11.87636379665798
 20
2.1507731119791651
 30
0.0
  0
VERTEX
  5
DD0
  8
EBENE_1
 62
     7
 10
-12.095127360026041
 20
2.0376017252604162
 30
0.0
  0
VERTEX
  5
DD1
  8
EBENE_1
 62
     7
 10
-12.306828477647571
 20
1.9035875108506941
 30
0.0
  0
VERTEX
  5
DD2
  8
EBENE_1
 62
     7
 10
-12.50784979926215
 20
1.751486545138887
 30
0.0
  0
VERTEX
  5
DD3
  8
EBENE_1
 62
     7
 10
-12.69130113389757
 20
1.5857774522569441
 30
0.0
  0
VERTEX
  5
DD4
  8
EBENE_1
 62
     7
 10
-12.864244927300341
 20
1.4024983723958331
 30
0.0
  0
VERTEX
  5
DD5
  8
EBENE_1
 62
     7
 10
-13.01944647894965
 20
1.2087117513020831
 30
0.0
  0
VERTEX
  5
DD6
  8
EBENE_1
 62
     7
 10
-13.153460693359371
 20
0.99683837890625
 30
0.0
  0
VERTEX
  5
DD7
  8
EBENE_1
 62
     7
 10
-13.273350016276041
 20
0.7782470703125
 30
0.0
  0
VERTEX
  5
DD8
  8
EBENE_1
 62
     7
 10
-13.37566935221354
 20
0.5489759657118057
 30
0.0
  0
VERTEX
  5
DD9
  8
EBENE_1
 62
     7
 10
-13.453356255425341
 20
0.3124701605902778
 30
0.0
  0
VERTEX
  5
DDA
  8
EBENE_1
 62
     7
 10
-13.513300916883679
 20
0.0723470052083333
 30
0.0
  0
VERTEX
  5
DDB
  8
EBENE_1
 62
     7
 10
-13.552058241102429
 20
-0.1746663411458333
 30
0.0
  0
VERTEX
  5
DDC
  8
EBENE_1
 62
     7
 10
-13.573245578342011
 20
-0.4249525282118057
 30
0.0
  0
VERTEX
  5
DDD
  8
EBENE_1
 62
     7
 10
-13.5698004828559
 20
-0.6750664605034722
 30
0.0
  0
VERTEX
  5
DDE
  8
EBENE_1
 62
     7
 10
-13.5449957953559
 20
-0.9224243164062498
 30
0.0
  0
VERTEX
  5
DDF
  8
EBENE_1
 62
     7
 10
-13.49917602539062
 20
-1.1690931532118041
 30
0.0
  0
VERTEX
  5
DE0
  8
EBENE_1
 62
     7
 10
-13.432168918185759
 20
-1.40956081814236
 30
0.0
  0
VERTEX
  5
DE1
  8
EBENE_1
 62
     7
 10
-13.34759182400173
 20
-1.645894368489583
 30
0.0
  0
VERTEX
  5
DE2
  8
EBENE_1
 62
     7
 10
-13.238210042317711
 20
-1.871203613281248
 30
0.0
  0
VERTEX
  5
DE3
  8
EBENE_1
 62
     7
 10
-13.114703369140621
 20
-2.086866590711804
 30
0.0
  0
VERTEX
  5
DE4
  8
EBENE_1
 62
     7
 10
-12.973626708984369
 20
-2.2915052625868042
 30
0.0
  0
VERTEX
  5
DE5
  8
EBENE_1
 62
     7
 10
-12.811190456814231
 20
-2.485119628906248
 30
0.0
  0
VERTEX
  5
DE6
  8
EBENE_1
 62
     7
 10
-12.63841891818576
 20
-2.661508517795137
 30
0.0
  0
VERTEX
  5
DE7
  8
EBENE_1
 62
     7
 10
-12.44790513780382
 20
-2.824117024739583
 30
0.0
  0
VERTEX
  5
DE8
  8
EBENE_1
 62
     7
 10
-12.243266465928819
 20
-2.9688110351562478
 30
0.0
  0
VERTEX
  5
DE9
  8
EBENE_1
 62
     7
 10
-12.02812025282118
 20
-3.095590549045137
 30
0.0
  0
VERTEX
  5
DEA
  8
EBENE_1
 62
     7
 10
-11.805911593967011
 20
-3.2051445855034721
 30
0.0
  0
VERTEX
  5
DEB
  8
EBENE_1
 62
     7
 10
-11.573023139105899
 20
-3.296095106336804
 30
0.0
  0
VERTEX
  5
DEC
  8
EBENE_1
 62
     7
 10
-11.333072238498261
 20
-3.3636189778645811
 30
0.0
  0
VERTEX
  5
DED
  8
EBENE_1
 62
     7
 10
-11.086231146918401
 20
-3.4125393337673602
 30
0.0
  0
VERTEX
  5
DEE
  8
EBENE_1
 62
     7
 10
-10.83921780056423
 20
-3.441478135850693
 30
0.0
  0
VERTEX
  5
DEF
  8
EBENE_1
 62
     7
 10
-10.58875935872396
 20
-3.4483683268229162
 30
0.0
  0
VERTEX
  5
DF0
  8
EBENE_1
 62
     7
 10
-10.33830091688368
 20
-3.4338989257812478
 30
0.0
  0
VERTEX
  5
DF1
  8
EBENE_1
 62
     7
 10
-10.091287570529509
 20
-3.398758951822916
 30
0.0
  0
VERTEX
  5
DF2
  8
EBENE_1
 62
     7
 10
-9.8478915744357636
 20
-3.342259385850693
 30
0.0
  0
VERTEX
  5
DF3
  8
EBENE_1
 62
     7
 10
-9.6115580240885414
 20
-3.2644002278645821
 30
0.0
  0
VERTEX
  5
DF4
  8
EBENE_1
 62
     7
 10
-9.3822869194878464
 20
-3.165870496961805
 30
0.0
  0
VERTEX
  5
DF5
  8
EBENE_1
 62
     7
 10
-9.1600782606336804
 20
-3.05287136501736
 30
0.0
  0
VERTEX
  5
DF6
  8
EBENE_1
 62
     7
 10
-8.9483771430121521
 20
-2.9157565646701382
 30
0.0
  0
VERTEX
  5
DF7
  8
EBENE_1
 62
     7
 10
-8.75080091688368
 20
-2.764172363281248
 30
0.0
  0
VERTEX
  5
DF8
  8
EBENE_1
 62
     7
 10
-8.5673495822482622
 20
-2.598118760850693
 30
0.0
  0
VERTEX
  5
DF9
  8
EBENE_1
 62
     7
 10
-8.3980231391059021
 20
-2.4148396809895831
 30
0.0
  0
VERTEX
  5
DFA
  8
EBENE_1
 62
     7
 10
-8.2428215874565947
 20
-2.2170912000868039
 30
0.0
  0
VERTEX
  5
DFB
  8
EBENE_1
 62
     7
 10
-8.1088073730468722
 20
-2.009007432725693
 30
0.0
  0
VERTEX
  5
DFC
  8
EBENE_1
 62
     7
 10
-7.9887457953559018
 20
-1.7864542643229151
 30
0.0
  0
VERTEX
  5
DFD
  8
EBENE_1
 62
     7
 10
-7.8900438096788168
 20
-1.557699924045137
 30
0.0
  0
VERTEX
  5
DFE
  8
EBENE_1
 62
     7
 10
-7.8123569064670111
 20
-1.320677354600694
 30
0.0
  0
VERTEX
  5
DFF
  8
EBENE_1
 62
     7
 10
-7.7524122450086779
 20
-1.07745361328125
 30
0.0
  0
VERTEX
  5
E00
  8
EBENE_1
 62
     7
 10
-7.7136549207899288
 20
-0.8307847764756942
 30
0.0
  0
VERTEX
  5
E01
  8
EBENE_1
 62
     7
 10
-7.6995300292968727
 20
-0.5834269205729166
 30
0.0
  0
VERTEX
  5
E02
  8
EBENE_1
 62
     7
 10
-7.7029751247829852
 20
-0.33331298828125
 30
0.0
  0
VERTEX
  5
E03
  8
EBENE_1
 62
     7
 10
-7.7277798122829848
 20
-0.0826822916666667
 30
0.0
  0
VERTEX
  5
E04
  8
EBENE_1
 62
     7
 10
-7.7772169325086802
 20
0.1607137044270833
 30
0.0
  0
VERTEX
  5
E05
  8
EBENE_1
 62
     7
 10
-7.8442240397135379
 20
0.4008368598090277
 30
0.0
  0
VERTEX
  5
E06
  8
EBENE_1
 62
     7
 10
-7.932418484157985
 20
0.6369981553819444
 30
0.0
  0
VERTEX
  5
E07
  8
EBENE_1
 62
     7
 10
-8.0381829155815971
 20
0.8628241644965276
 30
0.0
  0
VERTEX
  5
E08
  8
EBENE_1
 62
     7
 10
-8.1651346842447907
 20
1.078142632378472
 30
0.0
  0
VERTEX
  5
E09
  8
EBENE_1
 62
     7
 10
-8.3098286946614568
 20
1.282953559027777
 30
0.0
  0
VERTEX
  5
E0A
  8
EBENE_1
 62
     7
 10
-8.468475341796875
 20
1.473295084635416
 30
0.0
  0
VERTEX
  5
E0B
  8
EBENE_1
 62
     7
 10
-8.6448642306857622
 20
1.649683973524305
 30
0.0
  0
VERTEX
  5
E0C
  8
EBENE_1
 62
     7
 10
-8.8355502658420146
 20
1.812120225694444
 30
0.0
  0
VERTEX
  5
E0D
  8
EBENE_1
 62
     7
 10
-9.0400166829427064
 20
1.956297471788194
 30
0.0
  0
VERTEX
  5
E0E
  8
EBENE_1
 62
     7
 10
-9.2270853678385407
 20
2.0656792534722221
 30
0.0
  0
SEQEND
  5
E0F
  8
EBENE_1
 62
     7
  0
POLYLINE
  5
16E
  8
EBENE_1
 62
     7
 66
     1
 10
0.0
 20
0.0
 30
0.0
 70
     1
  0
VERTEX
  5
D87
  8
EBENE_1
 62
     7
 10
-9.5268086751302086
 20
-2.5416191948784701
 30
0.0
  0
VERTEX
  5
D88
  8
EBENE_1
 62
     7
 10
-9.3152798122829861
 20
-2.4113945855034711
 30
0.0
  0
VERTEX
  5
D89
  8
EBENE_1
 62
     7
 10
-9.1177035861545122
 20
-2.25567626953125
 30
0.0
  0
VERTEX
  5
D8A
  8
EBENE_1
 62
     7
 10
-8.9378696017795125
 20
-2.0827324761284709
 30
0.0
  0
VERTEX
  5
D8B
  8
EBENE_1
 62
     7
 10
-8.7790506998697904
 20
-1.8891181098090271
 30
0.0
  0
VERTEX
  5
D8C
  8
EBENE_1
 62
     7
 10
-8.6414191351996514
 20
-1.6810343424479151
 30
0.0
  0
VERTEX
  5
D8D
  8
EBENE_1
 62
     7
 10
-8.5249749077690922
 20
-1.458481174045138
 30
0.0
  0
VERTEX
  5
D8E
  8
EBENE_1
 62
     7
 10
-8.4367804633246521
 20
-1.225592719184027
 30
0.0
  0
VERTEX
  5
D8F
  8
EBENE_1
 62
     7
 10
-8.3733907063802082
 20
-0.9858140733506942
 30
0.0
  0
VERTEX
  5
D90
  8
EBENE_1
 62
     7
 10
-8.3344611273871525
 20
-0.7391452365451389
 30
0.0
  0
VERTEX
  5
D91
  8
EBENE_1
 62
     7
 10
-8.3239535861545129
 20
-0.48834228515625
 30
0.0
  0
VERTEX
  5
D92
  8
EBENE_1
 62
     7
 10
-8.3380784776475672
 20
-0.2416734483506944
 30
0.0
  0
VERTEX
  5
D93
  8
EBENE_1
 62
     7
 10
-8.3802808973524296
 20
0.0055121527777778
 30
0.0
  0
VERTEX
  5
D94
  8
EBENE_1
 62
     7
 10
-8.4509053548177082
 20
0.2452907986111111
 30
0.0
  0
VERTEX
  5
D95
  8
EBENE_1
 62
     7
 10
-8.5427171495225682
 20
0.4749064127604166
 30
0.0
  0
VERTEX
  5
D96
  8
EBENE_1
 62
     7
 10
-8.6626064724392329
 20
0.6971150716145833
 30
0.0
  0
VERTEX
  5
D97
  8
EBENE_1
 62
     7
 10
-8.8036831325954861
 20
0.9015814887152776
 30
0.0
  0
VERTEX
  5
D98
  8
EBENE_1
 62
     7
 10
-8.9659471299913172
 20
1.0924397786458331
 30
0.0
  0
VERTEX
  5
D99
  8
EBENE_1
 62
     7
 10
-9.1493984646267368
 20
1.2614217122395821
 30
0.0
  0
VERTEX
  5
D9A
  8
EBENE_1
 62
     7
 10
-9.3504197862413161
 20
1.40956081814236
 30
0.0
  0
VERTEX
  5
D9B
  8
EBENE_1
 62
     7
 10
-9.5657382541232625
 20
1.536512586805554
 30
0.0
  0
VERTEX
  5
D9C
  8
EBENE_1
 62
     7
 10
-9.7913920084635393
 20
1.6422770182291651
 30
0.0
  0
VERTEX
  5
D9D
  8
EBENE_1
 62
     7
 10
-10.027897813585071
 20
1.7197916666666651
 30
0.0
  0
VERTEX
  5
D9E
  8
EBENE_1
 62
     7
 10
-10.27129380967882
 20
1.773018391927083
 30
0.0
  0
VERTEX
  5
D9F
  8
EBENE_1
 62
     7
 10
-10.52175225151908
 20
1.7978230794270831
 30
0.0
  0
VERTEX
  5
DA0
  8
EBENE_1
 62
     7
 10
-10.77221069335936
 20
1.7978230794270831
 30
0.0
  0
VERTEX
  5
DA1
  8
EBENE_1
 62
     7
 10
-11.01922403971354
 20
1.769401041666665
 30
0.0
  0
VERTEX
  5
DA2
  8
EBENE_1
 62
     7
 10
-11.26262003580729
 20
1.713073730468748
 30
0.0
  0
VERTEX
  5
DA3
  8
EBENE_1
 62
     7
 10
-11.49895358615451
 20
1.6353868272569441
 30
0.0
  0
VERTEX
  5
DA4
  8
EBENE_1
 62
     7
 10
-11.724779595269091
 20
1.5292778862847221
 30
0.0
  0
VERTEX
  5
DA5
  8
EBENE_1
 62
     7
 10
-11.93992580837673
 20
1.3988810221354151
 30
0.0
  0
VERTEX
  5
DA6
  8
EBENE_1
 62
     7
 10
-12.1375020345052
 20
1.2471245659722221
 30
0.0
  0
VERTEX
  5
DA7
  8
EBENE_1
 62
     7
 10
-12.3173360188802
 20
1.0741807725694441
 30
0.0
  0
VERTEX
  5
DA8
  8
EBENE_1
 62
     7
 10
-12.47960001627604
 20
0.8836669921874998
 30
0.0
  0
VERTEX
  5
DA9
  8
EBENE_1
 62
     7
 10
-12.61723158094618
 20
0.6795450846354166
 30
0.0
  0
VERTEX
  5
DAA
  8
EBENE_1
 62
     7
 10
-12.733675808376731
 20
0.456991916232639
 30
0.0
  0
VERTEX
  5
DAB
  8
EBENE_1
 62
     7
 10
-12.8289326985677
 20
0.2246202256944444
 30
0.0
  0
VERTEX
  5
DAC
  8
EBENE_1
 62
     7
 10
-12.892494710286449
 20
-0.0155029296875
 30
0.0
  0
VERTEX
  5
DAD
  8
EBENE_1
 62
     7
 10
-12.934697129991321
 20
-0.2626885308159722
 30
0.0
  0
VERTEX
  5
DAE
  8
EBENE_1
 62
     7
 10
-12.94882202148437
 20
-0.509701877170139
 30
0.0
  0
VERTEX
  5
DAF
  8
EBENE_1
 62
     7
 10
-12.934697129991321
 20
-0.7598158094618057
 30
0.0
  0
VERTEX
  5
DB0
  8
EBENE_1
 62
     7
 10
-12.895939805772571
 20
-1.00648464626736
 30
0.0
  0
VERTEX
  5
DB1
  8
EBENE_1
 62
     7
 10
-12.8289326985677
 20
-1.2469523111979151
 30
0.0
  0
VERTEX
  5
DB2
  8
EBENE_1
 62
     7
 10
-12.73712090386285
 20
-1.479840766059026
 30
0.0
  0
VERTEX
  5
DB3
  8
EBENE_1
 62
     7
 10
-12.6208489312066
 20
-1.6982598198784711
 30
0.0
  0
VERTEX
  5
DB4
  8
EBENE_1
 62
     7
 10
-12.47960001627604
 20
-1.9063435872395831
 30
0.0
  0
VERTEX
  5
DB5
  8
EBENE_1
 62
     7
 10
-12.3173360188802
 20
-2.0972018771701371
 30
0.0
  0
VERTEX
  5
DB6
  8
EBENE_1
 62
     7
 10
-12.1375020345052
 20
-2.2701456705729162
 30
0.0
  0
VERTEX
  5
DB7
  8
EBENE_1
 62
     7
 10
-11.93992580837673
 20
-2.421040852864583
 30
0.0
  0
VERTEX
  5
DB8
  8
EBENE_1
 62
     7
 10
-11.724779595269091
 20
-2.551954481336804
 30
0.0
  0
VERTEX
  5
DB9
  8
EBENE_1
 62
     7
 10
-11.49895358615451
 20
-2.6580634223090271
 30
0.0
  0
VERTEX
  5
DBA
  8
EBENE_1
 62
     7
 10
-11.26262003580729
 20
-2.7352335611979162
 30
0.0
  0
VERTEX
  5
DBB
  8
EBENE_1
 62
     7
 10
-11.01922403971354
 20
-2.7917331271701382
 30
0.0
  0
VERTEX
  5
DBC
  8
EBENE_1
 62
     7
 10
-10.77221069335936
 20
-2.820671929253471
 30
0.0
  0
VERTEX
  5
DBD
  8
EBENE_1
 62
     7
 10
-10.52175225151908
 20
-2.820671929253471
 30
0.0
  0
VERTEX
  5
DBE
  8
EBENE_1
 62
     7
 10
-10.274738905164931
 20
-2.79586724175347
 30
0.0
  0
VERTEX
  5
DBF
  8
EBENE_1
 62
     7
 10
-10.03134290907118
 20
-2.742123752170138
 30
0.0
  0
VERTEX
  5
DC0
  8
EBENE_1
 62
     7
 10
-9.7913920084635393
 20
-2.664953613281249
 30
0.0
  0
VERTEX
  5
DC1
  8
EBENE_1
 62
     7
 10
-9.5657382541232625
 20
-2.562978786892359
 30
0.0
  0
VERTEX
  5
DC2
  8
EBENE_1
 62
     7
 10
-9.5268086751302086
 20
-2.5416191948784701
 30
0.0
  0
SEQEND
  5
DC3
  8
EBENE_1
 62
     7
  0
POLYLINE
  5
146
  8
EBENE_1
 62
     7
 66
     1
 10
0.0
 20
0.0
 30
0.0
  0
VERTEX
  5
D60
  8
EBENE_1
 62
     7
 10
-12.04224514431422
 20
2.0656792534722221
 30
0.0
  0
VERTEX
  5
D61
  8
EBENE_1
 62
     7
 10
-12.25739135742187
 20
1.9387274848090259
 30
0.0
  0
VERTEX
  5
D62
  8
EBENE_1
 62
     7
 10
-12.458412679036449
 20
1.790588378906248
 30
0.0
  0
VERTEX
  5
D63
  8
EBENE_1
 62
     7
 10
-12.6489264594184
 20
1.6281521267361101
 30
0.0
  0
VERTEX
  5
D64
  8
EBENE_1
 62
     7
 10
-12.82187025282118
 20
1.4484903971354151
 30
0.0
  0
VERTEX
  5
D65
  8
EBENE_1
 62
     7
 10
-12.9806891547309
 20
1.2543592664930541
 30
0.0
  0
VERTEX
  5
D66
  8
EBENE_1
 62
     7
 10
-13.12521091037326
 20
1.049720594618055
 30
0.0
  0
VERTEX
  5
D67
  8
EBENE_1
 62
     7
 10
-13.24871758355034
 20
0.8344021267361108
 30
0.0
  0
VERTEX
  5
D68
  8
EBENE_1
 62
     7
 10
-13.351036919487839
 20
0.6051310221354166
 30
0.0
  0
VERTEX
  5
D69
  8
EBENE_1
 62
     7
 10
-13.435786268446179
 20
0.3724148220486111
 30
0.0
  0
VERTEX
  5
D6A
  8
EBENE_1
 62
     7
 10
-13.50279337565104
 20
0.1290188259548611
 30
0.0
  0
VERTEX
  5
D6B
  8
EBENE_1
 62
     7
 10
-13.5449957953559
 20
-0.1142049153645833
 30
0.0
  0
VERTEX
  5
D6C
  8
EBENE_1
 62
     7
 10
-13.5698004828559
 20
-0.3650078667534722
 30
0.0
  0
VERTEX
  5
D6D
  8
EBENE_1
 62
     7
 10
-13.5698004828559
 20
-0.6158108181423611
 30
0.0
  0
VERTEX
  5
D6E
  8
EBENE_1
 62
     7
 10
-13.552058241102429
 20
-0.8624796549479166
 30
0.0
  0
VERTEX
  5
D6F
  8
EBENE_1
 62
     7
 10
-13.50985582139757
 20
-1.1091484917534711
 30
0.0
  0
VERTEX
  5
D70
  8
EBENE_1
 62
     7
 10
-13.44973890516493
 20
-1.3530612521701371
 30
0.0
  0
VERTEX
  5
D71
  8
EBENE_1
 62
     7
 10
-13.36860690646701
 20
-1.5893948025173601
 30
0.0
  0
VERTEX
  5
D72
  8
EBENE_1
 62
     7
 10
-13.26628757052951
 20
-1.8147040473090259
 30
0.0
  0
VERTEX
  5
D73
  8
EBENE_1
 62
     7
 10
-13.14639824761284
 20
-2.033812120225694
 30
0.0
  0
VERTEX
  5
D74
  8
EBENE_1
 62
     7
 10
-13.008766682942699
 20
-2.241895887586804
 30
0.0
  0
VERTEX
  5
D75
  8
EBENE_1
 62
     7
 10
-12.853565131293401
 20
-2.4396443684895832
 30
0.0
  0
VERTEX
  5
D76
  8
EBENE_1
 62
     7
 10
-12.680621337890621
 20
-2.61878933376736
 30
0.0
  0
VERTEX
  5
D77
  8
EBENE_1
 62
     7
 10
-12.49372490776909
 20
-2.784842936197915
 30
0.0
  0
VERTEX
  5
D78
  8
EBENE_1
 62
     7
 10
-12.29614868164062
 20
-2.9364271375868038
 30
0.0
  0
VERTEX
  5
D79
  8
EBENE_1
 62
     7
 10
-12.081002468532979
 20
-3.0673407660590271
 30
0.0
  0
VERTEX
  5
D7A
  8
EBENE_1
 62
     7
 10
-11.85879380967882
 20
-3.1803398980034721
 30
0.0
  0
VERTEX
  5
D7B
  8
EBENE_1
 62
     7
 10
-11.62935045030382
 20
-3.275424533420138
 30
0.0
  0
VERTEX
  5
D7C
  8
EBENE_1
 62
     7
 10
-11.38957180447048
 20
-3.3498385959201382
 30
0.0
  0
VERTEX
  5
D7D
  8
EBENE_1
 62
     7
 10
-11.14617580837673
 20
-3.4022040473090271
 30
0.0
  0
VERTEX
  5
D7E
  8
EBENE_1
 62
     7
 10
-10.89916246202257
 20
-3.4373440212673589
 30
0.0
  0
VERTEX
  5
D7F
  8
EBENE_1
 62
     7
 10
-10.64870402018229
 20
-3.4483683268229162
 30
0.0
  0
VERTEX
  5
D80
  8
EBENE_1
 62
     7
 10
-10.40186292860243
 20
-3.441478135850693
 30
0.0
  0
VERTEX
  5
D81
  8
EBENE_1
 62
     7
 10
-10.15140448676215
 20
-3.4097832573784701
 30
0.0
  0
VERTEX
  5
D82
  8
EBENE_1
 62
     7
 10
-9.9080084906684007
 20
-3.3567287868923601
 30
0.0
  0
VERTEX
  5
D83
  8
EBENE_1
 62
     7
 10
-9.6680575900607622
 20
-3.2857598198784701
 30
0.0
  0
VERTEX
  5
D84
  8
EBENE_1
 62
     7
 10
-9.4351691351996507
 20
-3.1941202799479149
 30
0.0
  0
VERTEX
  5
D85
  8
EBENE_1
 62
     7
 10
-9.2270853678385407
 20
-3.088700358072916
 30
0.0
  0
SEQEND
  5
D86
  8
EBENE_1
 62
     7
  0
POLYLINE
  5
140
  8
EBENE_1
 62
     7
 66
     1
 10
0.0
 20
0.0
 30
0.0
 70
     1
  0
VERTEX
  5
D5B
  8
EBENE_1
 62
     7
 10
-35.174855550130211
 20
18.271408420138879
 30
0.0
  0
VERTEX
  5
D5C
  8
EBENE_1
 62
     7
 10
-35.387073432074651
 20
19.787767198350679
 30
0.0
  0
VERTEX
  5
D5D
  8
EBENE_1
 62
     7
 10
-35.599463568793396
 20
18.271408420138879
 30
0.0
  0
VERTEX
  5
D5E
  8
EBENE_1
 62
     7
 10
-35.174855550130211
 20
18.271408420138879
 30
0.0
  0
SEQEND
  5
D5F
  8
EBENE_1
 62
     7
  0
POLYLINE
  5
13A
  8
EBENE_1
 62
     7
 66
     1
 10
0.0
 20
0.0
 30
0.0
 70
     1
  0
VERTEX
  5
D56
  8
EBENE_1
 62
     7
 10
-35.599463568793396
 20
-19.126308865017361
 30
0.0
  0
VERTEX
  5
D57
  8
EBENE_1
 62
     7
 10
-35.387073432074651
 20
-20.64215087890625
 30
0.0
  0
VERTEX
  5
D58
  8
EBENE_1
 62
     7
 10
-35.174855550130211
 20
-19.126308865017361
 30
0.0
  0
VERTEX
  5
D59
  8
EBENE_1
 62
     7
 10
-35.599463568793396
 20
-19.126308865017361
 30
0.0
  0
SEQEND
  5
D5A
  8
EBENE_1
 62
     7
  0
LINE
  5
139
  8
EBENE_1
 62
     7
 10
-30.885539415147569
 20
-21.676368543836809
 30
0.0
 11
-37.387295871310748
 21
-21.676368543836809
 31
0.0
  0
LINE
  5
138
  8
EBENE_1
 62
     7
 10
-30.885539415147569
 20
20.815783691406249
 30
0.0
 11
-37.387295871310748
 21
20.815783691406249
 31
0.0
  0
LINE
  5
137
  8
EBENE_1
 62
     7
 10
-35.386901177300331
 20
-19.510092502170131
 30
0.0
 11
-35.386901177300331
 21
11.163142903645831
 31
0.0
  0
LINE
  5
136
  8
EBENE_1
 62
     7
 10
-35.386901177300331
 20
9.8474609374999993
 30
0.0
 11
-35.386901177300331
 21
18.649507649739569
 31
0.0
  0
POLYLINE
  5
130
  8
EBENE_1
 62
     7
 66
     1
 10
0.0
 20
0.0
 30
0.0
 70
     1
  0
VERTEX
  5
D51
  8
EBENE_1
 62
     7
 10
-15.83563978407118
 20
25.764146592881939
 30
0.0
  0
VERTEX
  5
D52
  8
EBENE_1
 62
     7
 10
-14.321864827473959
 20
25.97636447482639
 30
0.0
  0
VERTEX
  5
D53
  8
EBENE_1
 62
     7
 10
-15.83563978407118
 20
26.189099121093751
 30
0.0
  0
VERTEX
  5
D54
  8
EBENE_1
 62
     7
 10
-15.83563978407118
 20
25.764146592881939
 30
0.0
  0
SEQEND
  5
D55
  8
EBENE_1
 62
     7
  0
POLYLINE
  5
12A
  8
EBENE_1
 62
     7
 66
     1
 10
0.0
 20
0.0
 30
0.0
 70
     1
  0
VERTEX
  5
D4C
  8
EBENE_1
 62
     7
 10
-5.4974249945746507
 20
26.189099121093751
 30
0.0
  0
VERTEX
  5
D4D
  8
EBENE_1
 62
     7
 10
-7.0111999511718732
 20
25.97636447482639
 30
0.0
  0
VERTEX
  5
D4E
  8
EBENE_1
 62
     7
 10
-5.4974249945746507
 20
25.764146592881939
 30
0.0
  0
VERTEX
  5
D4F
  8
EBENE_1
 62
     7
 10
-5.4974249945746507
 20
26.189099121093751
 30
0.0
  0
SEQEND
  5
D50
  8
EBENE_1
 62
     7
  0
LINE
  5
129
  8
EBENE_1
 62
     7
 10
-8.042144775390625
 20
1.922880045572916
 30
0.0
 11
-8.042144775390625
 21
27.976931423611109
 31
0.0
  0
LINE
  5
128
  8
EBENE_1
 62
     7
 10
-13.295054117838539
 20
1.846398925781249
 30
0.0
 11
-13.295054117838539
 21
27.976931423611109
 31
0.0
  0
LINE
  5
127
  8
EBENE_1
 62
     7
 10
12.330599636501731
 20
25.976708984375001
 30
0.0
 11
-5.879658338758678
 21
25.976708984375001
 31
0.0
  0
LINE
  5
126
  8
EBENE_1
 62
     7
 10
-8.042144775390625
 20
25.976708984375001
 30
0.0
 11
-13.295054117838539
 21
25.976708984375001
 31
0.0
  0
LINE
  5
125
  8
EBENE_1
 62
     7
 10
-15.45754055447048
 20
25.976708984375001
 30
0.0
 11
-18.209138319227431
 21
25.976708984375001
 31
0.0
  0
LINE
  5
124
  8
EBENE_1
 62
     7
 10
34.327534315321181
 20
-0.3360690646701388
 30
0.0
 11
34.337869601779524
 21
-0.3360690646701388
 31
0.0
  0
POLYLINE
  5
11E
  8
EBENE_1
 62
     7
 66
     1
 10
0.0
 20
0.0
 30
0.0
 70
     1
  0
VERTEX
  5
D47
  8
EBENE_1
 62
     7
 10
31.769895426432289
 20
26.118646918402781
 30
0.0
  0
VERTEX
  5
D48
  8
EBENE_1
 62
     7
 10
33.286426459418387
 20
25.90660129123264
 30
0.0
  0
VERTEX
  5
D49
  8
EBENE_1
 62
     7
 10
31.769895426432289
 20
25.694383409288189
 30
0.0
  0
VERTEX
  5
D4A
  8
EBENE_1
 62
     7
 10
31.769895426432289
 20
26.118646918402781
 30
0.0
  0
SEQEND
  5
D4B
  8
EBENE_1
 62
     7
  0
POLYLINE
  5
118
  8
EBENE_1
 62
     7
 66
     1
 10
0.0
 20
0.0
 30
0.0
 70
     1
  0
VERTEX
  5
D42
  8
EBENE_1
 62
     7
 10
40.299951850043399
 20
25.694383409288189
 30
0.0
  0
VERTEX
  5
D43
  8
EBENE_1
 62
     7
 10
38.786176893446182
 20
25.90660129123264
 30
0.0
  0
VERTEX
  5
D44
  8
EBENE_1
 62
     7
 10
40.299951850043399
 20
26.118646918402781
 30
0.0
  0
VERTEX
  5
D45
  8
EBENE_1
 62
     7
 10
40.299951850043399
 20
25.694383409288189
 30
0.0
  0
SEQEND
  5
D46
  8
EBENE_1
 62
     7
  0
LINE
  5
117
  8
EBENE_1
 62
     7
 10
37.832574462890619
 20
17.669550238715281
 30
0.0
 11
37.832574462890619
 21
27.910785590277779
 31
0.0
  0
LINE
  5
116
  8
EBENE_1
 62
     7
 10
34.392991129557288
 20
20.06492513020833
 30
0.0
 11
34.392991129557288
 21
27.910785590277779
 31
0.0
  0
LINE
  5
115
  8
EBENE_1
 62
     7
 10
42.831408013237841
 20
25.910563151041671
 30
0.0
 11
39.995405409071189
 21
25.910563151041671
 31
0.0
  0
LINE
  5
114
  8
EBENE_1
 62
     7
 10
37.832574462890619
 20
25.910563151041671
 30
0.0
 11
34.392991129557288
 21
25.910563151041671
 31
0.0
  0
LINE
  5
113
  8
EBENE_1
 62
     7
 10
32.227404106987841
 20
25.910563151041671
 30
0.0
 11
22.682422553168401
 21
25.910563151041671
 31
0.0
  0
LINE
  5
112
  8
EBENE_1
 62
     7
 10
37.756093343098946
 20
17.168805609809031
 30
0.0
 11
37.756093343098946
 21
20.911901855468741
 31
0.0
  0
LINE
  5
111
  8
EBENE_1
 62
     7
 10
37.756093343098946
 20
-17.837154134114581
 30
0.0
 11
37.756093343098946
 21
17.168805609809031
 31
0.0
  0
LINE
  5
110
  8
EBENE_1
 62
     7
 10
37.756093343098946
 20
-21.58059488932291
 30
0.0
 11
37.756093343098946
 21
-17.837154134114581
 31
0.0
  0
LINE
  5
10F
  8
EBENE_1
 62
     7
 10
35.015175374348964
 20
20.767035590277779
 30
0.0
 11
34.926980929904524
 21
20.767035590277779
 31
0.0
  0
LINE
  5
10E
  8
EBENE_1
 62
     7
 10
37.756093343098946
 20
20.911901855468741
 30
0.0
 11
35.015175374348964
 21
20.767035590277779
 31
0.0
  0
LINE
  5
10D
  8
EBENE_1
 62
     7
 10
35.015175374348964
 20
-21.435900878906249
 30
0.0
 11
34.926980929904524
 21
-21.435900878906249
 31
0.0
  0
LINE
  5
10C
  8
EBENE_1
 62
     7
 10
37.756093343098946
 20
-21.58059488932291
 30
0.0
 11
35.015175374348964
 21
-21.435900878906249
 31
0.0
  0
LINE
  5
10B
  8
EBENE_1
 62
     7
 10
34.334424506293388
 20
-8.9653442382812472
 30
0.0
 11
34.330979410807288
 21
-8.9653442382812472
 31
0.0
  0
LINE
  5
10A
  8
EBENE_1
 62
     7
 10
34.334424506293388
 20
8.2966512044270821
 30
0.0
 11
34.330979410807288
 21
8.2966512044270821
 31
0.0
  0
POLYLINE
  5
105
  8
EBENE_1
 62
     7
 66
     1
 10
0.0
 20
0.0
 30
0.0
  0
VERTEX
  5
D3E
  8
EBENE_1
 62
     7
 10
34.926980929904524
 20
-21.435900878906249
 30
0.0
  0
VERTEX
  5
D3F
  8
EBENE_1
 62
     7
 10
34.732677544487842
 20
-21.326346842447911
 30
0.0
  0
VERTEX
  5
D40
  8
EBENE_1
 62
     7
 10
34.690647379557291
 20
-21.19612223307292
 30
0.0
  0
SEQEND
  5
D41
  8
EBENE_1
 62
     7
  0
POLYLINE
  5
100
  8
EBENE_1
 62
     7
 66
     1
 10
0.0
 20
0.0
 30
0.0
  0
VERTEX
  5
D3A
  8
EBENE_1
 62
     7
 10
34.690647379557291
 20
20.527256944444439
 30
0.0
  0
VERTEX
  5
D3B
  8
EBENE_1
 62
     7
 10
34.800201416015632
 20
20.724833170572921
 30
0.0
  0
VERTEX
  5
D3C
  8
EBENE_1
 62
     7
 10
34.926980929904524
 20
20.767035590277779
 30
0.0
  0
SEQEND
  5
D3D
  8
EBENE_1
 62
     7
  0
LINE
  5
FF
  8
EBENE_1
 62
     7
 10
34.239339870876741
 20
2.6764946831597221
 30
0.0
 11
34.239339870876741
 21
-2.9784573025173602
 31
0.0
  0
LINE
  5
FE
  8
EBENE_1
 62
     7
 10
34.239339870876741
 20
-2.9784573025173602
 30
0.0
 11
34.239339870876741
 21
2.6764946831597221
 31
0.0
  0
LINE
  5
FD
  8
EBENE_1
 62
     7
 10
34.239339870876741
 20
2.6764946831597221
 30
0.0
 11
34.239339870876741
 21
2.309764268663193
 31
0.0
  0
LINE
  5
FC
  8
EBENE_1
 62
     7
 10
34.239339870876741
 20
-2.9784573025173602
 30
0.0
 11
34.239339870876741
 21
-3.3491495768229149
 31
0.0
  0
LINE
  5
FB
  8
EBENE_1
 62
     7
 10
34.295839436848958
 20
-6.4497355143229163
 30
0.0
 11
34.253120252821176
 21
-6.3863457573784723
 31
0.0
  0
LINE
  5
FA
  8
EBENE_1
 62
     7
 10
34.253120252821176
 20
5.7176527235243029
 30
0.0
 11
34.295839436848958
 21
5.7810424804687477
 31
0.0
  0
POLYLINE
  5
79
  8
EBENE_1
 62
     7
 66
     1
 10
0.0
 20
0.0
 30
0.0
  0
VERTEX
  5
CBA
  8
EBENE_1
 62
     7
 10
34.690647379557291
 20
-21.19612223307292
 30
0.0
  0
VERTEX
  5
CBB
  8
EBENE_1
 62
     7
 10
34.680312093098948
 20
-20.945319281684021
 30
0.0
  0
VERTEX
  5
CBC
  8
EBENE_1
 62
     7
 10
34.669287787543396
 20
-20.698650444878481
 30
0.0
  0
VERTEX
  5
CBD
  8
EBENE_1
 62
     7
 10
34.658952501085082
 20
-20.447847493489569
 30
0.0
  0
VERTEX
  5
CBE
  8
EBENE_1
 62
     7
 10
34.648617214626739
 20
-20.197044542100691
 30
0.0
  0
VERTEX
  5
CBF
  8
EBENE_1
 62
     7
 10
34.641038004557288
 20
-19.946930609809009
 30
0.0
  0
VERTEX
  5
CC0
  8
EBENE_1
 62
     7
 10
34.630702718098959
 20
-19.696816677517361
 30
0.0
  0
VERTEX
  5
CC1
  8
EBENE_1
 62
     7
 10
34.620367431640631
 20
-19.449458821614581
 30
0.0
  0
VERTEX
  5
CC2
  8
EBENE_1
 62
     7
 10
34.609343126085072
 20
-19.199344889322902
 30
0.0
  0
VERTEX
  5
CC3
  8
EBENE_1
 62
     7
 10
34.602452935112851
 20
-18.948541937934021
 30
0.0
  0
VERTEX
  5
CC4
  8
EBENE_1
 62
     7
 10
34.592117648654522
 20
-18.698428005642359
 30
0.0
  0
VERTEX
  5
CC5
  8
EBENE_1
 62
     7
 10
34.581093343098964
 20
-18.447625054253471
 30
0.0
  0
VERTEX
  5
CC6
  8
EBENE_1
 62
     7
 10
34.574203152126749
 20
-18.20095621744791
 30
0.0
  0
VERTEX
  5
CC7
  8
EBENE_1
 62
     7
 10
34.563867865668399
 20
-17.950153266059019
 30
0.0
  0
VERTEX
  5
CC8
  8
EBENE_1
 62
     7
 10
34.556288655598969
 20
-17.699350314670141
 30
0.0
  0
VERTEX
  5
CC9
  8
EBENE_1
 62
     7
 10
34.545953369140612
 20
-17.449236382378459
 30
0.0
  0
VERTEX
  5
CCA
  8
EBENE_1
 62
     7
 10
34.539063178168398
 20
-17.199122450086801
 30
0.0
  0
VERTEX
  5
CCB
  8
EBENE_1
 62
     7
 10
34.532172987196176
 20
-16.948319498697909
 30
0.0
  0
VERTEX
  5
CCC
  8
EBENE_1
 62
     7
 10
34.521148681640632
 20
-16.701650661892359
 30
0.0
  0
VERTEX
  5
CCD
  8
EBENE_1
 62
     7
 10
34.514258490668396
 20
-16.450847710503471
 30
0.0
  0
VERTEX
  5
CCE
  8
EBENE_1
 62
     7
 10
34.507368299696168
 20
-16.200733778211799
 30
0.0
  0
VERTEX
  5
CCF
  8
EBENE_1
 62
     7
 10
34.500478108723946
 20
-15.949930826822911
 30
0.0
  0
VERTEX
  5
CD0
  8
EBENE_1
 62
     7
 10
34.489453803168388
 20
-15.699127875434019
 30
0.0
  0
VERTEX
  5
CD1
  8
EBENE_1
 62
     7
 10
34.482563612196181
 20
-15.44901394314236
 30
0.0
  0
VERTEX
  5
CD2
  8
EBENE_1
 62
     7
 10
34.475673421223959
 20
-15.2023451063368
 30
0.0
  0
VERTEX
  5
CD3
  8
EBENE_1
 62
     7
 10
34.468094211154522
 20
-14.95154215494791
 30
0.0
  0
VERTEX
  5
CD4
  8
EBENE_1
 62
     7
 10
34.461204020182286
 20
-14.701428222656251
 30
0.0
  0
VERTEX
  5
CD5
  8
EBENE_1
 62
     7
 10
34.454313829210072
 20
-14.450625271267359
 30
0.0
  0
VERTEX
  5
CD6
  8
EBENE_1
 62
     7
 10
34.447423638237851
 20
-14.200511338975691
 30
0.0
  0
VERTEX
  5
CD7
  8
EBENE_1
 62
     7
 10
34.440533447265622
 20
-13.949708387586799
 30
0.0
  0
VERTEX
  5
CD8
  8
EBENE_1
 62
     7
 10
34.432954237196171
 20
-13.70303955078125
 30
0.0
  0
VERTEX
  5
CD9
  8
EBENE_1
 62
     7
 10
34.426064046223964
 20
-13.452236599392361
 30
0.0
  0
VERTEX
  5
CDA
  8
EBENE_1
 62
     7
 10
34.419173855251749
 20
-13.20143364800346
 30
0.0
  0
VERTEX
  5
CDB
  8
EBENE_1
 62
     7
 10
34.415728759765621
 20
-12.951319715711801
 30
0.0
  0
VERTEX
  5
CDC
  8
EBENE_1
 62
     7
 10
34.408149549696176
 20
-12.70120578342013
 30
0.0
  0
VERTEX
  5
CDD
  8
EBENE_1
 62
     7
 10
34.401259358723969
 20
-12.45040283203125
 30
0.0
  0
VERTEX
  5
CDE
  8
EBENE_1
 62
     7
 10
34.394369167751741
 20
-12.20373399522569
 30
0.0
  0
VERTEX
  5
CDF
  8
EBENE_1
 62
     7
 10
34.390924072265612
 20
-11.9529310438368
 30
0.0
  0
VERTEX
  5
CE0
  8
EBENE_1
 62
     7
 10
34.384033881293398
 20
-11.702817111545141
 30
0.0
  0
VERTEX
  5
CE1
  8
EBENE_1
 62
     7
 10
34.376454671223961
 20
-11.45201416015624
 30
0.0
  0
VERTEX
  5
CE2
  8
EBENE_1
 62
     7
 10
34.373009575737861
 20
-11.20121120876736
 30
0.0
  0
VERTEX
  5
CE3
  8
EBENE_1
 62
     7
 10
34.366119384765632
 20
-10.95109727647568
 30
0.0
  0
VERTEX
  5
CE4
  8
EBENE_1
 62
     7
 10
34.362674289279511
 20
-10.700983344184021
 30
0.0
  0
VERTEX
  5
CE5
  8
EBENE_1
 62
     7
 10
34.355784098307289
 20
-10.453625488281251
 30
0.0
  0
VERTEX
  5
CE6
  8
EBENE_1
 62
     7
 10
34.352339002821168
 20
-10.20351155598958
 30
0.0
  0
VERTEX
  5
CE7
  8
EBENE_1
 62
     7
 10
34.348204888237852
 20
-9.9527086046006943
 30
0.0
  0
VERTEX
  5
CE8
  8
EBENE_1
 62
     7
 10
34.341314697265616
 20
-9.7025946723090275
 30
0.0
  0
VERTEX
  5
CE9
  8
EBENE_1
 62
     7
 10
34.337869601779524
 20
-9.4517917209201379
 30
0.0
  0
VERTEX
  5
CEA
  8
EBENE_1
 62
     7
 10
34.334424506293388
 20
-9.20512288411458
 30
0.0
  0
VERTEX
  5
CEB
  8
EBENE_1
 62
     7
 10
34.253120252821176
 20
-6.3863457573784723
 30
0.0
  0
VERTEX
  5
CEC
  8
EBENE_1
 62
     7
 10
34.253120252821176
 20
-6.1355428059895809
 30
0.0
  0
VERTEX
  5
CED
  8
EBENE_1
 62
     7
 10
34.249675157335069
 20
-5.8847398546006922
 30
0.0
  0
VERTEX
  5
CEE
  8
EBENE_1
 62
     7
 10
34.249675157335069
 20
-5.6346259223090271
 30
0.0
  0
VERTEX
  5
CEF
  8
EBENE_1
 62
     7
 10
34.249675157335069
 20
-5.3845119900173604
 30
0.0
  0
VERTEX
  5
CF0
  8
EBENE_1
 62
     7
 10
34.246230061848969
 20
-5.1337090386284707
 30
0.0
  0
VERTEX
  5
CF1
  8
EBENE_1
 62
     7
 10
34.246230061848969
 20
-4.883595106336803
 30
0.0
  0
VERTEX
  5
CF2
  8
EBENE_1
 62
     7
 10
34.246230061848969
 20
-4.6362372504340259
 30
0.0
  0
VERTEX
  5
CF3
  8
EBENE_1
 62
     7
 10
34.242784966362841
 20
-4.38612331814236
 30
0.0
  0
VERTEX
  5
CF4
  8
EBENE_1
 62
     7
 10
34.242784966362841
 20
-4.1353203667534721
 30
0.0
  0
VERTEX
  5
CF5
  8
EBENE_1
 62
     7
 10
34.242784966362841
 20
-3.8845174153645821
 30
0.0
  0
VERTEX
  5
CF6
  8
EBENE_1
 62
     7
 10
34.242784966362841
 20
-3.6344034830729162
 30
0.0
  0
VERTEX
  5
CF7
  8
EBENE_1
 62
     7
 10
34.239339870876741
 20
-3.384289550781248
 30
0.0
  0
VERTEX
  5
CF8
  8
EBENE_1
 62
     7
 10
34.239339870876741
 20
-3.3491495768229149
 30
0.0
  0
VERTEX
  5
CF9
  8
EBENE_1
 62
     7
 10
34.239339870876741
 20
2.309764268663193
 30
0.0
  0
VERTEX
  5
CFA
  8
EBENE_1
 62
     7
 10
34.239339870876741
 20
2.6764946831597221
 30
0.0
  0
VERTEX
  5
CFB
  8
EBENE_1
 62
     7
 10
34.242784966362841
 20
2.926953124999998
 30
0.0
  0
VERTEX
  5
CFC
  8
EBENE_1
 62
     7
 10
34.242784966362841
 20
3.1775838216145811
 30
0.0
  0
VERTEX
  5
CFD
  8
EBENE_1
 62
     7
 10
34.242784966362841
 20
3.4280422634548602
 30
0.0
  0
VERTEX
  5
CFE
  8
EBENE_1
 62
     7
 10
34.242784966362841
 20
3.6783284505208318
 30
0.0
  0
VERTEX
  5
CFF
  8
EBENE_1
 62
     7
 10
34.246230061848969
 20
3.9289591471354162
 30
0.0
  0
VERTEX
  5
D00
  8
EBENE_1
 62
     7
 10
34.246230061848969
 20
4.1797620985243054
 30
0.0
  0
VERTEX
  5
D01
  8
EBENE_1
 62
     7
 10
34.246230061848969
 20
4.4300482855902761
 30
0.0
  0
VERTEX
  5
D02
  8
EBENE_1
 62
     7
 10
34.249675157335069
 20
4.676717122395833
 30
0.0
  0
VERTEX
  5
D03
  8
EBENE_1
 62
     7
 10
34.249675157335069
 20
4.9271755642361104
 30
0.0
  0
VERTEX
  5
D04
  8
EBENE_1
 62
     7
 10
34.249675157335069
 20
5.1778062608506943
 30
0.0
  0
VERTEX
  5
D05
  8
EBENE_1
 62
     7
 10
34.253120252821176
 20
5.4282647026909698
 30
0.0
  0
VERTEX
  5
D06
  8
EBENE_1
 62
     7
 10
34.253120252821176
 20
5.6788953993055529
 30
0.0
  0
VERTEX
  5
D07
  8
EBENE_1
 62
     7
 10
34.253120252821176
 20
5.7176527235243029
 30
0.0
  0
VERTEX
  5
D08
  8
EBENE_1
 62
     7
 10
34.334424506293388
 20
8.536429850260415
 30
0.0
  0
VERTEX
  5
D09
  8
EBENE_1
 62
     7
 10
34.337869601779524
 20
8.7867160373263875
 30
0.0
  0
VERTEX
  5
D0A
  8
EBENE_1
 62
     7
 10
34.341314697265616
 20
9.0339016384548607
 30
0.0
  0
VERTEX
  5
D0B
  8
EBENE_1
 62
     7
 10
34.348204888237852
 20
9.2841878255208314
 30
0.0
  0
VERTEX
  5
D0C
  8
EBENE_1
 62
     7
 10
34.352339002821168
 20
9.5348185221354154
 30
0.0
  0
VERTEX
  5
D0D
  8
EBENE_1
 62
     7
 10
34.355784098307289
 20
9.7852769639756936
 30
0.0
  0
VERTEX
  5
D0E
  8
EBENE_1
 62
     7
 10
34.362674289279511
 20
10.035563151041661
 30
0.0
  0
VERTEX
  5
D0F
  8
EBENE_1
 62
     7
 10
34.366119384765632
 20
10.286021592881941
 30
0.0
  0
VERTEX
  5
D10
  8
EBENE_1
 62
     7
 10
34.373009575737861
 20
10.536652289496519
 30
0.0
  0
VERTEX
  5
D11
  8
EBENE_1
 62
     7
 10
34.376454671223961
 20
10.78366563585069
 30
0.0
  0
VERTEX
  5
D12
  8
EBENE_1
 62
     7
 10
34.384033881293398
 20
11.03412407769097
 30
0.0
  0
VERTEX
  5
D13
  8
EBENE_1
 62
     7
 10
34.390924072265612
 20
11.284410264756939
 30
0.0
  0
VERTEX
  5
D14
  8
EBENE_1
 62
     7
 10
34.394369167751741
 20
11.535213216145831
 30
0.0
  0
VERTEX
  5
D15
  8
EBENE_1
 62
     7
 10
34.401259358723969
 20
11.7854994032118
 30
0.0
  0
VERTEX
  5
D16
  8
EBENE_1
 62
     7
 10
34.408149549696176
 20
12.035785590277779
 30
0.0
  0
VERTEX
  5
D17
  8
EBENE_1
 62
     7
 10
34.415728759765621
 20
12.282971191406251
 30
0.0
  0
VERTEX
  5
D18
  8
EBENE_1
 62
     7
 10
34.419173855251749
 20
12.53325737847222
 30
0.0
  0
VERTEX
  5
D19
  8
EBENE_1
 62
     7
 10
34.426064046223964
 20
12.784060329861109
 30
0.0
  0
VERTEX
  5
D1A
  8
EBENE_1
 62
     7
 10
34.432954237196171
 20
13.03434651692708
 30
0.0
  0
VERTEX
  5
D1B
  8
EBENE_1
 62
     7
 10
34.440533447265622
 20
13.284632703993051
 30
0.0
  0
VERTEX
  5
D1C
  8
EBENE_1
 62
     7
 10
34.447423638237851
 20
13.535091145833331
 30
0.0
  0
VERTEX
  5
D1D
  8
EBENE_1
 62
     7
 10
34.454313829210072
 20
13.785721842447909
 30
0.0
  0
VERTEX
  5
D1E
  8
EBENE_1
 62
     7
 10
34.461204020182286
 20
14.03273518880208
 30
0.0
  0
VERTEX
  5
D1F
  8
EBENE_1
 62
     7
 10
34.468094211154522
 20
14.28319363064236
 30
0.0
  0
VERTEX
  5
D20
  8
EBENE_1
 62
     7
 10
34.475673421223959
 20
14.533479817708329
 30
0.0
  0
VERTEX
  5
D21
  8
EBENE_1
 62
     7
 10
34.482563612196181
 20
14.783938259548609
 30
0.0
  0
VERTEX
  5
D22
  8
EBENE_1
 62
     7
 10
34.489453803168388
 20
15.03456895616319
 30
0.0
  0
VERTEX
  5
D23
  8
EBENE_1
 62
     7
 10
34.500478108723946
 20
15.28485514322916
 30
0.0
  0
VERTEX
  5
D24
  8
EBENE_1
 62
     7
 10
34.507368299696168
 20
15.532040744357641
 30
0.0
  0
VERTEX
  5
D25
  8
EBENE_1
 62
     7
 10
34.514258490668396
 20
15.78232693142361
 30
0.0
  0
VERTEX
  5
D26
  8
EBENE_1
 62
     7
 10
34.521148681640632
 20
16.033129882812499
 30
0.0
  0
VERTEX
  5
D27
  8
EBENE_1
 62
     7
 10
34.532172987196176
 20
16.28341606987847
 30
0.0
  0
VERTEX
  5
D28
  8
EBENE_1
 62
     7
 10
34.539063178168398
 20
16.533702256944441
 30
0.0
  0
VERTEX
  5
D29
  8
EBENE_1
 62
     7
 10
34.549398464626741
 20
16.780887858072909
 30
0.0
  0
VERTEX
  5
D2A
  8
EBENE_1
 62
     7
 10
34.556288655598969
 20
17.031174045138879
 30
0.0
  0
VERTEX
  5
D2B
  8
EBENE_1
 62
     7
 10
34.563867865668399
 20
17.281976996527781
 30
0.0
  0
VERTEX
  5
D2C
  8
EBENE_1
 62
     7
 10
34.574203152126749
 20
17.532263183593749
 30
0.0
  0
VERTEX
  5
D2D
  8
EBENE_1
 62
     7
 10
34.585227457682301
 20
17.782549370659719
 30
0.0
  0
VERTEX
  5
D2E
  8
EBENE_1
 62
     7
 10
34.592117648654522
 20
18.033007812499999
 30
0.0
  0
VERTEX
  5
D2F
  8
EBENE_1
 62
     7
 10
34.602452935112851
 20
18.280021158854161
 30
0.0
  0
VERTEX
  5
D30
  8
EBENE_1
 62
     7
 10
34.609343126085072
 20
18.53065185546874
 30
0.0
  0
VERTEX
  5
D31
  8
EBENE_1
 62
     7
 10
34.620367431640631
 20
18.78111029730902
 30
0.0
  0
VERTEX
  5
D32
  8
EBENE_1
 62
     7
 10
34.630702718098959
 20
19.031396484375001
 30
0.0
  0
VERTEX
  5
D33
  8
EBENE_1
 62
     7
 10
34.641038004557288
 20
19.281854926215271
 30
0.0
  0
VERTEX
  5
D34
  8
EBENE_1
 62
     7
 10
34.648617214626739
 20
19.52886827256944
 30
0.0
  0
VERTEX
  5
D35
  8
EBENE_1
 62
     7
 10
34.658952501085082
 20
19.779498969184012
 30
0.0
  0
VERTEX
  5
D36
  8
EBENE_1
 62
     7
 10
34.669287787543396
 20
20.029957411024292
 30
0.0
  0
VERTEX
  5
D37
  8
EBENE_1
 62
     7
 10
34.680312093098948
 20
20.28024359809028
 30
0.0
  0
VERTEX
  5
D38
  8
EBENE_1
 62
     7
 10
34.690647379557291
 20
20.527256944444439
 30
0.0
  0
SEQEND
  5
D39
  8
EBENE_1
 62
     7
  0
POLYLINE
  5
6F
  8
EBENE_1
 62
     7
 66
     1
 10
0.0
 20
0.0
 30
0.0
  0
VERTEX
  5
CB1
  8
EBENE_1
 62
     7
 10
5.6422912597656243
 20
30.98553331163194
 30
0.0
  0
VERTEX
  5
CB2
  8
EBENE_1
 62
     7
 10
6.328554280598957
 20
32.001491970486121
 30
0.0
  0
VERTEX
  5
CB3
  8
EBENE_1
 62
     7
 10
7.2676873101128461
 20
32.001491970486121
 30
0.0
  0
VERTEX
  5
CB4
  8
EBENE_1
 62
     7
 10
7.7251959906684009
 20
31.315745713975691
 30
0.0
  0
VERTEX
  5
CB5
  8
EBENE_1
 62
     7
 10
7.7251959906684009
 20
29.96957465277778
 30
0.0
  0
VERTEX
  5
CB6
  8
EBENE_1
 62
     7
 10
5.6422912597656243
 20
28.267697482638891
 30
0.0
  0
VERTEX
  5
CB7
  8
EBENE_1
 62
     7
 10
5.6422912597656243
 20
26.921526421440969
 30
0.0
  0
VERTEX
  5
CB8
  8
EBENE_1
 62
     7
 10
7.7251959906684009
 20
26.921526421440969
 30
0.0
  0
SEQEND
  5
CB9
  8
EBENE_1
 62
     7
  0
LINE
  5
6E
  8
EBENE_1
 62
     7
 10
0.0838019476996528
 20
26.921526421440969
 30
0.0
 11
1.0995883517795131
 21
32.001491970486121
 31
0.0
  0
POLYLINE
  5
66A
  8
EBENE_1
 62
     7
 66
     1
 10
0.0
 20
0.0
 30
0.0
 70
     8
  0
VERTEX
  5
66B
  8
EBENE_1
 62
     7
 10
2.4459299999999988
 20
29.461600000000001
 30
0.0
 70
    32
  0
VERTEX
  5
66C
  8
EBENE_1
 62
     7
 10
2.4456899999999999
 20
29.491299999999999
 30
0.0
 70
    32
  0
VERTEX
  5
66D
  8
EBENE_1
 62
     7
 10
2.4449700000000001
 20
29.520900000000001
 30
0.0
 70
    32
  0
VERTEX
  5
66E
  8
EBENE_1
 62
     7
 10
2.4437700000000002
 20
29.5504
 30
0.0
 70
    32
  0
VERTEX
  5
66F
  8
EBENE_1
 62
     7
 10
2.442099999999999
 20
29.579799999999999
 30
0.0
 70
    32
  0
VERTEX
  5
670
  8
EBENE_1
 62
     7
 10
2.4399599999999988
 20
29.609000000000002
 30
0.0
 70
    32
  0
VERTEX
  5
671
  8
EBENE_1
 62
     7
 10
2.4373599999999991
 20
29.638200000000001
 30
0.0
 70
    32
  0
VERTEX
  5
672
  8
EBENE_1
 62
     7
 10
2.434299999999999
 20
29.667200000000001
 30
0.0
 70
    32
  0
VERTEX
  5
673
  8
EBENE_1
 62
     7
 10
2.4307799999999991
 20
29.696100000000001
 30
0.0
 70
    32
  0
VERTEX
  5
674
  8
EBENE_1
 62
     7
 10
2.4268000000000001
 20
29.724900000000002
 30
0.0
 70
    32
  0
VERTEX
  5
675
  8
EBENE_1
 62
     7
 10
2.4223799999999991
 20
29.753499999999999
 30
0.0
 70
    32
  0
VERTEX
  5
676
  8
EBENE_1
 62
     7
 10
2.41751
 20
29.782
 30
0.0
 70
    32
  0
VERTEX
  5
677
  8
EBENE_1
 62
     7
 10
2.412199999999999
 20
29.810400000000001
 30
0.0
 70
    32
  0
VERTEX
  5
678
  8
EBENE_1
 62
     7
 10
2.4064499999999991
 20
29.8386
 30
0.0
 70
    32
  0
VERTEX
  5
679
  8
EBENE_1
 62
     7
 10
2.4002599999999989
 20
29.866700000000002
 30
0.0
 70
    32
  0
VERTEX
  5
67A
  8
EBENE_1
 62
     7
 10
2.3936399999999991
 20
29.894600000000001
 30
0.0
 70
    32
  0
VERTEX
  5
67B
  8
EBENE_1
 62
     7
 10
2.3866000000000001
 20
29.9223
 30
0.0
 70
    32
  0
VERTEX
  5
67C
  8
EBENE_1
 62
     7
 10
2.37914
 20
29.9499
 30
0.0
 70
    32
  0
VERTEX
  5
67D
  8
EBENE_1
 62
     7
 10
2.371249999999999
 20
29.977399999999999
 30
0.0
 70
    32
  0
VERTEX
  5
67E
  8
EBENE_1
 62
     7
 10
2.3629500000000001
 20
30.0047
 30
0.0
 70
    32
  0
VERTEX
  5
67F
  8
EBENE_1
 62
     7
 10
2.3542399999999999
 20
30.0318
 30
0.0
 70
    32
  0
VERTEX
  5
680
  8
EBENE_1
 62
     7
 10
2.3451200000000001
 20
30.058700000000002
 30
0.0
 70
    32
  0
VERTEX
  5
681
  8
EBENE_1
 62
     7
 10
2.3355899999999998
 20
30.0854
 30
0.0
 70
    32
  0
VERTEX
  5
682
  8
EBENE_1
 62
     7
 10
2.3256700000000001
 20
30.111999999999998
 30
0.0
 70
    32
  0
VERTEX
  5
683
  8
EBENE_1
 62
     7
 10
2.3153399999999991
 20
30.138400000000001
 30
0.0
 70
    32
  0
VERTEX
  5
684
  8
EBENE_1
 62
     7
 10
2.3046299999999991
 20
30.1646
 30
0.0
 70
    32
  0
VERTEX
  5
685
  8
EBENE_1
 62
     7
 10
2.29352
 20
30.1906
 30
0.0
 70
    32
  0
VERTEX
  5
686
  8
EBENE_1
 62
     7
 10
2.2820299999999989
 20
30.2164
 30
0.0
 70
    32
  0
VERTEX
  5
687
  8
EBENE_1
 62
     7
 10
2.2701599999999988
 20
30.242000000000001
 30
0.0
 70
    32
  0
VERTEX
  5
688
  8
EBENE_1
 62
     7
 10
2.257909999999999
 20
30.267399999999999
 30
0.0
 70
    32
  0
VERTEX
  5
689
  8
EBENE_1
 62
     7
 10
2.2452899999999998
 20
30.2926
 30
0.0
 70
    32
  0
VERTEX
  5
68A
  8
EBENE_1
 62
     7
 10
2.2322899999999999
 20
30.317499999999999
 30
0.0
 70
    32
  0
VERTEX
  5
68B
  8
EBENE_1
 62
     7
 10
2.218929999999999
 20
30.342300000000002
 30
0.0
 70
    32
  0
VERTEX
  5
68C
  8
EBENE_1
 62
     7
 10
2.2052099999999988
 20
30.366800000000001
 30
0.0
 70
    32
  0
VERTEX
  5
68D
  8
EBENE_1
 62
     7
 10
2.1911299999999989
 20
30.391200000000001
 30
0.0
 70
    32
  0
VERTEX
  5
68E
  8
EBENE_1
 62
     7
 10
2.1766899999999998
 20
30.415199999999999
 30
0.0
 70
    32
  0
VERTEX
  5
68F
  8
EBENE_1
 62
     7
 10
2.1619000000000002
 20
30.4391
 30
0.0
 70
    32
  0
VERTEX
  5
690
  8
EBENE_1
 62
     7
 10
2.1467700000000001
 20
30.462700000000002
 30
0.0
 70
    32
  0
VERTEX
  5
691
  8
EBENE_1
 62
     7
 10
2.1312899999999999
 20
30.4861
 30
0.0
 70
    32
  0
VERTEX
  5
692
  8
EBENE_1
 62
     7
 10
2.1154700000000002
 20
30.5093
 30
0.0
 70
    32
  0
VERTEX
  5
693
  8
EBENE_1
 62
     7
 10
2.09931
 20
30.5322
 30
0.0
 70
    32
  0
VERTEX
  5
694
  8
EBENE_1
 62
     7
 10
2.082819999999999
 20
30.5548
 30
0.0
 70
    32
  0
VERTEX
  5
695
  8
EBENE_1
 62
     7
 10
2.066009999999999
 20
30.577200000000001
 30
0.0
 70
    32
  0
VERTEX
  5
696
  8
EBENE_1
 62
     7
 10
2.048859999999999
 20
30.599399999999999
 30
0.0
 70
    32
  0
VERTEX
  5
697
  8
EBENE_1
 62
     7
 10
2.0314000000000001
 20
30.621200000000002
 30
0.0
 70
    32
  0
VERTEX
  5
698
  8
EBENE_1
 62
     7
 10
2.0136199999999991
 20
30.642800000000001
 30
0.0
 70
    32
  0
VERTEX
  5
699
  8
EBENE_1
 62
     7
 10
1.99553
 20
30.664200000000001
 30
0.0
 70
    32
  0
VERTEX
  5
69A
  8
EBENE_1
 62
     7
 10
1.97712
 20
30.685300000000002
 30
0.0
 70
    32
  0
VERTEX
  5
69B
  8
EBENE_1
 62
     7
 10
1.9584099999999991
 20
30.706099999999999
 30
0.0
 70
    32
  0
VERTEX
  5
69C
  8
EBENE_1
 62
     7
 10
1.9394
 20
30.726600000000001
 30
0.0
 70
    32
  0
VERTEX
  5
69D
  8
EBENE_1
 62
     7
 10
1.9200900000000001
 20
30.7468
 30
0.0
 70
    32
  0
VERTEX
  5
69E
  8
EBENE_1
 62
     7
 10
1.9004799999999991
 20
30.7668
 30
0.0
 70
    32
  0
VERTEX
  5
69F
  8
EBENE_1
 62
     7
 10
1.88059
 20
30.7864
 30
0.0
 70
    32
  0
VERTEX
  5
6A0
  8
EBENE_1
 62
     7
 10
1.8604000000000001
 20
30.805800000000001
 30
0.0
 70
    32
  0
VERTEX
  5
6A1
  8
EBENE_1
 62
     7
 10
1.8399399999999999
 20
30.8249
 30
0.0
 70
    32
  0
VERTEX
  5
6A2
  8
EBENE_1
 62
     7
 10
1.8191900000000001
 20
30.843599999999999
 30
0.0
 70
    32
  0
VERTEX
  5
6A3
  8
EBENE_1
 62
     7
 10
1.79817
 20
30.862100000000002
 30
0.0
 70
    32
  0
VERTEX
  5
6A4
  8
EBENE_1
 62
     7
 10
1.7768699999999999
 20
30.880199999999999
 30
0.0
 70
    32
  0
VERTEX
  5
6A5
  8
EBENE_1
 62
     7
 10
1.755309999999999
 20
30.898099999999999
 30
0.0
 70
    32
  0
VERTEX
  5
6A6
  8
EBENE_1
 62
     7
 10
1.733479999999999
 20
30.915600000000001
 30
0.0
 70
    32
  0
VERTEX
  5
6A7
  8
EBENE_1
 62
     7
 10
1.7114
 20
30.9328
 30
0.0
 70
    32
  0
VERTEX
  5
6A8
  8
EBENE_1
 62
     7
 10
1.6890499999999991
 20
30.9497
 30
0.0
 70
    32
  0
VERTEX
  5
6A9
  8
EBENE_1
 62
     7
 10
1.66645
 20
30.966200000000001
 30
0.0
 70
    32
  0
VERTEX
  5
6AA
  8
EBENE_1
 62
     7
 10
1.6436099999999989
 20
30.982399999999998
 30
0.0
 70
    32
  0
VERTEX
  5
6AB
  8
EBENE_1
 62
     7
 10
1.62052
 20
30.9983
 30
0.0
 70
    32
  0
VERTEX
  5
6AC
  8
EBENE_1
 62
     7
 10
1.5971799999999989
 20
31.0138
 30
0.0
 70
    32
  0
VERTEX
  5
6AD
  8
EBENE_1
 62
     7
 10
1.5736099999999991
 20
31.029
 30
0.0
 70
    32
  0
VERTEX
  5
6AE
  8
EBENE_1
 62
     7
 10
1.5498000000000001
 20
31.043900000000001
 30
0.0
 70
    32
  0
VERTEX
  5
6AF
  8
EBENE_1
 62
     7
 10
1.5257700000000001
 20
31.058399999999999
 30
0.0
 70
    32
  0
VERTEX
  5
6B0
  8
EBENE_1
 62
     7
 10
1.5015000000000001
 20
31.072500000000002
 30
0.0
 70
    32
  0
VERTEX
  5
6B1
  8
EBENE_1
 62
     7
 10
1.4770199999999989
 20
31.086300000000001
 30
0.0
 70
    32
  0
VERTEX
  5
6B2
  8
EBENE_1
 62
     7
 10
1.4523099999999991
 20
31.099699999999999
 30
0.0
 70
    32
  0
VERTEX
  5
6B3
  8
EBENE_1
 62
     7
 10
1.427389999999999
 20
31.1128
 30
0.0
 70
    32
  0
VERTEX
  5
6B4
  8
EBENE_1
 62
     7
 10
1.4022600000000001
 20
31.125499999999999
 30
0.0
 70
    32
  0
VERTEX
  5
6B5
  8
EBENE_1
 62
     7
 10
1.3769199999999999
 20
31.137799999999999
 30
0.0
 70
    32
  0
VERTEX
  5
6B6
  8
EBENE_1
 62
     7
 10
1.35137
 20
31.149699999999999
 30
0.0
 70
    32
  0
VERTEX
  5
6B7
  8
EBENE_1
 62
     7
 10
1.325629999999999
 20
31.161300000000001
 30
0.0
 70
    32
  0
VERTEX
  5
6B8
  8
EBENE_1
 62
     7
 10
1.29969
 20
31.1724
 30
0.0
 70
    32
  0
VERTEX
  5
6B9
  8
EBENE_1
 62
     7
 10
1.27356
 20
31.183199999999999
 30
0.0
 70
    32
  0
VERTEX
  5
6BA
  8
EBENE_1
 62
     7
 10
1.247239999999999
 20
31.1936
 30
0.0
 70
    32
  0
VERTEX
  5
6BB
  8
EBENE_1
 62
     7
 10
1.220729999999999
 20
31.203600000000002
 30
0.0
 70
    32
  0
VERTEX
  5
6BC
  8
EBENE_1
 62
     7
 10
1.1940399999999991
 20
31.213200000000001
 30
0.0
 70
    32
  0
VERTEX
  5
6BD
  8
EBENE_1
 62
     7
 10
1.16717
 20
31.2224
 30
0.0
 70
    32
  0
VERTEX
  5
6BE
  8
EBENE_1
 62
     7
 10
1.140139999999999
 20
31.231200000000001
 30
0.0
 70
    32
  0
VERTEX
  5
6BF
  8
EBENE_1
 62
     7
 10
1.1129299999999991
 20
31.2395
 30
0.0
 70
    32
  0
VERTEX
  5
6C0
  8
EBENE_1
 62
     7
 10
1.08555
 20
31.247499999999999
 30
0.0
 70
    32
  0
VERTEX
  5
6C1
  8
EBENE_1
 62
     7
 10
1.0580099999999999
 20
31.254999999999999
 30
0.0
 70
    32
  0
VERTEX
  5
6C2
  8
EBENE_1
 62
     7
 10
1.0303199999999999
 20
31.2622
 30
0.0
 70
    32
  0
VERTEX
  5
6C3
  8
EBENE_1
 62
     7
 10
1.0024599999999999
 20
31.268899999999999
 30
0.0
 70
    32
  0
VERTEX
  5
6C4
  8
EBENE_1
 62
     7
 10
0.9744620000000001
 20
31.275099999999998
 30
0.0
 70
    32
  0
VERTEX
  5
6C5
  8
EBENE_1
 62
     7
 10
0.9463129999999999
 20
31.280899999999999
 30
0.0
 70
    32
  0
VERTEX
  5
6C6
  8
EBENE_1
 62
     7
 10
0.9180200000000001
 20
31.286300000000001
 30
0.0
 70
    32
  0
VERTEX
  5
6C7
  8
EBENE_1
 62
     7
 10
0.8895870000000002
 20
31.2913
 30
0.0
 70
    32
  0
VERTEX
  5
6C8
  8
EBENE_1
 62
     7
 10
0.861018
 20
31.2958
 30
0.0
 70
    32
  0
VERTEX
  5
6C9
  8
EBENE_1
 62
     7
 10
0.8323169999999999
 20
31.299900000000001
 30
0.0
 70
    32
  0
VERTEX
  5
6CA
  8
EBENE_1
 62
     7
 10
0.8034879999999999
 20
31.3035
 30
0.0
 70
    32
  0
VERTEX
  5
6CB
  8
EBENE_1
 62
     7
 10
0.7745340000000001
 20
31.3066
 30
0.0
 70
    32
  0
VERTEX
  5
6CC
  8
EBENE_1
 62
     7
 10
0.7454600000000001
 20
31.3093
 30
0.0
 70
    32
  0
VERTEX
  5
6CD
  8
EBENE_1
 62
     7
 10
0.716268
 20
31.311499999999999
 30
0.0
 70
    32
  0
VERTEX
  5
6CE
  8
EBENE_1
 62
     7
 10
0.686963
 20
31.313300000000002
 30
0.0
 70
    32
  0
VERTEX
  5
6CF
  8
EBENE_1
 62
     7
 10
0.6575490000000001
 20
31.314599999999999
 30
0.0
 70
    32
  0
VERTEX
  5
6D0
  8
EBENE_1
 62
     7
 10
0.628029
 20
31.3154
 30
0.0
 70
    32
  0
VERTEX
  5
6D1
  8
EBENE_1
 62
     7
 10
0.598407
 20
31.3157
 30
0.0
 70
    32
  0
VERTEX
  5
6D2
  8
EBENE_1
 62
     7
 10
0.568648
 20
31.3156
 30
0.0
 70
    32
  0
VERTEX
  5
6D3
  8
EBENE_1
 62
     7
 10
0.5389520000000001
 20
31.315000000000001
 30
0.0
 70
    32
  0
VERTEX
  5
6D4
  8
EBENE_1
 62
     7
 10
0.50935
 20
31.3139
 30
0.0
 70
    32
  0
VERTEX
  5
6D5
  8
EBENE_1
 62
     7
 10
0.4798460000000001
 20
31.3123
 30
0.0
 70
    32
  0
VERTEX
  5
6D6
  8
EBENE_1
 62
     7
 10
0.450444
 20
31.310300000000002
 30
0.0
 70
    32
  0
VERTEX
  5
6D7
  8
EBENE_1
 62
     7
 10
0.421148
 20
31.3079
 30
0.0
 70
    32
  0
VERTEX
  5
6D8
  8
EBENE_1
 62
     7
 10
0.391961
 20
31.3049
 30
0.0
 70
    32
  0
VERTEX
  5
6D9
  8
EBENE_1
 62
     7
 10
0.362889
 20
31.301600000000001
 30
0.0
 70
    32
  0
VERTEX
  5
6DA
  8
EBENE_1
 62
     7
 10
0.333935
 20
31.297699999999999
 30
0.0
 70
    32
  0
VERTEX
  5
6DB
  8
EBENE_1
 62
     7
 10
0.305104
 20
31.293500000000002
 30
0.0
 70
    32
  0
VERTEX
  5
6DC
  8
EBENE_1
 62
     7
 10
0.276398
 20
31.288699999999999
 30
0.0
 70
    32
  0
VERTEX
  5
6DD
  8
EBENE_1
 62
     7
 10
0.247822
 20
31.2836
 30
0.0
 70
    32
  0
VERTEX
  5
6DE
  8
EBENE_1
 62
     7
 10
0.21938
 20
31.277999999999999
 30
0.0
 70
    32
  0
VERTEX
  5
6DF
  8
EBENE_1
 62
     7
 10
0.191077
 20
31.271999999999998
 30
0.0
 70
    32
  0
VERTEX
  5
6E0
  8
EBENE_1
 62
     7
 10
0.162916
 20
31.265499999999999
 30
0.0
 70
    32
  0
VERTEX
  5
6E1
  8
EBENE_1
 62
     7
 10
0.1349
 20
31.258700000000001
 30
0.0
 70
    32
  0
VERTEX
  5
6E2
  8
EBENE_1
 62
     7
 10
0.107035
 20
31.2514
 30
0.0
 70
    32
  0
VERTEX
  5
6E3
  8
EBENE_1
 62
     7
 10
0.0793242
 20
31.2437
 30
0.0
 70
    32
  0
VERTEX
  5
6E4
  8
EBENE_1
 62
     7
 10
0.0517714
 20
31.235600000000002
 30
0.0
 70
    32
  0
VERTEX
  5
6E5
  8
EBENE_1
 62
     7
 10
0.0243808
 20
31.2271
 30
0.0
 70
    32
  0
VERTEX
  5
6E6
  8
EBENE_1
 62
     7
 10
-0.00284367
 20
31.2181
 30
0.0
 70
    32
  0
VERTEX
  5
6E7
  8
EBENE_1
 62
     7
 10
-0.0298979
 20
31.2088
 30
0.0
 70
    32
  0
VERTEX
  5
6E8
  8
EBENE_1
 62
     7
 10
-0.0567779
 20
31.199100000000001
 30
0.0
 70
    32
  0
VERTEX
  5
6E9
  8
EBENE_1
 62
     7
 10
-0.0834798
 20
31.1889
 30
0.0
 70
    32
  0
VERTEX
  5
6EA
  8
EBENE_1
 62
     7
 10
-0.109999
 20
31.1784
 30
0.0
 70
    32
  0
VERTEX
  5
6EB
  8
EBENE_1
 62
     7
 10
-0.136333
 20
31.1675
 30
0.0
 70
    32
  0
VERTEX
  5
6EC
  8
EBENE_1
 62
     7
 10
-0.162476
 20
31.156199999999998
 30
0.0
 70
    32
  0
VERTEX
  5
6ED
  8
EBENE_1
 62
     7
 10
-0.188425
 20
31.144600000000001
 30
0.0
 70
    32
  0
VERTEX
  5
6EE
  8
EBENE_1
 62
     7
 10
-0.214175
 20
31.1325
 30
0.0
 70
    32
  0
VERTEX
  5
6EF
  8
EBENE_1
 62
     7
 10
-0.239724
 20
31.120100000000001
 30
0.0
 70
    32
  0
VERTEX
  5
6F0
  8
EBENE_1
 62
     7
 10
-0.265066
 20
31.107299999999999
 30
0.0
 70
    32
  0
VERTEX
  5
6F1
  8
EBENE_1
 62
     7
 10
-0.290197
 20
31.094200000000001
 30
0.0
 70
    32
  0
VERTEX
  5
6F2
  8
EBENE_1
 62
     7
 10
-0.315115
 20
31.0806
 30
0.0
 70
    32
  0
VERTEX
  5
6F3
  8
EBENE_1
 62
     7
 10
-0.339814
 20
31.066800000000001
 30
0.0
 70
    32
  0
VERTEX
  5
6F4
  8
EBENE_1
 62
     7
 10
-0.364291
 20
31.052499999999998
 30
0.0
 70
    32
  0
VERTEX
  5
6F5
  8
EBENE_1
 62
     7
 10
-0.388541
 20
31.0379
 30
0.0
 70
    32
  0
VERTEX
  5
6F6
  8
EBENE_1
 62
     7
 10
-0.412561
 20
31.023
 30
0.0
 70
    32
  0
VERTEX
  5
6F7
  8
EBENE_1
 62
     7
 10
-0.4363470000000001
 20
31.0077
 30
0.0
 70
    32
  0
VERTEX
  5
6F8
  8
EBENE_1
 62
     7
 10
-0.459894
 20
30.992100000000001
 30
0.0
 70
    32
  0
VERTEX
  5
6F9
  8
EBENE_1
 62
     7
 10
-0.4831990000000001
 20
30.976099999999999
 30
0.0
 70
    32
  0
VERTEX
  5
6FA
  8
EBENE_1
 62
     7
 10
-0.506258
 20
30.959800000000001
 30
0.0
 70
    32
  0
VERTEX
  5
6FB
  8
EBENE_1
 62
     7
 10
-0.5290660000000002
 20
30.943200000000001
 30
0.0
 70
    32
  0
VERTEX
  5
6FC
  8
EBENE_1
 62
     7
 10
-0.55162
 20
30.926200000000001
 30
0.0
 70
    32
  0
VERTEX
  5
6FD
  8
EBENE_1
 62
     7
 10
-0.573915
 20
30.908999999999999
 30
0.0
 70
    32
  0
VERTEX
  5
6FE
  8
EBENE_1
 62
     7
 10
-0.595948
 20
30.891400000000001
 30
0.0
 70
    32
  0
VERTEX
  5
6FF
  8
EBENE_1
 62
     7
 10
-0.617714
 20
30.8734
 30
0.0
 70
    32
  0
VERTEX
  5
700
  8
EBENE_1
 62
     7
 10
-0.6392100000000001
 20
30.8552
 30
0.0
 70
    32
  0
VERTEX
  5
701
  8
EBENE_1
 62
     7
 10
-0.6604320000000001
 20
30.8367
 30
0.0
 70
    32
  0
VERTEX
  5
702
  8
EBENE_1
 62
     7
 10
-0.681375
 20
30.817799999999998
 30
0.0
 70
    32
  0
VERTEX
  5
703
  8
EBENE_1
 62
     7
 10
-0.7020360000000001
 20
30.7987
 30
0.0
 70
    32
  0
VERTEX
  5
704
  8
EBENE_1
 62
     7
 10
-0.72241
 20
30.779199999999999
 30
0.0
 70
    32
  0
VERTEX
  5
705
  8
EBENE_1
 62
     7
 10
-0.7424930000000001
 20
30.759499999999999
 30
0.0
 70
    32
  0
VERTEX
  5
706
  8
EBENE_1
 62
     7
 10
-0.762282
 20
30.7394
 30
0.0
 70
    32
  0
VERTEX
  5
707
  8
EBENE_1
 62
     7
 10
-0.7817730000000001
 20
30.719100000000001
 30
0.0
 70
    32
  0
VERTEX
  5
708
  8
EBENE_1
 62
     7
 10
-0.8009609999999998
 20
30.698499999999999
 30
0.0
 70
    32
  0
VERTEX
  5
709
  8
EBENE_1
 62
     7
 10
-0.8198419999999999
 20
30.677600000000002
 30
0.0
 70
    32
  0
VERTEX
  5
70A
  8
EBENE_1
 62
     7
 10
-0.8384129999999999
 20
30.656500000000001
 30
0.0
 70
    32
  0
VERTEX
  5
70B
  8
EBENE_1
 62
     7
 10
-0.85667
 20
30.635000000000002
 30
0.0
 70
    32
  0
VERTEX
  5
70C
  8
EBENE_1
 62
     7
 10
-0.8746069999999999
 20
30.613299999999999
 30
0.0
 70
    32
  0
VERTEX
  5
70D
  8
EBENE_1
 62
     7
 10
-0.8922229999999998
 20
30.5913
 30
0.0
 70
    32
  0
VERTEX
  5
70E
  8
EBENE_1
 62
     7
 10
-0.909511
 20
30.569099999999999
 30
0.0
 70
    32
  0
VERTEX
  5
70F
  8
EBENE_1
 62
     7
 10
-0.9264690000000001
 20
30.546600000000002
 30
0.0
 70
    32
  0
VERTEX
  5
710
  8
EBENE_1
 62
     7
 10
-0.943092
 20
30.523800000000001
 30
0.0
 70
    32
  0
VERTEX
  5
711
  8
EBENE_1
 62
     7
 10
-0.9593770000000002
 20
30.500800000000002
 30
0.0
 70
    32
  0
VERTEX
  5
712
  8
EBENE_1
 62
     7
 10
-0.9753190000000001
 20
30.477499999999999
 30
0.0
 70
    32
  0
VERTEX
  5
713
  8
EBENE_1
 62
     7
 10
-0.990915
 20
30.454000000000001
 30
0.0
 70
    32
  0
VERTEX
  5
714
  8
EBENE_1
 62
     7
 10
-1.0061599999999991
 20
30.430199999999999
 30
0.0
 70
    32
  0
VERTEX
  5
715
  8
EBENE_1
 62
     7
 10
-1.02105
 20
30.406300000000002
 30
0.0
 70
    32
  0
VERTEX
  5
716
  8
EBENE_1
 62
     7
 10
-1.0355799999999991
 20
30.382000000000001
 30
0.0
 70
    32
  0
VERTEX
  5
717
  8
EBENE_1
 62
     7
 10
-1.0497499999999991
 20
30.357600000000001
 30
0.0
 70
    32
  0
VERTEX
  5
718
  8
EBENE_1
 62
     7
 10
-1.0635499999999991
 20
30.332899999999999
 30
0.0
 70
    32
  0
VERTEX
  5
719
  8
EBENE_1
 62
     7
 10
-1.0769799999999989
 20
30.308
 30
0.0
 70
    32
  0
VERTEX
  5
71A
  8
EBENE_1
 62
     7
 10
-1.090039999999999
 20
30.282800000000002
 30
0.0
 70
    32
  0
VERTEX
  5
71B
  8
EBENE_1
 62
     7
 10
-1.1027199999999999
 20
30.2575
 30
0.0
 70
    32
  0
VERTEX
  5
71C
  8
EBENE_1
 62
     7
 10
-1.1150100000000001
 20
30.2319
 30
0.0
 70
    32
  0
VERTEX
  5
71D
  8
EBENE_1
 62
     7
 10
-1.1269199999999999
 20
30.206099999999999
 30
0.0
 70
    32
  0
VERTEX
  5
71E
  8
EBENE_1
 62
     7
 10
-1.138439999999999
 20
30.180099999999999
 30
0.0
 70
    32
  0
VERTEX
  5
71F
  8
EBENE_1
 62
     7
 10
-1.1495599999999999
 20
30.154
 30
0.0
 70
    32
  0
VERTEX
  5
720
  8
EBENE_1
 62
     7
 10
-1.16029
 20
30.127600000000001
 30
0.0
 70
    32
  0
VERTEX
  5
721
  8
EBENE_1
 62
     7
 10
-1.170609999999999
 20
30.100999999999999
 30
0.0
 70
    32
  0
VERTEX
  5
722
  8
EBENE_1
 62
     7
 10
-1.18052
 20
30.074200000000001
 30
0.0
 70
    32
  0
VERTEX
  5
723
  8
EBENE_1
 62
     7
 10
-1.190029999999999
 20
30.0472
 30
0.0
 70
    32
  0
VERTEX
  5
724
  8
EBENE_1
 62
     7
 10
-1.1991099999999999
 20
30.020099999999999
 30
0.0
 70
    32
  0
VERTEX
  5
725
  8
EBENE_1
 62
     7
 10
-1.207779999999999
 20
29.992799999999999
 30
0.0
 70
    32
  0
VERTEX
  5
726
  8
EBENE_1
 62
     7
 10
-1.2160299999999991
 20
29.965199999999999
 30
0.0
 70
    32
  0
VERTEX
  5
727
  8
EBENE_1
 62
     7
 10
-1.2238500000000001
 20
29.9376
 30
0.0
 70
    32
  0
VERTEX
  5
728
  8
EBENE_1
 62
     7
 10
-1.231239999999999
 20
29.909700000000001
 30
0.0
 70
    32
  0
VERTEX
  5
729
  8
EBENE_1
 62
     7
 10
-1.2381999999999991
 20
29.881699999999999
 30
0.0
 70
    32
  0
VERTEX
  5
72A
  8
EBENE_1
 62
     7
 10
-1.2447099999999991
 20
29.8535
 30
0.0
 70
    32
  0
VERTEX
  5
72B
  8
EBENE_1
 62
     7
 10
-1.25078
 20
29.825099999999999
 30
0.0
 70
    32
  0
VERTEX
  5
72C
  8
EBENE_1
 62
     7
 10
-1.25641
 20
29.796600000000002
 30
0.0
 70
    32
  0
VERTEX
  5
72D
  8
EBENE_1
 62
     7
 10
-1.261579999999999
 20
29.768000000000001
 30
0.0
 70
    32
  0
VERTEX
  5
72E
  8
EBENE_1
 62
     7
 10
-1.2662999999999991
 20
29.739100000000001
 30
0.0
 70
    32
  0
VERTEX
  5
72F
  8
EBENE_1
 62
     7
 10
-1.2705699999999991
 20
29.7102
 30
0.0
 70
    32
  0
VERTEX
  5
730
  8
EBENE_1
 62
     7
 10
-1.274359999999999
 20
29.681100000000001
 30
0.0
 70
    32
  0
VERTEX
  5
731
  8
EBENE_1
 62
     7
 10
-1.2776899999999991
 20
29.651800000000001
 30
0.0
 70
    32
  0
VERTEX
  5
732
  8
EBENE_1
 62
     7
 10
-1.2805500000000001
 20
29.622399999999999
 30
0.0
 70
    32
  0
VERTEX
  5
733
  8
EBENE_1
 62
     7
 10
-1.2829399999999991
 20
29.5929
 30
0.0
 70
    32
  0
VERTEX
  5
734
  8
EBENE_1
 62
     7
 10
-1.28485
 20
29.563300000000002
 30
0.0
 70
    32
  0
VERTEX
  5
735
  8
EBENE_1
 62
     7
 10
-1.28627
 20
29.5335
 30
0.0
 70
    32
  0
VERTEX
  5
736
  8
EBENE_1
 62
     7
 10
-1.2872099999999991
 20
29.503599999999999
 30
0.0
 70
    32
  0
VERTEX
  5
737
  8
EBENE_1
 62
     7
 10
-1.2876499999999991
 20
29.473600000000001
 30
0.0
 70
    32
  0
VERTEX
  5
738
  8
EBENE_1
 62
     7
 10
-1.2876000000000001
 20
29.4436
 30
0.0
 70
    32
  0
VERTEX
  5
739
  8
EBENE_1
 62
     7
 10
-1.2870600000000001
 20
29.413599999999999
 30
0.0
 70
    32
  0
VERTEX
  5
73A
  8
EBENE_1
 62
     7
 10
-1.2860199999999999
 20
29.383700000000001
 30
0.0
 70
    32
  0
VERTEX
  5
73B
  8
EBENE_1
 62
     7
 10
-1.2844999999999991
 20
29.353999999999999
 30
0.0
 70
    32
  0
VERTEX
  5
73C
  8
EBENE_1
 62
     7
 10
-1.2824999999999991
 20
29.324400000000001
 30
0.0
 70
    32
  0
VERTEX
  5
73D
  8
EBENE_1
 62
     7
 10
-1.2800199999999999
 20
29.294899999999998
 30
0.0
 70
    32
  0
VERTEX
  5
73E
  8
EBENE_1
 62
     7
 10
-1.2770699999999999
 20
29.265499999999999
 30
0.0
 70
    32
  0
VERTEX
  5
73F
  8
EBENE_1
 62
     7
 10
-1.273639999999999
 20
29.2363
 30
0.0
 70
    32
  0
VERTEX
  5
740
  8
EBENE_1
 62
     7
 10
-1.269749999999999
 20
29.2072
 30
0.0
 70
    32
  0
VERTEX
  5
741
  8
EBENE_1
 62
     7
 10
-1.2654000000000001
 20
29.1783
 30
0.0
 70
    32
  0
VERTEX
  5
742
  8
EBENE_1
 62
     7
 10
-1.260589999999999
 20
29.1495
 30
0.0
 70
    32
  0
VERTEX
  5
743
  8
EBENE_1
 62
     7
 10
-1.2553199999999991
 20
29.120899999999999
 30
0.0
 70
    32
  0
VERTEX
  5
744
  8
EBENE_1
 62
     7
 10
-1.2496
 20
29.092400000000001
 30
0.0
 70
    32
  0
VERTEX
  5
745
  8
EBENE_1
 62
     7
 10
-1.243439999999999
 20
29.0641
 30
0.0
 70
    32
  0
VERTEX
  5
746
  8
EBENE_1
 62
     7
 10
-1.2368399999999991
 20
29.036000000000001
 30
0.0
 70
    32
  0
VERTEX
  5
747
  8
EBENE_1
 62
     7
 10
-1.2298
 20
29.007999999999999
 30
0.0
 70
    32
  0
VERTEX
  5
748
  8
EBENE_1
 62
     7
 10
-1.2223200000000001
 20
28.9801
 30
0.0
 70
    32
  0
VERTEX
  5
749
  8
EBENE_1
 62
     7
 10
-1.2144200000000001
 20
28.952500000000001
 30
0.0
 70
    32
  0
VERTEX
  5
74A
  8
EBENE_1
 62
     7
 10
-1.2060799999999989
 20
28.925000000000001
 30
0.0
 70
    32
  0
VERTEX
  5
74B
  8
EBENE_1
 62
     7
 10
-1.19733
 20
28.8977
 30
0.0
 70
    32
  0
VERTEX
  5
74C
  8
EBENE_1
 62
     7
 10
-1.1881600000000001
 20
28.8706
 30
0.0
 70
    32
  0
VERTEX
  5
74D
  8
EBENE_1
 62
     7
 10
-1.1785699999999999
 20
28.843699999999998
 30
0.0
 70
    32
  0
VERTEX
  5
74E
  8
EBENE_1
 62
     7
 10
-1.1685799999999991
 20
28.8169
 30
0.0
 70
    32
  0
VERTEX
  5
74F
  8
EBENE_1
 62
     7
 10
-1.1581699999999999
 20
28.790400000000002
 30
0.0
 70
    32
  0
VERTEX
  5
750
  8
EBENE_1
 62
     7
 10
-1.14737
 20
28.764099999999999
 30
0.0
 70
    32
  0
VERTEX
  5
751
  8
EBENE_1
 62
     7
 10
-1.1361699999999999
 20
28.7379
 30
0.0
 70
    32
  0
VERTEX
  5
752
  8
EBENE_1
 62
     7
 10
-1.1245700000000001
 20
28.712
 30
0.0
 70
    32
  0
VERTEX
  5
753
  8
EBENE_1
 62
     7
 10
-1.112579999999999
 20
28.686199999999999
 30
0.0
 70
    32
  0
VERTEX
  5
754
  8
EBENE_1
 62
     7
 10
-1.1002099999999999
 20
28.660699999999999
 30
0.0
 70
    32
  0
VERTEX
  5
755
  8
EBENE_1
 62
     7
 10
-1.0874600000000001
 20
28.635400000000001
 30
0.0
 70
    32
  0
VERTEX
  5
756
  8
EBENE_1
 62
     7
 10
-1.07433
 20
28.610299999999999
 30
0.0
 70
    32
  0
VERTEX
  5
757
  8
EBENE_1
 62
     7
 10
-1.0608200000000001
 20
28.5854
 30
0.0
 70
    32
  0
VERTEX
  5
758
  8
EBENE_1
 62
     7
 10
-1.04695
 20
28.5608
 30
0.0
 70
    32
  0
VERTEX
  5
759
  8
EBENE_1
 62
     7
 10
-1.0326999999999991
 20
28.5364
 30
0.0
 70
    32
  0
VERTEX
  5
75A
  8
EBENE_1
 62
     7
 10
-1.0181
 20
28.5122
 30
0.0
 70
    32
  0
VERTEX
  5
75B
  8
EBENE_1
 62
     7
 10
-1.003139999999999
 20
28.488299999999999
 30
0.0
 70
    32
  0
VERTEX
  5
75C
  8
EBENE_1
 62
     7
 10
-0.9878239999999999
 20
28.464500000000001
 30
0.0
 70
    32
  0
VERTEX
  5
75D
  8
EBENE_1
 62
     7
 10
-0.9721579999999999
 20
28.441099999999999
 30
0.0
 70
    32
  0
VERTEX
  5
75E
  8
EBENE_1
 62
     7
 10
-0.9561479999999999
 20
28.417899999999999
 30
0.0
 70
    32
  0
VERTEX
  5
75F
  8
EBENE_1
 62
     7
 10
-0.9397949999999999
 20
28.3949
 30
0.0
 70
    32
  0
VERTEX
  5
760
  8
EBENE_1
 62
     7
 10
-0.923104
 20
28.372199999999999
 30
0.0
 70
    32
  0
VERTEX
  5
761
  8
EBENE_1
 62
     7
 10
-0.9060799999999998
 20
28.349699999999999
 30
0.0
 70
    32
  0
VERTEX
  5
762
  8
EBENE_1
 62
     7
 10
-0.8887259999999999
 20
28.327500000000001
 30
0.0
 70
    32
  0
VERTEX
  5
763
  8
EBENE_1
 62
     7
 10
-0.8710459999999999
 20
28.305599999999998
 30
0.0
 70
    32
  0
VERTEX
  5
764
  8
EBENE_1
 62
     7
 10
-0.853044
 20
28.283899999999999
 30
0.0
 70
    32
  0
VERTEX
  5
765
  8
EBENE_1
 62
     7
 10
-0.8347239999999999
 20
28.262599999999999
 30
0.0
 70
    32
  0
VERTEX
  5
766
  8
EBENE_1
 62
     7
 10
-0.8160909999999999
 20
28.241399999999999
 30
0.0
 70
    32
  0
VERTEX
  5
767
  8
EBENE_1
 62
     7
 10
-0.797148
 20
28.220600000000001
 30
0.0
 70
    32
  0
VERTEX
  5
768
  8
EBENE_1
 62
     7
 10
-0.7778990000000001
 20
28.199999999999999
 30
0.0
 70
    32
  0
VERTEX
  5
769
  8
EBENE_1
 62
     7
 10
-0.7583479999999999
 20
28.1798
 30
0.0
 70
    32
  0
VERTEX
  5
76A
  8
EBENE_1
 62
     7
 10
-0.7385000000000001
 20
28.159800000000001
 30
0.0
 70
    32
  0
VERTEX
  5
76B
  8
EBENE_1
 62
     7
 10
-0.7183580000000001
 20
28.1401
 30
0.0
 70
    32
  0
VERTEX
  5
76C
  8
EBENE_1
 62
     7
 10
-0.6979260000000001
 20
28.120699999999999
 30
0.0
 70
    32
  0
VERTEX
  5
76D
  8
EBENE_1
 62
     7
 10
-0.6772090000000001
 20
28.101600000000001
 30
0.0
 70
    32
  0
VERTEX
  5
76E
  8
EBENE_1
 62
     7
 10
-0.6562100000000001
 20
28.082799999999999
 30
0.0
 70
    32
  0
VERTEX
  5
76F
  8
EBENE_1
 62
     7
 10
-0.6349330000000001
 20
28.064399999999999
 30
0.0
 70
    32
  0
VERTEX
  5
770
  8
EBENE_1
 62
     7
 10
-0.613383
 20
28.046199999999999
 30
0.0
 70
    32
  0
VERTEX
  5
771
  8
EBENE_1
 62
     7
 10
-0.5915630000000001
 20
28.028300000000002
 30
0.0
 70
    32
  0
VERTEX
  5
772
  8
EBENE_1
 62
     7
 10
-0.569477
 20
28.0108
 30
0.0
 70
    32
  0
VERTEX
  5
773
  8
EBENE_1
 62
     7
 10
-0.547129
 20
27.993600000000001
 30
0.0
 70
    32
  0
VERTEX
  5
774
  8
EBENE_1
 62
     7
 10
-0.524524
 20
27.976700000000001
 30
0.0
 70
    32
  0
VERTEX
  5
775
  8
EBENE_1
 62
     7
 10
-0.501666
 20
27.960100000000001
 30
0.0
 70
    32
  0
VERTEX
  5
776
  8
EBENE_1
 62
     7
 10
-0.478558
 20
27.943899999999999
 30
0.0
 70
    32
  0
VERTEX
  5
777
  8
EBENE_1
 62
     7
 10
-0.455204
 20
27.928000000000001
 30
0.0
 70
    32
  0
VERTEX
  5
778
  8
EBENE_1
 62
     7
 10
-0.431609
 20
27.912400000000002
 30
0.0
 70
    32
  0
VERTEX
  5
779
  8
EBENE_1
 62
     7
 10
-0.4077760000000001
 20
27.897200000000002
 30
0.0
 70
    32
  0
VERTEX
  5
77A
  8
EBENE_1
 62
     7
 10
-0.383709
 20
27.882400000000001
 30
0.0
 70
    32
  0
VERTEX
  5
77B
  8
EBENE_1
 62
     7
 10
-0.359413
 20
27.867799999999999
 30
0.0
 70
    32
  0
VERTEX
  5
77C
  8
EBENE_1
 62
     7
 10
-0.334892
 20
27.8537
 30
0.0
 70
    32
  0
VERTEX
  5
77D
  8
EBENE_1
 62
     7
 10
-0.310149
 20
27.8399
 30
0.0
 70
    32
  0
VERTEX
  5
77E
  8
EBENE_1
 62
     7
 10
-0.285188
 20
27.8264
 30
0.0
 70
    32
  0
VERTEX
  5
77F
  8
EBENE_1
 62
     7
 10
-0.260014
 20
27.813300000000002
 30
0.0
 70
    32
  0
VERTEX
  5
780
  8
EBENE_1
 62
     7
 10
-0.23463
 20
27.800599999999999
 30
0.0
 70
    32
  0
VERTEX
  5
781
  8
EBENE_1
 62
     7
 10
-0.209041
 20
27.7883
 30
0.0
 70
    32
  0
VERTEX
  5
782
  8
EBENE_1
 62
     7
 10
-0.183251
 20
27.776299999999999
 30
0.0
 70
    32
  0
VERTEX
  5
783
  8
EBENE_1
 62
     7
 10
-0.157263
 20
27.764700000000001
 30
0.0
 70
    32
  0
VERTEX
  5
784
  8
EBENE_1
 62
     7
 10
-0.131081
 20
27.753499999999999
 30
0.0
 70
    32
  0
VERTEX
  5
785
  8
EBENE_1
 62
     7
 10
-0.10471
 20
27.742699999999999
 30
0.0
 70
    32
  0
VERTEX
  5
786
  8
EBENE_1
 62
     7
 10
-0.0781539
 20
27.732199999999999
 30
0.0
 70
    32
  0
VERTEX
  5
787
  8
EBENE_1
 62
     7
 10
-0.0514161
 20
27.722200000000001
 30
0.0
 70
    32
  0
VERTEX
  5
788
  8
EBENE_1
 62
     7
 10
-0.0245009
 20
27.712499999999999
 30
0.0
 70
    32
  0
VERTEX
  5
789
  8
EBENE_1
 62
     7
 10
0.00258773
 20
27.703299999999999
 30
0.0
 70
    32
  0
VERTEX
  5
78A
  8
EBENE_1
 62
     7
 10
0.0298457
 20
27.694400000000002
 30
0.0
 70
    32
  0
VERTEX
  5
78B
  8
EBENE_1
 62
     7
 10
0.0572691
 20
27.686
 30
0.0
 70
    32
  0
VERTEX
  5
78C
  8
EBENE_1
 62
     7
 10
0.0848539
 20
27.677900000000001
 30
0.0
 70
    32
  0
VERTEX
  5
78D
  8
EBENE_1
 62
     7
 10
0.112596
 20
27.670300000000001
 30
0.0
 70
    32
  0
VERTEX
  5
78E
  8
EBENE_1
 62
     7
 10
0.140491
 20
27.6631
 30
0.0
 70
    32
  0
VERTEX
  5
78F
  8
EBENE_1
 62
     7
 10
0.168536
 20
27.656300000000002
 30
0.0
 70
    32
  0
VERTEX
  5
790
  8
EBENE_1
 62
     7
 10
0.196726
 20
27.649999999999999
 30
0.0
 70
    32
  0
VERTEX
  5
791
  8
EBENE_1
 62
     7
 10
0.225058
 20
27.643999999999998
 30
0.0
 70
    32
  0
VERTEX
  5
792
  8
EBENE_1
 62
     7
 10
0.253527
 20
27.638500000000001
 30
0.0
 70
    32
  0
VERTEX
  5
793
  8
EBENE_1
 62
     7
 10
0.282129
 20
27.633500000000002
 30
0.0
 70
    32
  0
VERTEX
  5
794
  8
EBENE_1
 62
     7
 10
0.31086
 20
27.628900000000002
 30
0.0
 70
    32
  0
VERTEX
  5
795
  8
EBENE_1
 62
     7
 10
0.339717
 20
27.624700000000001
 30
0.0
 70
    32
  0
VERTEX
  5
796
  8
EBENE_1
 62
     7
 10
0.368695
 20
27.620899999999999
 30
0.0
 70
    32
  0
VERTEX
  5
797
  8
EBENE_1
 62
     7
 10
0.39779
 20
27.617599999999999
 30
0.0
 70
    32
  0
VERTEX
  5
798
  8
EBENE_1
 62
     7
 10
0.426998
 20
27.614799999999999
 30
0.0
 70
    32
  0
VERTEX
  5
799
  8
EBENE_1
 62
     7
 10
0.456316
 20
27.612400000000001
 30
0.0
 70
    32
  0
VERTEX
  5
79A
  8
EBENE_1
 62
     7
 10
0.4857390000000001
 20
27.610499999999998
 30
0.0
 70
    32
  0
VERTEX
  5
79B
  8
EBENE_1
 62
     7
 10
0.5152630000000001
 20
27.609000000000002
 30
0.0
 70
    32
  0
VERTEX
  5
79C
  8
EBENE_1
 62
     7
 10
0.5448840000000002
 20
27.6081
 30
0.0
 70
    32
  0
VERTEX
  5
79D
  8
EBENE_1
 62
     7
 10
0.574599
 20
27.607500000000002
 30
0.0
 70
    32
  0
VERTEX
  5
79E
  8
EBENE_1
 62
     7
 10
0.6043390000000001
 20
27.607500000000002
 30
0.0
 70
    32
  0
VERTEX
  5
79F
  8
EBENE_1
 62
     7
 10
0.633941
 20
27.607900000000001
 30
0.0
 70
    32
  0
VERTEX
  5
7A0
  8
EBENE_1
 62
     7
 10
0.66344
 20
27.608799999999999
 30
0.0
 70
    32
  0
VERTEX
  5
7A1
  8
EBENE_1
 62
     7
 10
0.6928330000000001
 20
27.610199999999999
 30
0.0
 70
    32
  0
VERTEX
  5
7A2
  8
EBENE_1
 62
     7
 10
0.722115
 20
27.612100000000002
 30
0.0
 70
    32
  0
VERTEX
  5
7A3
  8
EBENE_1
 62
     7
 10
0.7512840000000001
 20
27.6144
 30
0.0
 70
    32
  0
VERTEX
  5
7A4
  8
EBENE_1
 62
     7
 10
0.780335
 20
27.6172
 30
0.0
 70
    32
  0
VERTEX
  5
7A5
  8
EBENE_1
 62
     7
 10
0.8092639999999999
 20
27.6204
 30
0.0
 70
    32
  0
VERTEX
  5
7A6
  8
EBENE_1
 62
     7
 10
0.8380679999999999
 20
27.624099999999999
 30
0.0
 70
    32
  0
VERTEX
  5
7A7
  8
EBENE_1
 62
     7
 10
0.8667429999999999
 20
27.628299999999999
 30
0.0
 70
    32
  0
VERTEX
  5
7A8
  8
EBENE_1
 62
     7
 10
0.895284
 20
27.632899999999999
 30
0.0
 70
    32
  0
VERTEX
  5
7A9
  8
EBENE_1
 62
     7
 10
0.92369
 20
27.637899999999998
 30
0.0
 70
    32
  0
VERTEX
  5
7AA
  8
EBENE_1
 62
     7
 10
0.9519540000000001
 20
27.6434
 30
0.0
 70
    32
  0
VERTEX
  5
7AB
  8
EBENE_1
 62
     7
 10
0.980075
 20
27.6493
 30
0.0
 70
    32
  0
VERTEX
  5
7AC
  8
EBENE_1
 62
     7
 10
1.008049999999999
 20
27.6557
 30
0.0
 70
    32
  0
VERTEX
  5
7AD
  8
EBENE_1
 62
     7
 10
1.0358700000000001
 20
27.662400000000002
 30
0.0
 70
    32
  0
VERTEX
  5
7AE
  8
EBENE_1
 62
     7
 10
1.063529999999999
 20
27.669599999999999
 30
0.0
 70
    32
  0
VERTEX
  5
7AF
  8
EBENE_1
 62
     7
 10
1.09104
 20
27.677299999999999
 30
0.0
 70
    32
  0
VERTEX
  5
7B0
  8
EBENE_1
 62
     7
 10
1.118379999999999
 20
27.685300000000002
 30
0.0
 70
    32
  0
VERTEX
  5
7B1
  8
EBENE_1
 62
     7
 10
1.1455599999999999
 20
27.6938
 30
0.0
 70
    32
  0
VERTEX
  5
7B2
  8
EBENE_1
 62
     7
 10
1.17256
 20
27.7026
 30
0.0
 70
    32
  0
VERTEX
  5
7B3
  8
EBENE_1
 62
     7
 10
1.1993899999999991
 20
27.7119
 30
0.0
 70
    32
  0
VERTEX
  5
7B4
  8
EBENE_1
 62
     7
 10
1.22604
 20
27.721599999999999
 30
0.0
 70
    32
  0
VERTEX
  5
7B5
  8
EBENE_1
 62
     7
 10
1.25251
 20
27.7317
 30
0.0
 70
    32
  0
VERTEX
  5
7B6
  8
EBENE_1
 62
     7
 10
1.278799999999999
 20
27.742100000000001
 30
0.0
 70
    32
  0
VERTEX
  5
7B7
  8
EBENE_1
 62
     7
 10
1.304889999999999
 20
27.753
 30
0.0
 70
    32
  0
VERTEX
  5
7B8
  8
EBENE_1
 62
     7
 10
1.3307999999999991
 20
27.764299999999999
 30
0.0
 70
    32
  0
VERTEX
  5
7B9
  8
EBENE_1
 62
     7
 10
1.3565
 20
27.7759
 30
0.0
 70
    32
  0
VERTEX
  5
7BA
  8
EBENE_1
 62
     7
 10
1.381999999999999
 20
27.7879
 30
0.0
 70
    32
  0
VERTEX
  5
7BB
  8
EBENE_1
 62
     7
 10
1.4073
 20
27.8003
 30
0.0
 70
    32
  0
VERTEX
  5
7BC
  8
EBENE_1
 62
     7
 10
1.4323900000000001
 20
27.813099999999999
 30
0.0
 70
    32
  0
VERTEX
  5
7BD
  8
EBENE_1
 62
     7
 10
1.4572700000000001
 20
27.8262
 30
0.0
 70
    32
  0
VERTEX
  5
7BE
  8
EBENE_1
 62
     7
 10
1.48193
 20
27.839700000000001
 30
0.0
 70
    32
  0
VERTEX
  5
7BF
  8
EBENE_1
 62
     7
 10
1.5063699999999991
 20
27.8536
 30
0.0
 70
    32
  0
VERTEX
  5
7C0
  8
EBENE_1
 62
     7
 10
1.530589999999999
 20
27.867799999999999
 30
0.0
 70
    32
  0
VERTEX
  5
7C1
  8
EBENE_1
 62
     7
 10
1.554579999999999
 20
27.882300000000001
 30
0.0
 70
    32
  0
VERTEX
  5
7C2
  8
EBENE_1
 62
     7
 10
1.578339999999999
 20
27.897300000000001
 30
0.0
 70
    32
  0
VERTEX
  5
7C3
  8
EBENE_1
 62
     7
 10
1.6018699999999999
 20
27.912500000000001
 30
0.0
 70
    32
  0
VERTEX
  5
7C4
  8
EBENE_1
 62
     7
 10
1.6251500000000001
 20
27.928100000000001
 30
0.0
 70
    32
  0
VERTEX
  5
7C5
  8
EBENE_1
 62
     7
 10
1.6482000000000001
 20
27.944099999999999
 30
0.0
 70
    32
  0
VERTEX
  5
7C6
  8
EBENE_1
 62
     7
 10
1.67099
 20
27.9604
 30
0.0
 70
    32
  0
VERTEX
  5
7C7
  8
EBENE_1
 62
     7
 10
1.69354
 20
27.977
 30
0.0
 70
    32
  0
VERTEX
  5
7C8
  8
EBENE_1
 62
     7
 10
1.7158299999999991
 20
27.9939
 30
0.0
 70
    32
  0
VERTEX
  5
7C9
  8
EBENE_1
 62
     7
 10
1.73787
 20
28.011199999999999
 30
0.0
 70
    32
  0
VERTEX
  5
7CA
  8
EBENE_1
 62
     7
 10
1.7596400000000001
 20
28.0288
 30
0.0
 70
    32
  0
VERTEX
  5
7CB
  8
EBENE_1
 62
     7
 10
1.78115
 20
28.046700000000001
 30
0.0
 70
    32
  0
VERTEX
  5
7CC
  8
EBENE_1
 62
     7
 10
1.8023899999999999
 20
28.064900000000002
 30
0.0
 70
    32
  0
VERTEX
  5
7CD
  8
EBENE_1
 62
     7
 10
1.823359999999999
 20
28.083400000000001
 30
0.0
 70
    32
  0
VERTEX
  5
7CE
  8
EBENE_1
 62
     7
 10
1.84405
 20
28.1022
 30
0.0
 70
    32
  0
VERTEX
  5
7CF
  8
EBENE_1
 62
     7
 10
1.8644599999999989
 20
28.121400000000001
 30
0.0
 70
    32
  0
VERTEX
  5
7D0
  8
EBENE_1
 62
     7
 10
1.88459
 20
28.140799999999999
 30
0.0
 70
    32
  0
VERTEX
  5
7D1
  8
EBENE_1
 62
     7
 10
1.904429999999999
 20
28.160499999999999
 30
0.0
 70
    32
  0
VERTEX
  5
7D2
  8
EBENE_1
 62
     7
 10
1.92397
 20
28.180499999999999
 30
0.0
 70
    32
  0
VERTEX
  5
7D3
  8
EBENE_1
 62
     7
 10
1.9432299999999989
 20
28.200800000000001
 30
0.0
 70
    32
  0
VERTEX
  5
7D4
  8
EBENE_1
 62
     7
 10
1.96218
 20
28.221399999999999
 30
0.0
 70
    32
  0
VERTEX
  5
7D5
  8
EBENE_1
 62
     7
 10
1.980829999999999
 20
28.2423
 30
0.0
 70
    32
  0
VERTEX
  5
7D6
  8
EBENE_1
 62
     7
 10
1.9991699999999999
 20
28.263400000000001
 30
0.0
 70
    32
  0
VERTEX
  5
7D7
  8
EBENE_1
 62
     7
 10
2.017199999999999
 20
28.284800000000001
 30
0.0
 70
    32
  0
VERTEX
  5
7D8
  8
EBENE_1
 62
     7
 10
2.0349200000000001
 20
28.3065
 30
0.0
 70
    32
  0
VERTEX
  5
7D9
  8
EBENE_1
 62
     7
 10
2.052319999999999
 20
28.328399999999998
 30
0.0
 70
    32
  0
VERTEX
  5
7DA
  8
EBENE_1
 62
     7
 10
2.069399999999999
 20
28.3506
 30
0.0
 70
    32
  0
VERTEX
  5
7DB
  8
EBENE_1
 62
     7
 10
2.0861499999999991
 20
28.373000000000001
 30
0.0
 70
    32
  0
VERTEX
  5
7DC
  8
EBENE_1
 62
     7
 10
2.1025700000000001
 20
28.395700000000001
 30
0.0
 70
    32
  0
VERTEX
  5
7DD
  8
EBENE_1
 62
     7
 10
2.1186599999999989
 20
28.418700000000001
 30
0.0
 70
    32
  0
VERTEX
  5
7DE
  8
EBENE_1
 62
     7
 10
2.134409999999999
 20
28.4419
 30
0.0
 70
    32
  0
VERTEX
  5
7DF
  8
EBENE_1
 62
     7
 10
2.1498200000000001
 20
28.465299999999999
 30
0.0
 70
    32
  0
VERTEX
  5
7E0
  8
EBENE_1
 62
     7
 10
2.1648900000000002
 20
28.489000000000001
 30
0.0
 70
    32
  0
VERTEX
  5
7E1
  8
EBENE_1
 62
     7
 10
2.1796099999999989
 20
28.512899999999998
 30
0.0
 70
    32
  0
VERTEX
  5
7E2
  8
EBENE_1
 62
     7
 10
2.1939700000000002
 20
28.536999999999999
 30
0.0
 70
    32
  0
VERTEX
  5
7E3
  8
EBENE_1
 62
     7
 10
2.2079800000000001
 20
28.561399999999999
 30
0.0
 70
    32
  0
VERTEX
  5
7E4
  8
EBENE_1
 62
     7
 10
2.2216399999999998
 20
28.585999999999999
 30
0.0
 70
    32
  0
VERTEX
  5
7E5
  8
EBENE_1
 62
     7
 10
2.2349199999999998
 20
28.610800000000001
 30
0.0
 70
    32
  0
VERTEX
  5
7E6
  8
EBENE_1
 62
     7
 10
2.2478400000000001
 20
28.6358
 30
0.0
 70
    32
  0
VERTEX
  5
7E7
  8
EBENE_1
 62
     7
 10
2.2603900000000001
 20
28.661000000000001
 30
0.0
 70
    32
  0
VERTEX
  5
7E8
  8
EBENE_1
 62
     7
 10
2.2725699999999991
 20
28.686499999999999
 30
0.0
 70
    32
  0
VERTEX
  5
7E9
  8
EBENE_1
 62
     7
 10
2.2843599999999991
 20
28.7121
 30
0.0
 70
    32
  0
VERTEX
  5
7EA
  8
EBENE_1
 62
     7
 10
2.2957700000000001
 20
28.7379
 30
0.0
 70
    32
  0
VERTEX
  5
7EB
  8
EBENE_1
 62
     7
 10
2.3067999999999991
 20
28.763999999999999
 30
0.0
 70
    32
  0
VERTEX
  5
7EC
  8
EBENE_1
 62
     7
 10
2.3174399999999991
 20
28.790199999999999
 30
0.0
 70
    32
  0
VERTEX
  5
7ED
  8
EBENE_1
 62
     7
 10
2.3276799999999991
 20
28.816600000000001
 30
0.0
 70
    32
  0
VERTEX
  5
7EE
  8
EBENE_1
 62
     7
 10
2.3375300000000001
 20
28.8432
 30
0.0
 70
    32
  0
VERTEX
  5
7EF
  8
EBENE_1
 62
     7
 10
2.3469699999999998
 20
28.870000000000001
 30
0.0
 70
    32
  0
VERTEX
  5
7F0
  8
EBENE_1
 62
     7
 10
2.356009999999999
 20
28.896999999999998
 30
0.0
 70
    32
  0
VERTEX
  5
7F1
  8
EBENE_1
 62
     7
 10
2.3646400000000001
 20
28.924099999999999
 30
0.0
 70
    32
  0
VERTEX
  5
7F2
  8
EBENE_1
 62
     7
 10
2.3728599999999989
 20
28.9514
 30
0.0
 70
    32
  0
VERTEX
  5
7F3
  8
EBENE_1
 62
     7
 10
2.3806599999999989
 20
28.978899999999999
 30
0.0
 70
    32
  0
VERTEX
  5
7F4
  8
EBENE_1
 62
     7
 10
2.3880400000000002
 20
29.006499999999999
 30
0.0
 70
    32
  0
VERTEX
  5
7F5
  8
EBENE_1
 62
     7
 10
2.395
 20
29.034300000000002
 30
0.0
 70
    32
  0
VERTEX
  5
7F6
  8
EBENE_1
 62
     7
 10
2.4015299999999988
 20
29.062200000000001
 30
0.0
 70
    32
  0
VERTEX
  5
7F7
  8
EBENE_1
 62
     7
 10
2.4076299999999988
 20
29.090299999999999
 30
0.0
 70
    32
  0
VERTEX
  5
7F8
  8
EBENE_1
 62
     7
 10
2.413289999999999
 20
29.118600000000001
 30
0.0
 70
    32
  0
VERTEX
  5
7F9
  8
EBENE_1
 62
     7
 10
2.41852
 20
29.146899999999999
 30
0.0
 70
    32
  0
VERTEX
  5
7FA
  8
EBENE_1
 62
     7
 10
2.4232999999999989
 20
29.1755
 30
0.0
 70
    32
  0
VERTEX
  5
7FB
  8
EBENE_1
 62
     7
 10
2.4276299999999988
 20
29.2041
 30
0.0
 70
    32
  0
VERTEX
  5
7FC
  8
EBENE_1
 62
     7
 10
2.431519999999999
 20
29.232900000000001
 30
0.0
 70
    32
  0
VERTEX
  5
7FD
  8
EBENE_1
 62
     7
 10
2.4349500000000002
 20
29.261800000000001
 30
0.0
 70
    32
  0
VERTEX
  5
7FE
  8
EBENE_1
 62
     7
 10
2.4379200000000001
 20
29.290900000000001
 30
0.0
 70
    32
  0
VERTEX
  5
7FF
  8
EBENE_1
 62
     7
 10
2.4404300000000001
 20
29.32
 30
0.0
 70
    32
  0
VERTEX
  5
800
  8
EBENE_1
 62
     7
 10
2.4424700000000001
 20
29.349299999999999
 30
0.0
 70
    32
  0
VERTEX
  5
801
  8
EBENE_1
 62
     7
 10
2.4440499999999989
 20
29.378699999999998
 30
0.0
 70
    32
  0
VERTEX
  5
802
  8
EBENE_1
 62
     7
 10
2.445149999999999
 20
29.408200000000001
 30
0.0
 70
    32
  0
VERTEX
  5
803
  8
EBENE_1
 62
     7
 10
2.4457800000000001
 20
29.437799999999999
 30
0.0
 70
    32
  0
VERTEX
  5
804
  8
EBENE_1
 62
     7
 10
2.4459299999999988
 20
29.461600000000001
 30
0.0
 70
    32
  0
VERTEX
  5
805
  8
EBENE_1
 62
     7
 10
2.4459299999999988
 20
29.461600000000001
 30
0.0
 70
    32
  0
VERTEX
  5
806
  8
EBENE_1
 62
     7
 10
2.4459299999999988
 20
29.461600000000001
 30
0.0
 70
    32
  0
VERTEX
  5
807
  8
EBENE_1
 62
     7
 10
2.4459299999999988
 20
29.461600000000001
 30
0.0
 70
    32
  0
VERTEX
  5
808
  8
EBENE_1
 62
     7
 10
2.4459299999999988
 20
29.461600000000001
 30
0.0
 70
    32
  0
VERTEX
  5
809
  8
EBENE_1
 62
     7
 10
2.4459299999999988
 20
29.461600000000001
 30
0.0
 70
    32
  0
VERTEX
  5
80A
  8
EBENE_1
 62
     7
 10
2.4459299999999988
 20
29.461600000000001
 30
0.0
 70
    32
  0
VERTEX
  5
80B
  8
EBENE_1
 62
     7
 10
2.4459299999999988
 20
29.461600000000001
 30
0.0
 70
    32
  0
VERTEX
  5
80C
  8
EBENE_1
 62
     7
 10
2.4459299999999988
 20
29.461600000000001
 30
0.0
 70
    32
  0
VERTEX
  5
80D
  8
EBENE_1
 62
     7
 10
2.4459299999999988
 20
29.461600000000001
 30
0.0
 70
    32
  0
VERTEX
  5
80E
  8
EBENE_1
 62
     7
 10
2.4459299999999988
 20
29.461600000000001
 30
0.0
 70
    32
  0
VERTEX
  5
80F
  8
EBENE_1
 62
     7
 10
2.4459299999999988
 20
29.461600000000001
 30
0.0
 70
    32
  0
VERTEX
  5
810
  8
EBENE_1
 62
     7
 10
2.4459299999999988
 20
29.461600000000001
 30
0.0
 70
    32
  0
VERTEX
  5
811
  8
EBENE_1
 62
     7
 10
2.4459299999999988
 20
29.461600000000001
 30
0.0
 70
    32
  0
VERTEX
  5
812
  8
EBENE_1
 62
     7
 10
2.4459299999999988
 20
29.461600000000001
 30
0.0
 70
    32
  0
VERTEX
  5
813
  8
EBENE_1
 62
     7
 10
2.4459299999999988
 20
29.461600000000001
 30
0.0
 70
    32
  0
VERTEX
  5
814
  8
EBENE_1
 62
     7
 10
2.4459299999999988
 20
29.461600000000001
 30
0.0
 70
    32
  0
VERTEX
  5
815
  8
EBENE_1
 62
     7
 10
2.4459299999999988
 20
29.461600000000001
 30
0.0
 70
    32
  0
VERTEX
  5
816
  8
EBENE_1
 62
     7
 10
2.4459299999999988
 20
29.461600000000001
 30
0.0
 70
    32
  0
VERTEX
  5
817
  8
EBENE_1
 62
     7
 10
2.4459299999999988
 20
29.461600000000001
 30
0.0
 70
    32
  0
VERTEX
  5
818
  8
EBENE_1
 62
     7
 10
2.4459299999999988
 20
29.461600000000001
 30
0.0
 70
    32
  0
VERTEX
  5
819
  8
EBENE_1
 62
     7
 10
2.4459299999999988
 20
29.461600000000001
 30
0.0
 70
    32
  0
VERTEX
  5
81A
  8
EBENE_1
 62
     7
 10
2.4459299999999988
 20
29.461600000000001
 30
0.0
 70
    32
  0
VERTEX
  5
81B
  8
EBENE_1
 62
     7
 10
2.4459299999999988
 20
29.461600000000001
 30
0.0
 70
    32
  0
VERTEX
  5
81C
  8
EBENE_1
 62
     7
 10
2.4459299999999988
 20
29.461600000000001
 30
0.0
 70
    32
  0
VERTEX
  5
81D
  8
EBENE_1
 62
     7
 10
2.4459299999999988
 20
29.461600000000001
 30
0.0
 70
    32
  0
VERTEX
  5
81E
  8
EBENE_1
 62
     7
 10
2.4459299999999988
 20
29.461600000000001
 30
0.0
 70
    32
  0
VERTEX
  5
81F
  8
EBENE_1
 62
     7
 10
2.4459299999999988
 20
29.461600000000001
 30
0.0
 70
    32
  0
VERTEX
  5
820
  8
EBENE_1
 62
     7
 10
2.4459299999999988
 20
29.461600000000001
 30
0.0
 70
    32
  0
VERTEX
  5
821
  8
EBENE_1
 62
     7
 10
2.4459299999999988
 20
29.461600000000001
 30
0.0
 70
    32
  0
VERTEX
  5
822
  8
EBENE_1
 62
     7
 10
2.4459299999999988
 20
29.461600000000001
 30
0.0
 70
    32
  0
VERTEX
  5
823
  8
EBENE_1
 62
     7
 10
2.4459299999999988
 20
29.461600000000001
 30
0.0
 70
    32
  0
VERTEX
  5
824
  8
EBENE_1
 62
     7
 10
2.4459299999999988
 20
29.461600000000001
 30
0.0
 70
    32
  0
VERTEX
  5
825
  8
EBENE_1
 62
     7
 10
2.4459299999999988
 20
29.461600000000001
 30
0.0
 70
    32
  0
VERTEX
  5
826
  8
EBENE_1
 62
     7
 10
2.4459299999999988
 20
29.461600000000001
 30
0.0
 70
    32
  0
VERTEX
  5
827
  8
EBENE_1
 62
     7
 10
2.4459299999999988
 20
29.461600000000001
 30
0.0
 70
    32
  0
VERTEX
  5
828
  8
EBENE_1
 62
     7
 10
2.4459299999999988
 20
29.461600000000001
 30
0.0
 70
    32
  0
VERTEX
  5
829
  8
EBENE_1
 62
     7
 10
2.4459299999999988
 20
29.461600000000001
 30
0.0
 70
    32
  0
VERTEX
  5
82A
  8
EBENE_1
 62
     7
 10
2.4459299999999988
 20
29.461600000000001
 30
0.0
 70
    32
  0
VERTEX
  5
82B
  8
EBENE_1
 62
     7
 10
2.4459299999999988
 20
29.461600000000001
 30
0.0
 70
    32
  0
VERTEX
  5
82C
  8
EBENE_1
 62
     7
 10
2.4459299999999988
 20
29.461600000000001
 30
0.0
 70
    32
  0
VERTEX
  5
82D
  8
EBENE_1
 62
     7
 10
2.4459299999999988
 20
29.461600000000001
 30
0.0
 70
    32
  0
VERTEX
  5
82E
  8
EBENE_1
 62
     7
 10
2.4459299999999988
 20
29.461600000000001
 30
0.0
 70
    32
  0
VERTEX
  5
82F
  8
EBENE_1
 62
     7
 10
2.4459299999999988
 20
29.461600000000001
 30
0.0
 70
    32
  0
VERTEX
  5
830
  8
EBENE_1
 62
     7
 10
2.4459299999999988
 20
29.461600000000001
 30
0.0
 70
    32
  0
VERTEX
  5
831
  8
EBENE_1
 62
     7
 10
2.4459299999999988
 20
29.461600000000001
 30
0.0
 70
    32
  0
VERTEX
  5
832
  8
EBENE_1
 62
     7
 10
2.4459299999999988
 20
29.461600000000001
 30
0.0
 70
    32
  0
VERTEX
  5
833
  8
EBENE_1
 62
     7
 10
2.4459299999999988
 20
29.461600000000001
 30
0.0
 70
    32
  0
VERTEX
  5
834
  8
EBENE_1
 62
     7
 10
2.4459299999999988
 20
29.461600000000001
 30
0.0
 70
    32
  0
VERTEX
  5
835
  8
EBENE_1
 62
     7
 10
2.4459299999999988
 20
29.461600000000001
 30
0.0
 70
    32
  0
VERTEX
  5
836
  8
EBENE_1
 62
     7
 10
2.4459299999999988
 20
29.461600000000001
 30
0.0
 70
    32
  0
VERTEX
  5
837
  8
EBENE_1
 62
     7
 10
2.4459299999999988
 20
29.461600000000001
 30
0.0
 70
    32
  0
VERTEX
  5
838
  8
EBENE_1
 62
     7
 10
2.4459299999999988
 20
29.461600000000001
 30
0.0
 70
    32
  0
VERTEX
  5
839
  8
EBENE_1
 62
     7
 10
2.4459299999999988
 20
29.461600000000001
 30
0.0
 70
    32
  0
VERTEX
  5
83A
  8
EBENE_1
 62
     7
 10
2.4459299999999988
 20
29.461600000000001
 30
0.0
 70
    32
  0
VERTEX
  5
83B
  8
EBENE_1
 62
     7
 10
2.4459299999999988
 20
29.461600000000001
 30
0.0
 70
    32
  0
VERTEX
  5
83C
  8
EBENE_1
 62
     7
 10
2.4459299999999988
 20
29.461600000000001
 30
0.0
 70
    32
  0
VERTEX
  5
83D
  8
EBENE_1
 62
     7
 10
2.4459299999999988
 20
29.461600000000001
 30
0.0
 70
    32
  0
VERTEX
  5
83E
  8
EBENE_1
 62
     7
 10
2.4459299999999988
 20
29.461600000000001
 30
0.0
 70
    32
  0
VERTEX
  5
83F
  8
EBENE_1
 62
     7
 10
2.4459299999999988
 20
29.461600000000001
 30
0.0
 70
    32
  0
VERTEX
  5
840
  8
EBENE_1
 62
     7
 10
2.4459299999999988
 20
29.461600000000001
 30
0.0
 70
    32
  0
VERTEX
  5
841
  8
EBENE_1
 62
     7
 10
2.4459299999999988
 20
29.461600000000001
 30
0.0
 70
    32
  0
VERTEX
  5
842
  8
EBENE_1
 62
     7
 10
2.4459299999999988
 20
29.461600000000001
 30
0.0
 70
    32
  0
VERTEX
  5
843
  8
EBENE_1
 62
     7
 10
2.4459299999999988
 20
29.461600000000001
 30
0.0
 70
    32
  0
VERTEX
  5
844
  8
EBENE_1
 62
     7
 10
2.4459299999999988
 20
29.461600000000001
 30
0.0
 70
    32
  0
VERTEX
  5
845
  8
EBENE_1
 62
     7
 10
2.4459299999999988
 20
29.461600000000001
 30
0.0
 70
    32
  0
VERTEX
  5
846
  8
EBENE_1
 62
     7
 10
2.4459299999999988
 20
29.461600000000001
 30
0.0
 70
    32
  0
VERTEX
  5
847
  8
EBENE_1
 62
     7
 10
2.4459299999999988
 20
29.461600000000001
 30
0.0
 70
    32
  0
VERTEX
  5
848
  8
EBENE_1
 62
     7
 10
2.4459299999999988
 20
29.461600000000001
 30
0.0
 70
    32
  0
VERTEX
  5
849
  8
EBENE_1
 62
     7
 10
2.4459299999999988
 20
29.461600000000001
 30
0.0
 70
    32
  0
VERTEX
  5
84A
  8
EBENE_1
 62
     7
 10
2.4459299999999988
 20
29.461600000000001
 30
0.0
 70
    32
  0
VERTEX
  5
84B
  8
EBENE_1
 62
     7
 10
2.4459299999999988
 20
29.461600000000001
 30
0.0
 70
    32
  0
VERTEX
  5
84C
  8
EBENE_1
 62
     7
 10
2.4459299999999988
 20
29.461600000000001
 30
0.0
 70
    32
  0
VERTEX
  5
84D
  8
EBENE_1
 62
     7
 10
2.4459299999999988
 20
29.461600000000001
 30
0.0
 70
    32
  0
VERTEX
  5
84E
  8
EBENE_1
 62
     7
 10
2.4459299999999988
 20
29.461600000000001
 30
0.0
 70
    32
  0
VERTEX
  5
84F
  8
EBENE_1
 62
     7
 10
2.4459299999999988
 20
29.461600000000001
 30
0.0
 70
    32
  0
VERTEX
  5
850
  8
EBENE_1
 62
     7
 10
2.4459299999999988
 20
29.461600000000001
 30
0.0
 70
    32
  0
VERTEX
  5
851
  8
EBENE_1
 62
     7
 10
2.4459299999999988
 20
29.461600000000001
 30
0.0
 70
    32
  0
VERTEX
  5
852
  8
EBENE_1
 62
     7
 10
2.4459299999999988
 20
29.461600000000001
 30
0.0
 70
    32
  0
VERTEX
  5
853
  8
EBENE_1
 62
     7
 10
2.4459299999999988
 20
29.461600000000001
 30
0.0
 70
    32
  0
VERTEX
  5
854
  8
EBENE_1
 62
     7
 10
2.4459299999999988
 20
29.461600000000001
 30
0.0
 70
    32
  0
VERTEX
  5
855
  8
EBENE_1
 62
     7
 10
2.4459299999999988
 20
29.461600000000001
 30
0.0
 70
    32
  0
VERTEX
  5
856
  8
EBENE_1
 62
     7
 10
2.4459299999999988
 20
29.461600000000001
 30
0.0
 70
    32
  0
VERTEX
  5
857
  8
EBENE_1
 62
     7
 10
2.4459299999999988
 20
29.461600000000001
 30
0.0
 70
    32
  0
VERTEX
  5
858
  8
EBENE_1
 62
     7
 10
2.4459299999999988
 20
29.461600000000001
 30
0.0
 70
    32
  0
VERTEX
  5
859
  8
EBENE_1
 62
     7
 10
2.4459299999999988
 20
29.461600000000001
 30
0.0
 70
    32
  0
VERTEX
  5
85A
  8
EBENE_1
 62
     7
 10
2.4459299999999988
 20
29.461600000000001
 30
0.0
 70
    32
  0
VERTEX
  5
85B
  8
EBENE_1
 62
     7
 10
2.4459299999999988
 20
29.461600000000001
 30
0.0
 70
    32
  0
VERTEX
  5
85C
  8
EBENE_1
 62
     7
 10
2.4459299999999988
 20
29.461600000000001
 30
0.0
 70
    32
  0
VERTEX
  5
85D
  8
EBENE_1
 62
     7
 10
2.4459299999999988
 20
29.461600000000001
 30
0.0
 70
    32
  0
VERTEX
  5
85E
  8
EBENE_1
 62
     7
 10
2.4459299999999988
 20
29.461600000000001
 30
0.0
 70
    32
  0
VERTEX
  5
85F
  8
EBENE_1
 62
     7
 10
2.4459299999999988
 20
29.461600000000001
 30
0.0
 70
    32
  0
VERTEX
  5
860
  8
EBENE_1
 62
     7
 10
2.4459299999999988
 20
29.461600000000001
 30
0.0
 70
    32
  0
VERTEX
  5
861
  8
EBENE_1
 62
     7
 10
2.4459299999999988
 20
29.461600000000001
 30
0.0
 70
    32
  0
VERTEX
  5
862
  8
EBENE_1
 62
     7
 10
2.4459299999999988
 20
29.461600000000001
 30
0.0
 70
    32
  0
VERTEX
  5
863
  8
EBENE_1
 62
     7
 10
2.4459299999999988
 20
29.461600000000001
 30
0.0
 70
    32
  0
VERTEX
  5
864
  8
EBENE_1
 62
     7
 10
2.4459299999999988
 20
29.461600000000001
 30
0.0
 70
    32
  0
VERTEX
  5
865
  8
EBENE_1
 62
     7
 10
2.4459299999999988
 20
29.461600000000001
 30
0.0
 70
    32
  0
VERTEX
  5
866
  8
EBENE_1
 62
     7
 10
2.4459299999999988
 20
29.461600000000001
 30
0.0
 70
    32
  0
VERTEX
  5
867
  8
EBENE_1
 62
     7
 10
2.4459299999999988
 20
29.461600000000001
 30
0.0
 70
    32
  0
VERTEX
  5
868
  8
EBENE_1
 62
     7
 10
2.4459299999999988
 20
29.461600000000001
 30
0.0
 70
    32
  0
VERTEX
  5
869
  8
EBENE_1
 62
     7
 10
2.4459299999999988
 20
29.461600000000001
 30
0.0
 70
    32
  0
VERTEX
  5
86A
  8
EBENE_1
 62
     7
 10
2.4459299999999988
 20
29.461600000000001
 30
0.0
 70
    32
  0
SEQEND
  5
86B
  8
EBENE_1
 62
     7
  0
POLYLINE
  5
68
  8
EBENE_1
 62
     7
 66
     1
 10
0.0
 20
0.0
 30
0.0
  0
VERTEX
  5
CAD
  8
EBENE_1
 62
     7
 10
10.665240478515621
 20
30.990184190538191
 30
0.0
  0
VERTEX
  5
CAE
  8
EBENE_1
 62
     7
 10
11.12206013997395
 20
32.006659613715271
 30
0.0
  0
VERTEX
  5
CAF
  8
EBENE_1
 62
     7
 10
11.12206013997395
 20
26.92617730034722
 30
0.0
  0
SEQEND
  5
CB0
  8
EBENE_1
 62
     7
  0
LINE
  5
67
  8
EBENE_1
 62
     7
 10
10.777550591362839
 20
26.916531032986111
 30
0.0
 11
11.44107598198784
 21
26.916531032986111
 31
0.0
  0
POLYLINE
  5
86C
  8
EBENE_1
 62
     7
 66
     1
 10
0.0
 20
0.0
 30
0.0
 70
     8
  0
VERTEX
  5
86D
  8
EBENE_1
 62
     7
 10
-42.003700000000002
 20
-1.637629999999999
 30
0.0
 70
    32
  0
VERTEX
  5
86E
  8
EBENE_1
 62
     7
 10
-42.003700000000002
 20
-1.6371299999999991
 30
0.0
 70
    32
  0
VERTEX
  5
86F
  8
EBENE_1
 62
     7
 10
-42.003700000000002
 20
-1.6356399999999991
 30
0.0
 70
    32
  0
VERTEX
  5
870
  8
EBENE_1
 62
     7
 10
-42.003700000000002
 20
-1.633179999999999
 30
0.0
 70
    32
  0
VERTEX
  5
871
  8
EBENE_1
 62
     7
 10
-42.003700000000002
 20
-1.62978
 30
0.0
 70
    32
  0
VERTEX
  5
872
  8
EBENE_1
 62
     7
 10
-42.003700000000002
 20
-1.62544
 30
0.0
 70
    32
  0
VERTEX
  5
873
  8
EBENE_1
 62
     7
 10
-42.003700000000002
 20
-1.6201799999999991
 30
0.0
 70
    32
  0
VERTEX
  5
874
  8
EBENE_1
 62
     7
 10
-42.003700000000002
 20
-1.614029999999999
 30
0.0
 70
    32
  0
VERTEX
  5
875
  8
EBENE_1
 62
     7
 10
-42.003700000000002
 20
-1.607
 30
0.0
 70
    32
  0
VERTEX
  5
876
  8
EBENE_1
 62
     7
 10
-42.003700000000002
 20
-1.5990999999999991
 30
0.0
 70
    32
  0
VERTEX
  5
877
  8
EBENE_1
 62
     7
 10
-42.003700000000002
 20
-1.5903700000000001
 30
0.0
 70
    32
  0
VERTEX
  5
878
  8
EBENE_1
 62
     7
 10
-42.003700000000002
 20
-1.58081
 30
0.0
 70
    32
  0
VERTEX
  5
879
  8
EBENE_1
 62
     7
 10
-42.003700000000002
 20
-1.5704400000000001
 30
0.0
 70
    32
  0
VERTEX
  5
87A
  8
EBENE_1
 62
     7
 10
-42.003700000000002
 20
-1.5592900000000001
 30
0.0
 70
    32
  0
VERTEX
  5
87B
  8
EBENE_1
 62
     7
 10
-42.003700000000002
 20
-1.5473600000000001
 30
0.0
 70
    32
  0
VERTEX
  5
87C
  8
EBENE_1
 62
     7
 10
-42.003700000000002
 20
-1.5346799999999989
 30
0.0
 70
    32
  0
VERTEX
  5
87D
  8
EBENE_1
 62
     7
 10
-42.003700000000002
 20
-1.5212600000000001
 30
0.0
 70
    32
  0
VERTEX
  5
87E
  8
EBENE_1
 62
     7
 10
-42.003700000000002
 20
-1.507129999999999
 30
0.0
 70
    32
  0
VERTEX
  5
87F
  8
EBENE_1
 62
     7
 10
-42.003700000000002
 20
-1.4923
 30
0.0
 70
    32
  0
VERTEX
  5
880
  8
EBENE_1
 62
     7
 10
-42.003700000000002
 20
-1.47679
 30
0.0
 70
    32
  0
VERTEX
  5
881
  8
EBENE_1
 62
     7
 10
-42.003700000000002
 20
-1.46062
 30
0.0
 70
    32
  0
VERTEX
  5
882
  8
EBENE_1
 62
     7
 10
-42.003700000000002
 20
-1.4437999999999991
 30
0.0
 70
    32
  0
VERTEX
  5
883
  8
EBENE_1
 62
     7
 10
-42.003700000000002
 20
-1.4263600000000001
 30
0.0
 70
    32
  0
VERTEX
  5
884
  8
EBENE_1
 62
     7
 10
-42.003700000000002
 20
-1.4083000000000001
 30
0.0
 70
    32
  0
VERTEX
  5
885
  8
EBENE_1
 62
     7
 10
-42.003700000000002
 20
-1.3896599999999999
 30
0.0
 70
    32
  0
VERTEX
  5
886
  8
EBENE_1
 62
     7
 10
-42.003700000000002
 20
-1.370439999999999
 30
0.0
 70
    32
  0
VERTEX
  5
887
  8
EBENE_1
 62
     7
 10
-42.003700000000002
 20
-1.35067
 30
0.0
 70
    32
  0
VERTEX
  5
888
  8
EBENE_1
 62
     7
 10
-42.003700000000002
 20
-1.3303700000000001
 30
0.0
 70
    32
  0
VERTEX
  5
889
  8
EBENE_1
 62
     7
 10
-42.003700000000002
 20
-1.309539999999999
 30
0.0
 70
    32
  0
VERTEX
  5
88A
  8
EBENE_1
 62
     7
 10
-42.003700000000002
 20
-1.2882199999999999
 30
0.0
 70
    32
  0
VERTEX
  5
88B
  8
EBENE_1
 62
     7
 10
-42.003700000000002
 20
-1.26641
 30
0.0
 70
    32
  0
VERTEX
  5
88C
  8
EBENE_1
 62
     7
 10
-42.003700000000002
 20
-1.24414
 30
0.0
 70
    32
  0
VERTEX
  5
88D
  8
EBENE_1
 62
     7
 10
-42.003700000000002
 20
-1.22142
 30
0.0
 70
    32
  0
VERTEX
  5
88E
  8
EBENE_1
 62
     7
 10
-42.003700000000002
 20
-1.1982699999999999
 30
0.0
 70
    32
  0
VERTEX
  5
88F
  8
EBENE_1
 62
     7
 10
-42.003700000000002
 20
-1.1747099999999999
 30
0.0
 70
    32
  0
VERTEX
  5
890
  8
EBENE_1
 62
     7
 10
-42.003700000000002
 20
-1.15076
 30
0.0
 70
    32
  0
VERTEX
  5
891
  8
EBENE_1
 62
     7
 10
-42.003700000000002
 20
-1.126439999999999
 30
0.0
 70
    32
  0
VERTEX
  5
892
  8
EBENE_1
 62
     7
 10
-42.003700000000002
 20
-1.1017600000000001
 30
0.0
 70
    32
  0
VERTEX
  5
893
  8
EBENE_1
 62
     7
 10
-42.003700000000002
 20
-1.07674
 30
0.0
 70
    32
  0
VERTEX
  5
894
  8
EBENE_1
 62
     7
 10
-42.003700000000002
 20
-1.0514099999999991
 30
0.0
 70
    32
  0
VERTEX
  5
895
  8
EBENE_1
 62
     7
 10
-42.003700000000002
 20
-1.0257700000000001
 30
0.0
 70
    32
  0
VERTEX
  5
896
  8
EBENE_1
 62
     7
 10
-42.003700000000002
 20
-0.9998419999999999
 30
0.0
 70
    32
  0
VERTEX
  5
897
  8
EBENE_1
 62
     7
 10
-42.003700000000002
 20
-0.973652
 30
0.0
 70
    32
  0
VERTEX
  5
898
  8
EBENE_1
 62
     7
 10
-42.003700000000002
 20
-0.9472139999999999
 30
0.0
 70
    32
  0
VERTEX
  5
899
  8
EBENE_1
 62
     7
 10
-42.003700000000002
 20
-0.9205469999999998
 30
0.0
 70
    32
  0
VERTEX
  5
89A
  8
EBENE_1
 62
     7
 10
-42.003700000000002
 20
-0.893668
 30
0.0
 70
    32
  0
VERTEX
  5
89B
  8
EBENE_1
 62
     7
 10
-42.003700000000002
 20
-0.866594
 30
0.0
 70
    32
  0
VERTEX
  5
89C
  8
EBENE_1
 62
     7
 10
-42.003700000000002
 20
-0.8393450000000001
 30
0.0
 70
    32
  0
VERTEX
  5
89D
  8
EBENE_1
 62
     7
 10
-42.003700000000002
 20
-0.811939
 30
0.0
 70
    32
  0
VERTEX
  5
89E
  8
EBENE_1
 62
     7
 10
-42.003700000000002
 20
-0.784392
 30
0.0
 70
    32
  0
VERTEX
  5
89F
  8
EBENE_1
 62
     7
 10
-42.003700000000002
 20
-0.756724
 30
0.0
 70
    32
  0
VERTEX
  5
8A0
  8
EBENE_1
 62
     7
 10
-42.003700000000002
 20
-0.7289520000000002
 30
0.0
 70
    32
  0
VERTEX
  5
8A1
  8
EBENE_1
 62
     7
 10
-42.003700000000002
 20
-0.7010950000000001
 30
0.0
 70
    32
  0
VERTEX
  5
8A2
  8
EBENE_1
 62
     7
 10
-42.003700000000002
 20
-0.6731689999999999
 30
0.0
 70
    32
  0
VERTEX
  5
8A3
  8
EBENE_1
 62
     7
 10
-42.003700000000002
 20
-0.645195
 30
0.0
 70
    32
  0
VERTEX
  5
8A4
  8
EBENE_1
 62
     7
 10
-42.003700000000002
 20
-0.617188
 30
0.0
 70
    32
  0
VERTEX
  5
8A5
  8
EBENE_1
 62
     7
 10
-42.003700000000002
 20
-0.5891690000000001
 30
0.0
 70
    32
  0
VERTEX
  5
8A6
  8
EBENE_1
 62
     7
 10
-42.003700000000002
 20
-0.5611530000000001
 30
0.0
 70
    32
  0
VERTEX
  5
8A7
  8
EBENE_1
 62
     7
 10
-42.003700000000002
 20
-0.5331600000000001
 30
0.0
 70
    32
  0
VERTEX
  5
8A8
  8
EBENE_1
 62
     7
 10
-42.003700000000002
 20
-0.5052080000000001
 30
0.0
 70
    32
  0
VERTEX
  5
8A9
  8
EBENE_1
 62
     7
 10
-42.003700000000002
 20
-0.4773150000000001
 30
0.0
 70
    32
  0
VERTEX
  5
8AA
  8
EBENE_1
 62
     7
 10
-42.003700000000002
 20
-0.449498
 30
0.0
 70
    32
  0
VERTEX
  5
8AB
  8
EBENE_1
 62
     7
 10
-42.003700000000002
 20
-0.4217750000000001
 30
0.0
 70
    32
  0
VERTEX
  5
8AC
  8
EBENE_1
 62
     7
 10
-42.003700000000002
 20
-0.394166
 30
0.0
 70
    32
  0
VERTEX
  5
8AD
  8
EBENE_1
 62
     7
 10
-42.003700000000002
 20
-0.366687
 30
0.0
 70
    32
  0
VERTEX
  5
8AE
  8
EBENE_1
 62
     7
 10
-42.003700000000002
 20
-0.339357
 30
0.0
 70
    32
  0
VERTEX
  5
8AF
  8
EBENE_1
 62
     7
 10
-42.003700000000002
 20
-0.312193
 30
0.0
 70
    32
  0
VERTEX
  5
8B0
  8
EBENE_1
 62
     7
 10
-42.003700000000002
 20
-0.285215
 30
0.0
 70
    32
  0
VERTEX
  5
8B1
  8
EBENE_1
 62
     7
 10
-42.003700000000002
 20
-0.258439
 30
0.0
 70
    32
  0
VERTEX
  5
8B2
  8
EBENE_1
 62
     7
 10
-42.003700000000002
 20
-0.231884
 30
0.0
 70
    32
  0
VERTEX
  5
8B3
  8
EBENE_1
 62
     7
 10
-42.003700000000002
 20
-0.205569
 30
0.0
 70
    32
  0
VERTEX
  5
8B4
  8
EBENE_1
 62
     7
 10
-42.003700000000002
 20
-0.17951
 30
0.0
 70
    32
  0
VERTEX
  5
8B5
  8
EBENE_1
 62
     7
 10
-42.003700000000002
 20
-0.153726
 30
0.0
 70
    32
  0
VERTEX
  5
8B6
  8
EBENE_1
 62
     7
 10
-42.003700000000002
 20
-0.128235
 30
0.0
 70
    32
  0
VERTEX
  5
8B7
  8
EBENE_1
 62
     7
 10
-42.003700000000002
 20
-0.103055
 30
0.0
 70
    32
  0
VERTEX
  5
8B8
  8
EBENE_1
 62
     7
 10
-42.003700000000002
 20
-0.078204
 30
0.0
 70
    32
  0
VERTEX
  5
8B9
  8
EBENE_1
 62
     7
 10
-42.003700000000002
 20
-0.0537002
 30
0.0
 70
    32
  0
VERTEX
  5
8BA
  8
EBENE_1
 62
     7
 10
-42.003700000000002
 20
-0.0295617
 30
0.0
 70
    32
  0
VERTEX
  5
8BB
  8
EBENE_1
 62
     7
 10
-42.003700000000002
 20
-0.00580622
 30
0.0
 70
    32
  0
VERTEX
  5
8BC
  8
EBENE_1
 62
     7
 10
-42.003700000000002
 20
0.017548
 30
0.0
 70
    32
  0
VERTEX
  5
8BD
  8
EBENE_1
 62
     7
 10
-42.003700000000002
 20
0.040483
 30
0.0
 70
    32
  0
VERTEX
  5
8BE
  8
EBENE_1
 62
     7
 10
-42.003700000000002
 20
0.0629808
 30
0.0
 70
    32
  0
VERTEX
  5
8BF
  8
EBENE_1
 62
     7
 10
-42.003700000000002
 20
0.0850232
 30
0.0
 70
    32
  0
VERTEX
  5
8C0
  8
EBENE_1
 62
     7
 10
-42.003700000000002
 20
0.106592
 30
0.0
 70
    32
  0
VERTEX
  5
8C1
  8
EBENE_1
 62
     7
 10
-42.003700000000002
 20
0.12767
 30
0.0
 70
    32
  0
VERTEX
  5
8C2
  8
EBENE_1
 62
     7
 10
-42.003700000000002
 20
0.148239
 30
0.0
 70
    32
  0
VERTEX
  5
8C3
  8
EBENE_1
 62
     7
 10
-42.003700000000002
 20
0.16828
 30
0.0
 70
    32
  0
VERTEX
  5
8C4
  8
EBENE_1
 62
     7
 10
-42.003700000000002
 20
0.187775
 30
0.0
 70
    32
  0
VERTEX
  5
8C5
  8
EBENE_1
 62
     7
 10
-42.003700000000002
 20
0.206707
 30
0.0
 70
    32
  0
VERTEX
  5
8C6
  8
EBENE_1
 62
     7
 10
-42.003700000000002
 20
0.225058
 30
0.0
 70
    32
  0
VERTEX
  5
8C7
  8
EBENE_1
 62
     7
 10
-42.003700000000002
 20
0.242809
 30
0.0
 70
    32
  0
VERTEX
  5
8C8
  8
EBENE_1
 62
     7
 10
-42.003700000000002
 20
0.259942
 30
0.0
 70
    32
  0
VERTEX
  5
8C9
  8
EBENE_1
 62
     7
 10
-42.003700000000002
 20
0.27644
 30
0.0
 70
    32
  0
VERTEX
  5
8CA
  8
EBENE_1
 62
     7
 10
-42.003700000000002
 20
0.292284
 30
0.0
 70
    32
  0
VERTEX
  5
8CB
  8
EBENE_1
 62
     7
 10
-42.003700000000002
 20
0.307457
 30
0.0
 70
    32
  0
VERTEX
  5
8CC
  8
EBENE_1
 62
     7
 10
-42.003700000000002
 20
0.32194
 30
0.0
 70
    32
  0
VERTEX
  5
8CD
  8
EBENE_1
 62
     7
 10
-42.003700000000002
 20
0.335715
 30
0.0
 70
    32
  0
VERTEX
  5
8CE
  8
EBENE_1
 62
     7
 10
-42.003700000000002
 20
0.348764
 30
0.0
 70
    32
  0
VERTEX
  5
8CF
  8
EBENE_1
 62
     7
 10
-42.003700000000002
 20
0.36107
 30
0.0
 70
    32
  0
VERTEX
  5
8D0
  8
EBENE_1
 62
     7
 10
-42.003700000000002
 20
0.372614
 30
0.0
 70
    32
  0
VERTEX
  5
8D1
  8
EBENE_1
 62
     7
 10
-42.003700000000002
 20
0.383377
 30
0.0
 70
    32
  0
VERTEX
  5
8D2
  8
EBENE_1
 62
     7
 10
-42.003700000000002
 20
0.393343
 30
0.0
 70
    32
  0
VERTEX
  5
8D3
  8
EBENE_1
 62
     7
 10
-42.003700000000002
 20
0.402494
 30
0.0
 70
    32
  0
VERTEX
  5
8D4
  8
EBENE_1
 62
     7
 10
-42.003700000000002
 20
0.4108100000000001
 30
0.0
 70
    32
  0
VERTEX
  5
8D5
  8
EBENE_1
 62
     7
 10
-42.003700000000002
 20
0.418274
 30
0.0
 70
    32
  0
VERTEX
  5
8D6
  8
EBENE_1
 62
     7
 10
-42.003700000000002
 20
0.4248680000000001
 30
0.0
 70
    32
  0
VERTEX
  5
8D7
  8
EBENE_1
 62
     7
 10
-42.003700000000002
 20
0.430574
 30
0.0
 70
    32
  0
VERTEX
  5
8D8
  8
EBENE_1
 62
     7
 10
-42.003700000000002
 20
0.4353740000000001
 30
0.0
 70
    32
  0
VERTEX
  5
8D9
  8
EBENE_1
 62
     7
 10
-42.003700000000002
 20
0.43925
 30
0.0
 70
    32
  0
VERTEX
  5
8DA
  8
EBENE_1
 62
     7
 10
-42.003700000000002
 20
0.4421840000000001
 30
0.0
 70
    32
  0
VERTEX
  5
8DB
  8
EBENE_1
 62
     7
 10
-42.003700000000002
 20
0.444158
 30
0.0
 70
    32
  0
VERTEX
  5
8DC
  8
EBENE_1
 62
     7
 10
-42.003700000000002
 20
0.445153
 30
0.0
 70
    32
  0
VERTEX
  5
8DD
  8
EBENE_1
 62
     7
 10
-41.991100000000003
 20
0.4417250000000001
 30
0.0
 70
    32
  0
VERTEX
  5
8DE
  8
EBENE_1
 62
     7
 10
-41.965099999999993
 20
0.434312
 30
0.0
 70
    32
  0
VERTEX
  5
8DF
  8
EBENE_1
 62
     7
 10
-41.937899999999992
 20
0.426497
 30
0.0
 70
    32
  0
VERTEX
  5
8E0
  8
EBENE_1
 62
     7
 10
-41.909700000000001
 20
0.41829
 30
0.0
 70
    32
  0
VERTEX
  5
8E1
  8
EBENE_1
 62
     7
 10
-41.880299999999998
 20
0.409701
 30
0.0
 70
    32
  0
VERTEX
  5
8E2
  8
EBENE_1
 62
     7
 10
-41.850000000000001
 20
0.40074
 30
0.0
 70
    32
  0
VERTEX
  5
8E3
  8
EBENE_1
 62
     7
 10
-41.818600000000004
 20
0.391415
 30
0.0
 70
    32
  0
VERTEX
  5
8E4
  8
EBENE_1
 62
     7
 10
-41.78609999999999
 20
0.381738
 30
0.0
 70
    32
  0
VERTEX
  5
8E5
  8
EBENE_1
 62
     7
 10
-41.752699999999997
 20
0.371716
 30
0.0
 70
    32
  0
VERTEX
  5
8E6
  8
EBENE_1
 62
     7
 10
-41.718299999999992
 20
0.361361
 30
0.0
 70
    32
  0
VERTEX
  5
8E7
  8
EBENE_1
 62
     7
 10
-41.683
 20
0.350681
 30
0.0
 70
    32
  0
VERTEX
  5
8E8
  8
EBENE_1
 62
     7
 10
-41.646700000000003
 20
0.339686
 30
0.0
 70
    32
  0
VERTEX
  5
8E9
  8
EBENE_1
 62
     7
 10
-41.6096
 20
0.328386
 30
0.0
 70
    32
  0
VERTEX
  5
8EA
  8
EBENE_1
 62
     7
 10
-41.5715
 20
0.316791
 30
0.0
 70
    32
  0
VERTEX
  5
8EB
  8
EBENE_1
 62
     7
 10
-41.532600000000002
 20
0.304909
 30
0.0
 70
    32
  0
VERTEX
  5
8EC
  8
EBENE_1
 62
     7
 10
-41.492800000000003
 20
0.292752
 30
0.0
 70
    32
  0
VERTEX
  5
8ED
  8
EBENE_1
 62
     7
 10
-41.452199999999998
 20
0.280327
 30
0.0
 70
    32
  0
VERTEX
  5
8EE
  8
EBENE_1
 62
     7
 10
-41.410800000000002
 20
0.267646
 30
0.0
 70
    32
  0
VERTEX
  5
8EF
  8
EBENE_1
 62
     7
 10
-41.368699999999997
 20
0.254717
 30
0.0
 70
    32
  0
VERTEX
  5
8F0
  8
EBENE_1
 62
     7
 10
-41.325699999999998
 20
0.24155
 30
0.0
 70
    32
  0
VERTEX
  5
8F1
  8
EBENE_1
 62
     7
 10
-41.2821
 20
0.228155
 30
0.0
 70
    32
  0
VERTEX
  5
8F2
  8
EBENE_1
 62
     7
 10
-41.23769999999999
 20
0.214541
 30
0.0
 70
    32
  0
VERTEX
  5
8F3
  8
EBENE_1
 62
     7
 10
-41.192599999999992
 20
0.200718
 30
0.0
 70
    32
  0
VERTEX
  5
8F4
  8
EBENE_1
 62
     7
 10
-41.146799999999992
 20
0.186696
 30
0.0
 70
    32
  0
VERTEX
  5
8F5
  8
EBENE_1
 62
     7
 10
-41.1004
 20
0.172484
 30
0.0
 70
    32
  0
VERTEX
  5
8F6
  8
EBENE_1
 62
     7
 10
-41.0533
 20
0.158092
 30
0.0
 70
    32
  0
VERTEX
  5
8F7
  8
EBENE_1
 62
     7
 10
-41.005699999999997
 20
0.14353
 30
0.0
 70
    32
  0
VERTEX
  5
8F8
  8
EBENE_1
 62
     7
 10
-40.9574
 20
0.128806
 30
0.0
 70
    32
  0
VERTEX
  5
8F9
  8
EBENE_1
 62
     7
 10
-40.9086
 20
0.113932
 30
0.0
 70
    32
  0
VERTEX
  5
8FA
  8
EBENE_1
 62
     7
 10
-40.859200000000001
 20
0.0989154
 30
0.0
 70
    32
  0
VERTEX
  5
8FB
  8
EBENE_1
 62
     7
 10
-40.8093
 20
0.0837671
 30
0.0
 70
    32
  0
VERTEX
  5
8FC
  8
EBENE_1
 62
     7
 10
-40.758800000000001
 20
0.0684963
 30
0.0
 70
    32
  0
VERTEX
  5
8FD
  8
EBENE_1
 62
     7
 10
-40.707900000000002
 20
0.0531127
 30
0.0
 70
    32
  0
VERTEX
  5
8FE
  8
EBENE_1
 62
     7
 10
-40.656500000000001
 20
0.037626
 30
0.0
 70
    32
  0
VERTEX
  5
8FF
  8
EBENE_1
 62
     7
 10
-40.604700000000001
 20
0.0220457
 30
0.0
 70
    32
  0
VERTEX
  5
900
  8
EBENE_1
 62
     7
 10
-40.552399999999999
 20
0.00638153
 30
0.0
 70
    32
  0
VERTEX
  5
901
  8
EBENE_1
 62
     7
 10
-40.4998
 20
-0.00935698
 30
0.0
 70
    32
  0
VERTEX
  5
902
  8
EBENE_1
 62
     7
 10
-40.446699999999993
 20
-0.0251602
 30
0.0
 70
    32
  0
VERTEX
  5
903
  8
EBENE_1
 62
     7
 10
-40.393300000000004
 20
-0.0410185
 30
0.0
 70
    32
  0
VERTEX
  5
904
  8
EBENE_1
 62
     7
 10
-40.33959999999999
 20
-0.0569222
 30
0.0
 70
    32
  0
VERTEX
  5
905
  8
EBENE_1
 62
     7
 10
-40.285499999999999
 20
-0.0728617
 30
0.0
 70
    32
  0
VERTEX
  5
906
  8
EBENE_1
 62
     7
 10
-40.231099999999991
 20
-0.0888275
 30
0.0
 70
    32
  0
VERTEX
  5
907
  8
EBENE_1
 62
     7
 10
-40.176400000000001
 20
-0.10481
 30
0.0
 70
    32
  0
VERTEX
  5
908
  8
EBENE_1
 62
     7
 10
-40.121499999999997
 20
-0.120799
 30
0.0
 70
    32
  0
VERTEX
  5
909
  8
EBENE_1
 62
     7
 10
-40.066399999999987
 20
-0.136786
 30
0.0
 70
    32
  0
VERTEX
  5
90A
  8
EBENE_1
 62
     7
 10
-40.011000000000003
 20
-0.15276
 30
0.0
 70
    32
  0
VERTEX
  5
90B
  8
EBENE_1
 62
     7
 10
-39.955399999999997
 20
-0.168713
 30
0.0
 70
    32
  0
VERTEX
  5
90C
  8
EBENE_1
 62
     7
 10
-39.899700000000003
 20
-0.184634
 30
0.0
 70
    32
  0
VERTEX
  5
90D
  8
EBENE_1
 62
     7
 10
-39.843800000000002
 20
-0.200514
 30
0.0
 70
    32
  0
VERTEX
  5
90E
  8
EBENE_1
 62
     7
 10
-39.787799999999997
 20
-0.216343
 30
0.0
 70
    32
  0
VERTEX
  5
90F
  8
EBENE_1
 62
     7
 10
-39.7316
 20
-0.232111
 30
0.0
 70
    32
  0
VERTEX
  5
910
  8
EBENE_1
 62
     7
 10
-39.67540000000001
 20
-0.24781
 30
0.0
 70
    32
  0
VERTEX
  5
911
  8
EBENE_1
 62
     7
 10
-39.61910000000001
 20
-0.263429
 30
0.0
 70
    32
  0
VERTEX
  5
912
  8
EBENE_1
 62
     7
 10
-39.5627
 20
-0.278959
 30
0.0
 70
    32
  0
VERTEX
  5
913
  8
EBENE_1
 62
     7
 10
-39.506300000000003
 20
-0.29439
 30
0.0
 70
    32
  0
VERTEX
  5
914
  8
EBENE_1
 62
     7
 10
-39.4499
 20
-0.309713
 30
0.0
 70
    32
  0
VERTEX
  5
915
  8
EBENE_1
 62
     7
 10
-39.393599999999999
 20
-0.324917
 30
0.0
 70
    32
  0
VERTEX
  5
916
  8
EBENE_1
 62
     7
 10
-39.337200000000003
 20
-0.339994
 30
0.0
 70
    32
  0
VERTEX
  5
917
  8
EBENE_1
 62
     7
 10
-39.280900000000003
 20
-0.354933
 30
0.0
 70
    32
  0
VERTEX
  5
918
  8
EBENE_1
 62
     7
 10
-39.224699999999999
 20
-0.369726
 30
0.0
 70
    32
  0
VERTEX
  5
919
  8
EBENE_1
 62
     7
 10
-39.168599999999998
 20
-0.3843619999999999
 30
0.0
 70
    32
  0
VERTEX
  5
91A
  8
EBENE_1
 62
     7
 10
-39.1126
 20
-0.398831
 30
0.0
 70
    32
  0
VERTEX
  5
91B
  8
EBENE_1
 62
     7
 10
-39.056699999999999
 20
-0.4131250000000001
 30
0.0
 70
    32
  0
VERTEX
  5
91C
  8
EBENE_1
 62
     7
 10
-39.000999999999998
 20
-0.4272330000000001
 30
0.0
 70
    32
  0
VERTEX
  5
91D
  8
EBENE_1
 62
     7
 10
-38.945500000000003
 20
-0.4411470000000001
 30
0.0
 70
    32
  0
VERTEX
  5
91E
  8
EBENE_1
 62
     7
 10
-38.890099999999997
 20
-0.4548560000000001
 30
0.0
 70
    32
  0
VERTEX
  5
91F
  8
EBENE_1
 62
     7
 10
-38.835000000000001
 20
-0.46835
 30
0.0
 70
    32
  0
VERTEX
  5
920
  8
EBENE_1
 62
     7
 10
-38.780200000000001
 20
-0.4816200000000001
 30
0.0
 70
    32
  0
VERTEX
  5
921
  8
EBENE_1
 62
     7
 10
-38.7256
 20
-0.494657
 30
0.0
 70
    32
  0
VERTEX
  5
922
  8
EBENE_1
 62
     7
 10
-38.671300000000002
 20
-0.507451
 30
0.0
 70
    32
  0
VERTEX
  5
923
  8
EBENE_1
 62
     7
 10
-38.6173
 20
-0.5199920000000001
 30
0.0
 70
    32
  0
VERTEX
  5
924
  8
EBENE_1
 62
     7
 10
-38.563600000000001
 20
-0.5322710000000001
 30
0.0
 70
    32
  0
VERTEX
  5
925
  8
EBENE_1
 62
     7
 10
-38.510199999999998
 20
-0.5442770000000001
 30
0.0
 70
    32
  0
VERTEX
  5
926
  8
EBENE_1
 62
     7
 10
-38.457299999999996
 20
-0.556002
 30
0.0
 70
    32
  0
VERTEX
  5
927
  8
EBENE_1
 62
     7
 10
-38.404699999999998
 20
-0.5674360000000001
 30
0.0
 70
    32
  0
VERTEX
  5
928
  8
EBENE_1
 62
     7
 10
-38.352499999999999
 20
-0.5785680000000001
 30
0.0
 70
    32
  0
VERTEX
  5
929
  8
EBENE_1
 62
     7
 10
-38.300800000000002
 20
-0.589391
 30
0.0
 70
    32
  0
VERTEX
  5
92A
  8
EBENE_1
 62
     7
 10
-38.249499999999998
 20
-0.599893
 30
0.0
 70
    32
  0
VERTEX
  5
92B
  8
EBENE_1
 62
     7
 10
-38.198700000000002
 20
-0.610065
 30
0.0
 70
    32
  0
VERTEX
  5
92C
  8
EBENE_1
 62
     7
 10
-38.148400000000002
 20
-0.619898
 30
0.0
 70
    32
  0
VERTEX
  5
92D
  8
EBENE_1
 62
     7
 10
-38.098599999999998
 20
-0.6293820000000001
 30
0.0
 70
    32
  0
VERTEX
  5
92E
  8
EBENE_1
 62
     7
 10
-38.049300000000002
 20
-0.638508
 30
0.0
 70
    32
  0
VERTEX
  5
92F
  8
EBENE_1
 62
     7
 10
-38.000599999999999
 20
-0.647265
 30
0.0
 70
    32
  0
VERTEX
  5
930
  8
EBENE_1
 62
     7
 10
-37.952399999999997
 20
-0.6556440000000001
 30
0.0
 70
    32
  0
VERTEX
  5
931
  8
EBENE_1
 62
     7
 10
-37.904899999999998
 20
-0.663636
 30
0.0
 70
    32
  0
VERTEX
  5
932
  8
EBENE_1
 62
     7
 10
-37.857999999999997
 20
-0.6712310000000001
 30
0.0
 70
    32
  0
VERTEX
  5
933
  8
EBENE_1
 62
     7
 10
-37.811700000000002
 20
-0.678419
 30
0.0
 70
    32
  0
VERTEX
  5
934
  8
EBENE_1
 62
     7
 10
-37.766100000000002
 20
-0.6851910000000001
 30
0.0
 70
    32
  0
VERTEX
  5
935
  8
EBENE_1
 62
     7
 10
-37.7211
 20
-0.691537
 30
0.0
 70
    32
  0
VERTEX
  5
936
  8
EBENE_1
 62
     7
 10
-37.676900000000003
 20
-0.6974470000000002
 30
0.0
 70
    32
  0
VERTEX
  5
937
  8
EBENE_1
 62
     7
 10
-37.633400000000002
 20
-0.702912
 30
0.0
 70
    32
  0
VERTEX
  5
938
  8
EBENE_1
 62
     7
 10
-37.590600000000002
 20
-0.707923
 30
0.0
 70
    32
  0
VERTEX
  5
939
  8
EBENE_1
 62
     7
 10
-37.5486
 20
-0.712469
 30
0.0
 70
    32
  0
VERTEX
  5
93A
  8
EBENE_1
 62
     7
 10
-37.507399999999997
 20
-0.71654
 30
0.0
 70
    32
  0
VERTEX
  5
93B
  8
EBENE_1
 62
     7
 10
-37.466999999999999
 20
-0.7201290000000001
 30
0.0
 70
    32
  0
VERTEX
  5
93C
  8
EBENE_1
 62
     7
 10
-37.427399999999999
 20
-0.723223
 30
0.0
 70
    32
  0
VERTEX
  5
93D
  8
EBENE_1
 62
     7
 10
-37.3887
 20
-0.725815
 30
0.0
 70
    32
  0
VERTEX
  5
93E
  8
EBENE_1
 62
     7
 10
-37.3508
 20
-0.727895
 30
0.0
 70
    32
  0
VERTEX
  5
93F
  8
EBENE_1
 62
     7
 10
-37.313800000000001
 20
-0.7294520000000001
 30
0.0
 70
    32
  0
VERTEX
  5
940
  8
EBENE_1
 62
     7
 10
-37.277799999999999
 20
-0.730478
 30
0.0
 70
    32
  0
VERTEX
  5
941
  8
EBENE_1
 62
     7
 10
-37.242699999999999
 20
-0.730962
 30
0.0
 70
    32
  0
VERTEX
  5
942
  8
EBENE_1
 62
     7
 10
-37.208500000000001
 20
-0.730895
 30
0.0
 70
    32
  0
VERTEX
  5
943
  8
EBENE_1
 62
     7
 10
-37.1753
 20
-0.730267
 30
0.0
 70
    32
  0
VERTEX
  5
944
  8
EBENE_1
 62
     7
 10
-37.143099999999997
 20
-0.7290700000000001
 30
0.0
 70
    32
  0
VERTEX
  5
945
  8
EBENE_1
 62
     7
 10
-37.111899999999999
 20
-0.7272920000000001
 30
0.0
 70
    32
  0
VERTEX
  5
946
  8
EBENE_1
 62
     7
 10
-37.081699999999998
 20
-0.724925
 30
0.0
 70
    32
  0
VERTEX
  5
947
  8
EBENE_1
 62
     7
 10
-37.052599999999998
 20
-0.7219590000000001
 30
0.0
 70
    32
  0
VERTEX
  5
948
  8
EBENE_1
 62
     7
 10
-37.0246
 20
-0.718384
 30
0.0
 70
    32
  0
VERTEX
  5
949
  8
EBENE_1
 62
     7
 10
-36.997700000000002
 20
-0.71419
 30
0.0
 70
    32
  0
VERTEX
  5
94A
  8
EBENE_1
 62
     7
 10
-36.971899999999998
 20
-0.7093689999999999
 30
0.0
 70
    32
  0
VERTEX
  5
94B
  8
EBENE_1
 62
     7
 10
-36.947299999999998
 20
-0.7039100000000002
 30
0.0
 70
    32
  0
VERTEX
  5
94C
  8
EBENE_1
 62
     7
 10
-36.9238
 20
-0.697804
 30
0.0
 70
    32
  0
SEQEND
  5
94D
  8
EBENE_1
 62
     7
  0
POLYLINE
  5
5B
  8
EBENE_1
 62
     7
 66
     1
 10
0.0
 20
0.0
 30
0.0
 70
     1
  0
VERTEX
  5
CA3
  8
EBENE_1
 62
     7
 10
-40.987765163845467
 20
4.8723985460069441
 30
0.0
  0
VERTEX
  5
CA4
  8
EBENE_1
 62
     7
 10
-42.003723822699627
 20
4.1864800347222211
 30
0.0
  0
VERTEX
  5
CA5
  8
EBENE_1
 62
     7
 10
-42.003723822699627
 20
3.5007337782118042
 30
0.0
  0
VERTEX
  5
CA6
  8
EBENE_1
 62
     7
 10
-40.987765163845467
 20
2.7894938151041662
 30
0.0
  0
VERTEX
  5
CA7
  8
EBENE_1
 62
     7
 10
-37.939716932508667
 20
2.7894938151041662
 30
0.0
  0
VERTEX
  5
CA8
  8
EBENE_1
 62
     7
 10
-36.923758273654506
 20
3.5007337782118042
 30
0.0
  0
VERTEX
  5
CA9
  8
EBENE_1
 62
     7
 10
-36.923758273654506
 20
4.1864800347222211
 30
0.0
  0
VERTEX
  5
CAA
  8
EBENE_1
 62
     7
 10
-37.939716932508667
 20
4.8723985460069441
 30
0.0
  0
VERTEX
  5
CAB
  8
EBENE_1
 62
     7
 10
-40.987765163845467
 20
4.8723985460069441
 30
0.0
  0
SEQEND
  5
CAC
  8
EBENE_1
 62
     7
  0
POLYLINE
  5
56
  8
EBENE_1
 62
     7
 66
     1
 10
0.0
 20
0.0
 30
0.0
  0
VERTEX
  5
C9F
  8
EBENE_1
 62
     7
 10
-40.992416042751742
 20
-4.831918674045137
 30
0.0
  0
VERTEX
  5
CA0
  8
EBENE_1
 62
     7
 10
-42.008719211154499
 20
-4.375099012586805
 30
0.0
  0
VERTEX
  5
CA1
  8
EBENE_1
 62
     7
 10
-36.928236897786448
 20
-4.375099012586805
 30
0.0
  0
SEQEND
  5
CA2
  8
EBENE_1
 62
     7
  0
LINE
  5
55
  8
EBENE_1
 62
     7
 10
-36.918590630425342
 20
-4.7196085611979148
 30
0.0
 11
-36.918590630425342
 21
-4.056083170572915
 31
0.0
  0
POLYLINE
  5
94E
  8
EBENE_1
 62
     7
 66
     1
 10
0.0
 20
0.0
 30
0.0
 70
     8
  0
VERTEX
  5
94F
  8
EBENE_1
 62
     7
 10
-12.4336
 20
-24.363499999999998
 30
0.0
 70
    32
  0
VERTEX
  5
950
  8
EBENE_1
 62
     7
 10
-12.4331
 20
-24.363499999999998
 30
0.0
 70
    32
  0
VERTEX
  5
951
  8
EBENE_1
 62
     7
 10
-12.4316
 20
-24.363499999999998
 30
0.0
 70
    32
  0
VERTEX
  5
952
  8
EBENE_1
 62
     7
 10
-12.4292
 20
-24.363499999999998
 30
0.0
 70
    32
  0
VERTEX
  5
953
  8
EBENE_1
 62
     7
 10
-12.425800000000001
 20
-24.363499999999998
 30
0.0
 70
    32
  0
VERTEX
  5
954
  8
EBENE_1
 62
     7
 10
-12.4214
 20
-24.363499999999998
 30
0.0
 70
    32
  0
VERTEX
  5
955
  8
EBENE_1
 62
     7
 10
-12.4162
 20
-24.363499999999998
 30
0.0
 70
    32
  0
VERTEX
  5
956
  8
EBENE_1
 62
     7
 10
-12.41
 20
-24.363499999999998
 30
0.0
 70
    32
  0
VERTEX
  5
957
  8
EBENE_1
 62
     7
 10
-12.403
 20
-24.363499999999998
 30
0.0
 70
    32
  0
VERTEX
  5
958
  8
EBENE_1
 62
     7
 10
-12.395099999999999
 20
-24.363499999999998
 30
0.0
 70
    32
  0
VERTEX
  5
959
  8
EBENE_1
 62
     7
 10
-12.3864
 20
-24.363499999999998
 30
0.0
 70
    32
  0
VERTEX
  5
95A
  8
EBENE_1
 62
     7
 10
-12.376799999999999
 20
-24.363499999999998
 30
0.0
 70
    32
  0
VERTEX
  5
95B
  8
EBENE_1
 62
     7
 10
-12.366400000000001
 20
-24.363499999999998
 30
0.0
 70
    32
  0
VERTEX
  5
95C
  8
EBENE_1
 62
     7
 10
-12.3553
 20
-24.363499999999998
 30
0.0
 70
    32
  0
VERTEX
  5
95D
  8
EBENE_1
 62
     7
 10
-12.343299999999999
 20
-24.363499999999998
 30
0.0
 70
    32
  0
VERTEX
  5
95E
  8
EBENE_1
 62
     7
 10
-12.3307
 20
-24.363499999999998
 30
0.0
 70
    32
  0
VERTEX
  5
95F
  8
EBENE_1
 62
     7
 10
-12.3172
 20
-24.363499999999998
 30
0.0
 70
    32
  0
VERTEX
  5
960
  8
EBENE_1
 62
     7
 10
-12.303100000000001
 20
-24.363499999999998
 30
0.0
 70
    32
  0
VERTEX
  5
961
  8
EBENE_1
 62
     7
 10
-12.2883
 20
-24.363499999999998
 30
0.0
 70
    32
  0
VERTEX
  5
962
  8
EBENE_1
 62
     7
 10
-12.2728
 20
-24.363499999999998
 30
0.0
 70
    32
  0
VERTEX
  5
963
  8
EBENE_1
 62
     7
 10
-12.256600000000001
 20
-24.363499999999998
 30
0.0
 70
    32
  0
VERTEX
  5
964
  8
EBENE_1
 62
     7
 10
-12.239800000000001
 20
-24.363499999999998
 30
0.0
 70
    32
  0
VERTEX
  5
965
  8
EBENE_1
 62
     7
 10
-12.222300000000001
 20
-24.363499999999998
 30
0.0
 70
    32
  0
VERTEX
  5
966
  8
EBENE_1
 62
     7
 10
-12.2043
 20
-24.363499999999998
 30
0.0
 70
    32
  0
VERTEX
  5
967
  8
EBENE_1
 62
     7
 10
-12.185600000000001
 20
-24.363499999999998
 30
0.0
 70
    32
  0
VERTEX
  5
968
  8
EBENE_1
 62
     7
 10
-12.166399999999999
 20
-24.363499999999998
 30
0.0
 70
    32
  0
VERTEX
  5
969
  8
EBENE_1
 62
     7
 10
-12.146699999999999
 20
-24.363499999999998
 30
0.0
 70
    32
  0
VERTEX
  5
96A
  8
EBENE_1
 62
     7
 10
-12.126300000000001
 20
-24.363499999999998
 30
0.0
 70
    32
  0
VERTEX
  5
96B
  8
EBENE_1
 62
     7
 10
-12.105499999999999
 20
-24.363499999999998
 30
0.0
 70
    32
  0
VERTEX
  5
96C
  8
EBENE_1
 62
     7
 10
-12.084199999999999
 20
-24.363499999999998
 30
0.0
 70
    32
  0
VERTEX
  5
96D
  8
EBENE_1
 62
     7
 10
-12.0624
 20
-24.363499999999998
 30
0.0
 70
    32
  0
VERTEX
  5
96E
  8
EBENE_1
 62
     7
 10
-12.040100000000001
 20
-24.363499999999998
 30
0.0
 70
    32
  0
VERTEX
  5
96F
  8
EBENE_1
 62
     7
 10
-12.0174
 20
-24.363499999999998
 30
0.0
 70
    32
  0
VERTEX
  5
970
  8
EBENE_1
 62
     7
 10
-11.994300000000001
 20
-24.363499999999998
 30
0.0
 70
    32
  0
VERTEX
  5
971
  8
EBENE_1
 62
     7
 10
-11.970700000000001
 20
-24.363499999999998
 30
0.0
 70
    32
  0
VERTEX
  5
972
  8
EBENE_1
 62
     7
 10
-11.9467
 20
-24.363499999999998
 30
0.0
 70
    32
  0
VERTEX
  5
973
  8
EBENE_1
 62
     7
 10
-11.9224
 20
-24.363499999999998
 30
0.0
 70
    32
  0
VERTEX
  5
974
  8
EBENE_1
 62
     7
 10
-11.8977
 20
-24.363499999999998
 30
0.0
 70
    32
  0
VERTEX
  5
975
  8
EBENE_1
 62
     7
 10
-11.8727
 20
-24.363499999999998
 30
0.0
 70
    32
  0
VERTEX
  5
976
  8
EBENE_1
 62
     7
 10
-11.8474
 20
-24.363499999999998
 30
0.0
 70
    32
  0
VERTEX
  5
977
  8
EBENE_1
 62
     7
 10
-11.8217
 20
-24.363499999999998
 30
0.0
 70
    32
  0
VERTEX
  5
978
  8
EBENE_1
 62
     7
 10
-11.7958
 20
-24.363499999999998
 30
0.0
 70
    32
  0
VERTEX
  5
979
  8
EBENE_1
 62
     7
 10
-11.769600000000001
 20
-24.363499999999998
 30
0.0
 70
    32
  0
VERTEX
  5
97A
  8
EBENE_1
 62
     7
 10
-11.7432
 20
-24.363499999999998
 30
0.0
 70
    32
  0
VERTEX
  5
97B
  8
EBENE_1
 62
     7
 10
-11.7165
 20
-24.363499999999998
 30
0.0
 70
    32
  0
VERTEX
  5
97C
  8
EBENE_1
 62
     7
 10
-11.6896
 20
-24.363499999999998
 30
0.0
 70
    32
  0
VERTEX
  5
97D
  8
EBENE_1
 62
     7
 10
-11.662599999999999
 20
-24.363499999999998
 30
0.0
 70
    32
  0
VERTEX
  5
97E
  8
EBENE_1
 62
     7
 10
-11.635300000000001
 20
-24.363499999999998
 30
0.0
 70
    32
  0
VERTEX
  5
97F
  8
EBENE_1
 62
     7
 10
-11.607900000000001
 20
-24.363499999999998
 30
0.0
 70
    32
  0
VERTEX
  5
980
  8
EBENE_1
 62
     7
 10
-11.580399999999999
 20
-24.363499999999998
 30
0.0
 70
    32
  0
VERTEX
  5
981
  8
EBENE_1
 62
     7
 10
-11.5527
 20
-24.363499999999998
 30
0.0
 70
    32
  0
VERTEX
  5
982
  8
EBENE_1
 62
     7
 10
-11.524900000000001
 20
-24.363499999999998
 30
0.0
 70
    32
  0
VERTEX
  5
983
  8
EBENE_1
 62
     7
 10
-11.4971
 20
-24.363499999999998
 30
0.0
 70
    32
  0
VERTEX
  5
984
  8
EBENE_1
 62
     7
 10
-11.469200000000001
 20
-24.363499999999998
 30
0.0
 70
    32
  0
VERTEX
  5
985
  8
EBENE_1
 62
     7
 10
-11.4412
 20
-24.363499999999998
 30
0.0
 70
    32
  0
VERTEX
  5
986
  8
EBENE_1
 62
     7
 10
-11.4132
 20
-24.363499999999998
 30
0.0
 70
    32
  0
VERTEX
  5
987
  8
EBENE_1
 62
     7
 10
-11.385199999999999
 20
-24.363499999999998
 30
0.0
 70
    32
  0
VERTEX
  5
988
  8
EBENE_1
 62
     7
 10
-11.357100000000001
 20
-24.363499999999998
 30
0.0
 70
    32
  0
VERTEX
  5
989
  8
EBENE_1
 62
     7
 10
-11.3291
 20
-24.363499999999998
 30
0.0
 70
    32
  0
VERTEX
  5
98A
  8
EBENE_1
 62
     7
 10
-11.3012
 20
-24.363499999999998
 30
0.0
 70
    32
  0
VERTEX
  5
98B
  8
EBENE_1
 62
     7
 10
-11.273300000000001
 20
-24.363499999999998
 30
0.0
 70
    32
  0
VERTEX
  5
98C
  8
EBENE_1
 62
     7
 10
-11.2455
 20
-24.363499999999998
 30
0.0
 70
    32
  0
VERTEX
  5
98D
  8
EBENE_1
 62
     7
 10
-11.2178
 20
-24.363499999999998
 30
0.0
 70
    32
  0
VERTEX
  5
98E
  8
EBENE_1
 62
     7
 10
-11.190099999999999
 20
-24.363499999999998
 30
0.0
 70
    32
  0
VERTEX
  5
98F
  8
EBENE_1
 62
     7
 10
-11.162699999999999
 20
-24.363499999999998
 30
0.0
 70
    32
  0
VERTEX
  5
990
  8
EBENE_1
 62
     7
 10
-11.135300000000001
 20
-24.363499999999998
 30
0.0
 70
    32
  0
VERTEX
  5
991
  8
EBENE_1
 62
     7
 10
-11.1082
 20
-24.363499999999998
 30
0.0
 70
    32
  0
VERTEX
  5
992
  8
EBENE_1
 62
     7
 10
-11.081200000000001
 20
-24.363499999999998
 30
0.0
 70
    32
  0
VERTEX
  5
993
  8
EBENE_1
 62
     7
 10
-11.054399999999999
 20
-24.363499999999998
 30
0.0
 70
    32
  0
VERTEX
  5
994
  8
EBENE_1
 62
     7
 10
-11.027900000000001
 20
-24.363499999999998
 30
0.0
 70
    32
  0
VERTEX
  5
995
  8
EBENE_1
 62
     7
 10
-11.0016
 20
-24.363499999999998
 30
0.0
 70
    32
  0
VERTEX
  5
996
  8
EBENE_1
 62
     7
 10
-10.9755
 20
-24.363499999999998
 30
0.0
 70
    32
  0
VERTEX
  5
997
  8
EBENE_1
 62
     7
 10
-10.9497
 20
-24.363499999999998
 30
0.0
 70
    32
  0
VERTEX
  5
998
  8
EBENE_1
 62
     7
 10
-10.924200000000001
 20
-24.363499999999998
 30
0.0
 70
    32
  0
VERTEX
  5
999
  8
EBENE_1
 62
     7
 10
-10.898999999999999
 20
-24.363499999999998
 30
0.0
 70
    32
  0
VERTEX
  5
99A
  8
EBENE_1
 62
     7
 10
-10.8742
 20
-24.363499999999998
 30
0.0
 70
    32
  0
VERTEX
  5
99B
  8
EBENE_1
 62
     7
 10
-10.8497
 20
-24.363499999999998
 30
0.0
 70
    32
  0
VERTEX
  5
99C
  8
EBENE_1
 62
     7
 10
-10.8255
 20
-24.363499999999998
 30
0.0
 70
    32
  0
VERTEX
  5
99D
  8
EBENE_1
 62
     7
 10
-10.8018
 20
-24.363499999999998
 30
0.0
 70
    32
  0
VERTEX
  5
99E
  8
EBENE_1
 62
     7
 10
-10.7784
 20
-24.363499999999998
 30
0.0
 70
    32
  0
VERTEX
  5
99F
  8
EBENE_1
 62
     7
 10
-10.7555
 20
-24.363499999999998
 30
0.0
 70
    32
  0
VERTEX
  5
9A0
  8
EBENE_1
 62
     7
 10
-10.733000000000001
 20
-24.363499999999998
 30
0.0
 70
    32
  0
VERTEX
  5
9A1
  8
EBENE_1
 62
     7
 10
-10.711
 20
-24.363499999999998
 30
0.0
 70
    32
  0
VERTEX
  5
9A2
  8
EBENE_1
 62
     7
 10
-10.689399999999999
 20
-24.363499999999998
 30
0.0
 70
    32
  0
VERTEX
  5
9A3
  8
EBENE_1
 62
     7
 10
-10.6683
 20
-24.363499999999998
 30
0.0
 70
    32
  0
VERTEX
  5
9A4
  8
EBENE_1
 62
     7
 10
-10.6477
 20
-24.363499999999998
 30
0.0
 70
    32
  0
VERTEX
  5
9A5
  8
EBENE_1
 62
     7
 10
-10.627700000000001
 20
-24.363499999999998
 30
0.0
 70
    32
  0
VERTEX
  5
9A6
  8
EBENE_1
 62
     7
 10
-10.6082
 20
-24.363499999999998
 30
0.0
 70
    32
  0
VERTEX
  5
9A7
  8
EBENE_1
 62
     7
 10
-10.5893
 20
-24.363499999999998
 30
0.0
 70
    32
  0
VERTEX
  5
9A8
  8
EBENE_1
 62
     7
 10
-10.5709
 20
-24.363499999999998
 30
0.0
 70
    32
  0
VERTEX
  5
9A9
  8
EBENE_1
 62
     7
 10
-10.5532
 20
-24.363499999999998
 30
0.0
 70
    32
  0
VERTEX
  5
9AA
  8
EBENE_1
 62
     7
 10
-10.536
 20
-24.363499999999998
 30
0.0
 70
    32
  0
VERTEX
  5
9AB
  8
EBENE_1
 62
     7
 10
-10.519500000000001
 20
-24.363499999999998
 30
0.0
 70
    32
  0
VERTEX
  5
9AC
  8
EBENE_1
 62
     7
 10
-10.5037
 20
-24.363499999999998
 30
0.0
 70
    32
  0
VERTEX
  5
9AD
  8
EBENE_1
 62
     7
 10
-10.4885
 20
-24.363499999999998
 30
0.0
 70
    32
  0
VERTEX
  5
9AE
  8
EBENE_1
 62
     7
 10
-10.474
 20
-24.363499999999998
 30
0.0
 70
    32
  0
VERTEX
  5
9AF
  8
EBENE_1
 62
     7
 10
-10.4603
 20
-24.363499999999998
 30
0.0
 70
    32
  0
VERTEX
  5
9B0
  8
EBENE_1
 62
     7
 10
-10.4472
 20
-24.363499999999998
 30
0.0
 70
    32
  0
VERTEX
  5
9B1
  8
EBENE_1
 62
     7
 10
-10.434900000000001
 20
-24.363499999999998
 30
0.0
 70
    32
  0
VERTEX
  5
9B2
  8
EBENE_1
 62
     7
 10
-10.423400000000001
 20
-24.363499999999998
 30
0.0
 70
    32
  0
VERTEX
  5
9B3
  8
EBENE_1
 62
     7
 10
-10.412599999999999
 20
-24.363499999999998
 30
0.0
 70
    32
  0
VERTEX
  5
9B4
  8
EBENE_1
 62
     7
 10
-10.4026
 20
-24.363499999999998
 30
0.0
 70
    32
  0
VERTEX
  5
9B5
  8
EBENE_1
 62
     7
 10
-10.3935
 20
-24.363499999999998
 30
0.0
 70
    32
  0
VERTEX
  5
9B6
  8
EBENE_1
 62
     7
 10
-10.385199999999999
 20
-24.363499999999998
 30
0.0
 70
    32
  0
VERTEX
  5
9B7
  8
EBENE_1
 62
     7
 10
-10.377700000000001
 20
-24.363499999999998
 30
0.0
 70
    32
  0
VERTEX
  5
9B8
  8
EBENE_1
 62
     7
 10
-10.3711
 20
-24.363499999999998
 30
0.0
 70
    32
  0
VERTEX
  5
9B9
  8
EBENE_1
 62
     7
 10
-10.365399999999999
 20
-24.363499999999998
 30
0.0
 70
    32
  0
VERTEX
  5
9BA
  8
EBENE_1
 62
     7
 10
-10.3606
 20
-24.363499999999998
 30
0.0
 70
    32
  0
VERTEX
  5
9BB
  8
EBENE_1
 62
     7
 10
-10.3567
 20
-24.363499999999998
 30
0.0
 70
    32
  0
VERTEX
  5
9BC
  8
EBENE_1
 62
     7
 10
-10.3538
 20
-24.363499999999998
 30
0.0
 70
    32
  0
VERTEX
  5
9BD
  8
EBENE_1
 62
     7
 10
-10.351800000000001
 20
-24.363499999999998
 30
0.0
 70
    32
  0
VERTEX
  5
9BE
  8
EBENE_1
 62
     7
 10
-10.3508
 20
-24.363499999999998
 30
0.0
 70
    32
  0
VERTEX
  5
9BF
  8
EBENE_1
 62
     7
 10
-10.3543
 20
-24.376100000000001
 30
0.0
 70
    32
  0
VERTEX
  5
9C0
  8
EBENE_1
 62
     7
 10
-10.361700000000001
 20
-24.402200000000001
 30
0.0
 70
    32
  0
VERTEX
  5
9C1
  8
EBENE_1
 62
     7
 10
-10.3695
 20
-24.429300000000001
 30
0.0
 70
    32
  0
VERTEX
  5
9C2
  8
EBENE_1
 62
     7
 10
-10.377700000000001
 20
-24.457599999999999
 30
0.0
 70
    32
  0
VERTEX
  5
9C3
  8
EBENE_1
 62
     7
 10
-10.3863
 20
-24.486899999999999
 30
0.0
 70
    32
  0
VERTEX
  5
9C4
  8
EBENE_1
 62
     7
 10
-10.395300000000001
 20
-24.517299999999999
 30
0.0
 70
    32
  0
VERTEX
  5
9C5
  8
EBENE_1
 62
     7
 10
-10.4046
 20
-24.5487
 30
0.0
 70
    32
  0
VERTEX
  5
9C6
  8
EBENE_1
 62
     7
 10
-10.414300000000001
 20
-24.581099999999999
 30
0.0
 70
    32
  0
VERTEX
  5
9C7
  8
EBENE_1
 62
     7
 10
-10.424300000000001
 20
-24.6145
 30
0.0
 70
    32
  0
VERTEX
  5
9C8
  8
EBENE_1
 62
     7
 10
-10.434699999999999
 20
-24.648900000000001
 30
0.0
 70
    32
  0
VERTEX
  5
9C9
  8
EBENE_1
 62
     7
 10
-10.4453
 20
-24.684200000000001
 30
0.0
 70
    32
  0
VERTEX
  5
9CA
  8
EBENE_1
 62
     7
 10
-10.456300000000001
 20
-24.720400000000001
 30
0.0
 70
    32
  0
VERTEX
  5
9CB
  8
EBENE_1
 62
     7
 10
-10.467700000000001
 20
-24.7576
 30
0.0
 70
    32
  0
VERTEX
  5
9CC
  8
EBENE_1
 62
     7
 10
-10.4793
 20
-24.7957
 30
0.0
 70
    32
  0
VERTEX
  5
9CD
  8
EBENE_1
 62
     7
 10
-10.491099999999999
 20
-24.834599999999998
 30
0.0
 70
    32
  0
VERTEX
  5
9CE
  8
EBENE_1
 62
     7
 10
-10.503299999999999
 20
-24.874300000000002
 30
0.0
 70
    32
  0
VERTEX
  5
9CF
  8
EBENE_1
 62
     7
 10
-10.515700000000001
 20
-24.914899999999999
 30
0.0
 70
    32
  0
VERTEX
  5
9D0
  8
EBENE_1
 62
     7
 10
-10.5284
 20
-24.956299999999999
 30
0.0
 70
    32
  0
VERTEX
  5
9D1
  8
EBENE_1
 62
     7
 10
-10.5413
 20
-24.9985
 30
0.0
 70
    32
  0
VERTEX
  5
9D2
  8
EBENE_1
 62
     7
 10
-10.554500000000001
 20
-25.041399999999999
 30
0.0
 70
    32
  0
VERTEX
  5
9D3
  8
EBENE_1
 62
     7
 10
-10.5679
 20
-25.085100000000001
 30
0.0
 70
    32
  0
VERTEX
  5
9D4
  8
EBENE_1
 62
     7
 10
-10.5815
 20
-25.1294
 30
0.0
 70
    32
  0
VERTEX
  5
9D5
  8
EBENE_1
 62
     7
 10
-10.5954
 20
-25.174499999999998
 30
0.0
 70
    32
  0
VERTEX
  5
9D6
  8
EBENE_1
 62
     7
 10
-10.609400000000001
 20
-25.220300000000002
 30
0.0
 70
    32
  0
VERTEX
  5
9D7
  8
EBENE_1
 62
     7
 10
-10.6236
 20
-25.2667
 30
0.0
 70
    32
  0
VERTEX
  5
9D8
  8
EBENE_1
 62
     7
 10
-10.638
 20
-25.313800000000001
 30
0.0
 70
    32
  0
VERTEX
  5
9D9
  8
EBENE_1
 62
     7
 10
-10.6526
 20
-25.3614
 30
0.0
 70
    32
  0
VERTEX
  5
9DA
  8
EBENE_1
 62
     7
 10
-10.667299999999999
 20
-25.409700000000001
 30
0.0
 70
    32
  0
VERTEX
  5
9DB
  8
EBENE_1
 62
     7
 10
-10.6822
 20
-25.458500000000001
 30
0.0
 70
    32
  0
VERTEX
  5
9DC
  8
EBENE_1
 62
     7
 10
-10.6972
 20
-25.507899999999999
 30
0.0
 70
    32
  0
VERTEX
  5
9DD
  8
EBENE_1
 62
     7
 10
-10.712300000000001
 20
-25.5578
 30
0.0
 70
    32
  0
VERTEX
  5
9DE
  8
EBENE_1
 62
     7
 10
-10.727600000000001
 20
-25.6082
 30
0.0
 70
    32
  0
VERTEX
  5
9DF
  8
EBENE_1
 62
     7
 10
-10.743
 20
-25.659199999999998
 30
0.0
 70
    32
  0
VERTEX
  5
9E0
  8
EBENE_1
 62
     7
 10
-10.7585
 20
-25.7105
 30
0.0
 70
    32
  0
VERTEX
  5
9E1
  8
EBENE_1
 62
     7
 10
-10.774100000000001
 20
-25.7624
 30
0.0
 70
    32
  0
VERTEX
  5
9E2
  8
EBENE_1
 62
     7
 10
-10.7897
 20
-25.814599999999999
 30
0.0
 70
    32
  0
VERTEX
  5
9E3
  8
EBENE_1
 62
     7
 10
-10.8055
 20
-25.8673
 30
0.0
 70
    32
  0
VERTEX
  5
9E4
  8
EBENE_1
 62
     7
 10
-10.821300000000001
 20
-25.920300000000001
 30
0.0
 70
    32
  0
VERTEX
  5
9E5
  8
EBENE_1
 62
     7
 10
-10.837199999999999
 20
-25.973700000000001
 30
0.0
 70
    32
  0
VERTEX
  5
9E6
  8
EBENE_1
 62
     7
 10
-10.8531
 20
-26.0275
 30
0.0
 70
    32
  0
VERTEX
  5
9E7
  8
EBENE_1
 62
     7
 10
-10.869
 20
-26.081600000000002
 30
0.0
 70
    32
  0
VERTEX
  5
9E8
  8
EBENE_1
 62
     7
 10
-10.885
 20
-26.135899999999999
 30
0.0
 70
    32
  0
VERTEX
  5
9E9
  8
EBENE_1
 62
     7
 10
-10.901
 20
-26.1906
 30
0.0
 70
    32
  0
VERTEX
  5
9EA
  8
EBENE_1
 62
     7
 10
-10.917
 20
-26.2455
 30
0.0
 70
    32
  0
VERTEX
  5
9EB
  8
EBENE_1
 62
     7
 10
-10.9329
 20
-26.300699999999999
 30
0.0
 70
    32
  0
VERTEX
  5
9EC
  8
EBENE_1
 62
     7
 10
-10.9489
 20
-26.356000000000002
 30
0.0
 70
    32
  0
VERTEX
  5
9ED
  8
EBENE_1
 62
     7
 10
-10.9649
 20
-26.4116
 30
0.0
 70
    32
  0
VERTEX
  5
9EE
  8
EBENE_1
 62
     7
 10
-10.9808
 20
-26.467300000000002
 30
0.0
 70
    32
  0
VERTEX
  5
9EF
  8
EBENE_1
 62
     7
 10
-10.996700000000001
 20
-26.523199999999999
 30
0.0
 70
    32
  0
VERTEX
  5
9F0
  8
EBENE_1
 62
     7
 10
-11.012499999999999
 20
-26.5793
 30
0.0
 70
    32
  0
VERTEX
  5
9F1
  8
EBENE_1
 62
     7
 10
-11.0283
 20
-26.635400000000001
 30
0.0
 70
    32
  0
VERTEX
  5
9F2
  8
EBENE_1
 62
     7
 10
-11.044
 20
-26.691600000000001
 30
0.0
 70
    32
  0
VERTEX
  5
9F3
  8
EBENE_1
 62
     7
 10
-11.0596
 20
-26.747900000000001
 30
0.0
 70
    32
  0
VERTEX
  5
9F4
  8
EBENE_1
 62
     7
 10
-11.075100000000001
 20
-26.804300000000001
 30
0.0
 70
    32
  0
VERTEX
  5
9F5
  8
EBENE_1
 62
     7
 10
-11.0906
 20
-26.860700000000001
 30
0.0
 70
    32
  0
VERTEX
  5
9F6
  8
EBENE_1
 62
     7
 10
-11.1059
 20
-26.917100000000001
 30
0.0
 70
    32
  0
VERTEX
  5
9F7
  8
EBENE_1
 62
     7
 10
-11.1211
 20
-26.973500000000001
 30
0.0
 70
    32
  0
VERTEX
  5
9F8
  8
EBENE_1
 62
     7
 10
-11.136200000000001
 20
-27.029800000000002
 30
0.0
 70
    32
  0
VERTEX
  5
9F9
  8
EBENE_1
 62
     7
 10
-11.1511
 20
-27.086099999999998
 30
0.0
 70
    32
  0
VERTEX
  5
9FA
  8
EBENE_1
 62
     7
 10
-11.165900000000001
 20
-27.142299999999999
 30
0.0
 70
    32
  0
VERTEX
  5
9FB
  8
EBENE_1
 62
     7
 10
-11.1805
 20
-27.198399999999999
 30
0.0
 70
    32
  0
VERTEX
  5
9FC
  8
EBENE_1
 62
     7
 10
-11.195
 20
-27.2544
 30
0.0
 70
    32
  0
VERTEX
  5
9FD
  8
EBENE_1
 62
     7
 10
-11.209300000000001
 20
-27.310300000000002
 30
0.0
 70
    32
  0
VERTEX
  5
9FE
  8
EBENE_1
 62
     7
 10
-11.2234
 20
-27.366
 30
0.0
 70
    32
  0
VERTEX
  5
9FF
  8
EBENE_1
 62
     7
 10
-11.237299999999999
 20
-27.421500000000002
 30
0.0
 70
    32
  0
VERTEX
  5
A00
  8
EBENE_1
 62
     7
 10
-11.250999999999999
 20
-27.476800000000001
 30
0.0
 70
    32
  0
VERTEX
  5
A01
  8
EBENE_1
 62
     7
 10
-11.2645
 20
-27.5319
 30
0.0
 70
    32
  0
VERTEX
  5
A02
  8
EBENE_1
 62
     7
 10
-11.277799999999999
 20
-27.5868
 30
0.0
 70
    32
  0
VERTEX
  5
A03
  8
EBENE_1
 62
     7
 10
-11.290800000000001
 20
-27.641400000000001
 30
0.0
 70
    32
  0
VERTEX
  5
A04
  8
EBENE_1
 62
     7
 10
-11.303599999999999
 20
-27.695699999999999
 30
0.0
 70
    32
  0
VERTEX
  5
A05
  8
EBENE_1
 62
     7
 10
-11.3162
 20
-27.749700000000001
 30
0.0
 70
    32
  0
VERTEX
  5
A06
  8
EBENE_1
 62
     7
 10
-11.3284
 20
-27.8034
 30
0.0
 70
    32
  0
VERTEX
  5
A07
  8
EBENE_1
 62
     7
 10
-11.3405
 20
-27.8567
 30
0.0
 70
    32
  0
VERTEX
  5
A08
  8
EBENE_1
 62
     7
 10
-11.3522
 20
-27.909700000000001
 30
0.0
 70
    32
  0
VERTEX
  5
A09
  8
EBENE_1
 62
     7
 10
-11.3636
 20
-27.962299999999999
 30
0.0
 70
    32
  0
VERTEX
  5
A0A
  8
EBENE_1
 62
     7
 10
-11.374700000000001
 20
-28.014399999999998
 30
0.0
 70
    32
  0
VERTEX
  5
A0B
  8
EBENE_1
 62
     7
 10
-11.3856
 20
-28.066199999999998
 30
0.0
 70
    32
  0
VERTEX
  5
A0C
  8
EBENE_1
 62
     7
 10
-11.396100000000001
 20
-28.1175
 30
0.0
 70
    32
  0
VERTEX
  5
A0D
  8
EBENE_1
 62
     7
 10
-11.4062
 20
-28.168299999999999
 30
0.0
 70
    32
  0
VERTEX
  5
A0E
  8
EBENE_1
 62
     7
 10
-11.4161
 20
-28.218599999999999
 30
0.0
 70
    32
  0
VERTEX
  5
A0F
  8
EBENE_1
 62
     7
 10
-11.4255
 20
-28.2684
 30
0.0
 70
    32
  0
VERTEX
  5
A10
  8
EBENE_1
 62
     7
 10
-11.434699999999999
 20
-28.317599999999999
 30
0.0
 70
    32
  0
VERTEX
  5
A11
  8
EBENE_1
 62
     7
 10
-11.4434
 20
-28.366399999999999
 30
0.0
 70
    32
  0
VERTEX
  5
A12
  8
EBENE_1
 62
     7
 10
-11.4518
 20
-28.4145
 30
0.0
 70
    32
  0
VERTEX
  5
A13
  8
EBENE_1
 62
     7
 10
-11.4598
 20
-28.462
 30
0.0
 70
    32
  0
VERTEX
  5
A14
  8
EBENE_1
 62
     7
 10
-11.4674
 20
-28.508900000000001
 30
0.0
 70
    32
  0
VERTEX
  5
A15
  8
EBENE_1
 62
     7
 10
-11.474600000000001
 20
-28.555199999999999
 30
0.0
 70
    32
  0
VERTEX
  5
A16
  8
EBENE_1
 62
     7
 10
-11.481299999999999
 20
-28.6008
 30
0.0
 70
    32
  0
VERTEX
  5
A17
  8
EBENE_1
 62
     7
 10
-11.4877
 20
-28.645800000000001
 30
0.0
 70
    32
  0
VERTEX
  5
A18
  8
EBENE_1
 62
     7
 10
-11.493600000000001
 20
-28.690000000000001
 30
0.0
 70
    32
  0
VERTEX
  5
A19
  8
EBENE_1
 62
     7
 10
-11.499000000000001
 20
-28.733499999999999
 30
0.0
 70
    32
  0
VERTEX
  5
A1A
  8
EBENE_1
 62
     7
 10
-11.504
 20
-28.776299999999999
 30
0.0
 70
    32
  0
VERTEX
  5
A1B
  8
EBENE_1
 62
     7
 10
-11.508599999999999
 20
-28.818300000000001
 30
0.0
 70
    32
  0
VERTEX
  5
A1C
  8
EBENE_1
 62
     7
 10
-11.512700000000001
 20
-28.859500000000001
 30
0.0
 70
    32
  0
VERTEX
  5
A1D
  8
EBENE_1
 62
     7
 10
-11.5162
 20
-28.899899999999999
 30
0.0
 70
    32
  0
VERTEX
  5
A1E
  8
EBENE_1
 62
     7
 10
-11.519299999999999
 20
-28.939499999999999
 30
0.0
 70
    32
  0
VERTEX
  5
A1F
  8
EBENE_1
 62
     7
 10
-11.5219
 20
-28.978200000000001
 30
0.0
 70
    32
  0
VERTEX
  5
A20
  8
EBENE_1
 62
     7
 10
-11.523999999999999
 20
-29.015999999999998
 30
0.0
 70
    32
  0
VERTEX
  5
A21
  8
EBENE_1
 62
     7
 10
-11.525499999999999
 20
-29.053000000000001
 30
0.0
 70
    32
  0
VERTEX
  5
A22
  8
EBENE_1
 62
     7
 10
-11.5266
 20
-29.089099999999998
 30
0.0
 70
    32
  0
VERTEX
  5
A23
  8
EBENE_1
 62
     7
 10
-11.526999999999999
 20
-29.124199999999998
 30
0.0
 70
    32
  0
VERTEX
  5
A24
  8
EBENE_1
 62
     7
 10
-11.526999999999999
 20
-29.1584
 30
0.0
 70
    32
  0
VERTEX
  5
A25
  8
EBENE_1
 62
     7
 10
-11.526300000000001
 20
-29.191500000000001
 30
0.0
 70
    32
  0
VERTEX
  5
A26
  8
EBENE_1
 62
     7
 10
-11.5251
 20
-29.223700000000001
 30
0.0
 70
    32
  0
VERTEX
  5
A27
  8
EBENE_1
 62
     7
 10
-11.523300000000001
 20
-29.254899999999999
 30
0.0
 70
    32
  0
VERTEX
  5
A28
  8
EBENE_1
 62
     7
 10
-11.521000000000001
 20
-29.2851
 30
0.0
 70
    32
  0
VERTEX
  5
A29
  8
EBENE_1
 62
     7
 10
-11.518000000000001
 20
-29.3142
 30
0.0
 70
    32
  0
VERTEX
  5
A2A
  8
EBENE_1
 62
     7
 10
-11.5144
 20
-29.342199999999998
 30
0.0
 70
    32
  0
VERTEX
  5
A2B
  8
EBENE_1
 62
     7
 10
-11.510199999999999
 20
-29.3691
 30
0.0
 70
    32
  0
VERTEX
  5
A2C
  8
EBENE_1
 62
     7
 10
-11.5054
 20
-29.3949
 30
0.0
 70
    32
  0
VERTEX
  5
A2D
  8
EBENE_1
 62
     7
 10
-11.4999
 20
-29.419499999999999
 30
0.0
 70
    32
  0
VERTEX
  5
A2E
  8
EBENE_1
 62
     7
 10
-11.4938
 20
-29.443000000000001
 30
0.0
 70
    32
  0
SEQEND
  5
A2F
  8
EBENE_1
 62
     7
  0
POLYLINE
  5
49
  8
EBENE_1
 62
     7
 66
     1
 10
0.0
 20
0.0
 30
0.0
 70
     1
  0
VERTEX
  5
C95
  8
EBENE_1
 62
     7
 10
-5.9239278157552082
 20
-25.379157172309029
 30
0.0
  0
VERTEX
  5
C96
  8
EBENE_1
 62
     7
 10
-6.6096740722656229
 20
-24.363543023003469
 30
0.0
  0
VERTEX
  5
C97
  8
EBENE_1
 62
     7
 10
-7.2954203287760411
 20
-24.363543023003469
 30
0.0
  0
VERTEX
  5
C98
  8
EBENE_1
 62
     7
 10
-8.00666029188368
 20
-25.379157172309029
 30
0.0
  0
VERTEX
  5
C99
  8
EBENE_1
 62
     7
 10
-8.00666029188368
 20
-28.427377658420141
 30
0.0
  0
VERTEX
  5
C9A
  8
EBENE_1
 62
     7
 10
-7.2954203287760411
 20
-29.443680826822909
 30
0.0
  0
VERTEX
  5
C9B
  8
EBENE_1
 62
     7
 10
-6.6096740722656229
 20
-29.443680826822909
 30
0.0
  0
VERTEX
  5
C9C
  8
EBENE_1
 62
     7
 10
-5.9239278157552082
 20
-28.427377658420141
 30
0.0
  0
VERTEX
  5
C9D
  8
EBENE_1
 62
     7
 10
-5.9239278157552082
 20
-25.379157172309029
 30
0.0
  0
SEQEND
  5
C9E
  8
EBENE_1
 62
     7
  0
POLYLINE
  5
44
  8
EBENE_1
 62
     7
 66
     1
 10
0.0
 20
0.0
 30
0.0
  0
VERTEX
  5
C91
  8
EBENE_1
 62
     7
 10
-15.628245035807289
 20
-25.374334038628469
 30
0.0
  0
VERTEX
  5
C92
  8
EBENE_1
 62
     7
 10
-15.171253119574651
 20
-24.35803087022569
 30
0.0
  0
VERTEX
  5
C93
  8
EBENE_1
 62
     7
 10
-15.171253119574651
 20
-29.43885769314236
 30
0.0
  0
SEQEND
  5
C94
  8
EBENE_1
 62
     7
  0
LINE
  5
43
  8
EBENE_1
 62
     7
 10
-15.51559041341145
 20
-29.448503960503469
 30
0.0
 11
-14.85206502278646
 21
-29.448503960503469
 31
0.0
  0
POLYLINE
  5
3D
  8
EBENE_1
 62
     7
 66
     1
 10
0.0
 20
0.0
 30
0.0
 70
     1
  0
VERTEX
  5
C8C
  8
EBENE_1
 62
     7
 10
-29.394846598307289
 20
-30.765908474392361
 30
0.0
  0
VERTEX
  5
C8D
  8
EBENE_1
 62
     7
 10
-30.911205376519089
 20
-30.978126356336801
 30
0.0
  0
VERTEX
  5
C8E
  8
EBENE_1
 62
     7
 10
-29.394846598307289
 20
-31.190344238281249
 30
0.0
  0
VERTEX
  5
C8F
  8
EBENE_1
 62
     7
 10
-29.394846598307289
 20
-30.765908474392361
 30
0.0
  0
SEQEND
  5
C90
  8
EBENE_1
 62
     7
  0
POLYLINE
  5
37
  8
EBENE_1
 62
     7
 66
     1
 10
0.0
 20
0.0
 30
0.0
 70
     1
  0
VERTEX
  5
C87
  8
EBENE_1
 62
     7
 10
8.0028706868489579
 20
-31.190344238281249
 30
0.0
  0
VERTEX
  5
C88
  8
EBENE_1
 62
     7
 10
9.5187127007378471
 20
-30.978126356336801
 30
0.0
  0
VERTEX
  5
C89
  8
EBENE_1
 62
     7
 10
8.0028706868489579
 20
-30.765908474392361
 30
0.0
  0
VERTEX
  5
C8A
  8
EBENE_1
 62
     7
 10
8.0028706868489579
 20
-31.190344238281249
 30
0.0
  0
SEQEND
  5
C8B
  8
EBENE_1
 62
     7
  0
LINE
  5
36
  8
EBENE_1
 62
     7
 10
10.5529303656684
 20
-20.52708468967014
 30
0.0
 11
10.5529303656684
 21
-32.978348795572913
 31
0.0
  0
LINE
  5
35
  8
EBENE_1
 62
     7
 10
-31.938877360026041
 20
-20.52708468967014
 30
0.0
 11
-31.938877360026041
 21
-32.978348795572913
 31
0.0
  0
LINE
  5
34
  8
EBENE_1
 62
     7
 10
8.3873433430989568
 20
-30.978126356336801
 30
0.0
 11
-22.286236572265611
 21
-30.978126356336801
 31
0.0
  0
LINE
  5
33
  8
EBENE_1
 62
     7
 10
-20.970899115668399
 20
-30.978126356336801
 30
0.0
 11
-29.77277357313368
 21
-30.978126356336801
 31
0.0
  0
POLYLINE
  5
A30
  8
EBENE_1
 62
     7
 66
     1
 10
0.0
 20
0.0
 30
0.0
 70
     8
  0
VERTEX
  5
A31
  8
EBENE_1
 62
     7
 10
28.291699999999999
 20
27.0702
 30
0.0
 70
    32
  0
VERTEX
  5
A32
  8
EBENE_1
 62
     7
 10
28.291699999999999
 20
27.0716
 30
0.0
 70
    32
  0
VERTEX
  5
A33
  8
EBENE_1
 62
     7
 10
28.291699999999999
 20
27.075900000000001
 30
0.0
 70
    32
  0
VERTEX
  5
A34
  8
EBENE_1
 62
     7
 10
28.291699999999999
 20
27.083100000000002
 30
0.0
 70
    32
  0
VERTEX
  5
A35
  8
EBENE_1
 62
     7
 10
28.291699999999999
 20
27.0929
 30
0.0
 70
    32
  0
VERTEX
  5
A36
  8
EBENE_1
 62
     7
 10
28.291699999999999
 20
27.105499999999999
 30
0.0
 70
    32
  0
VERTEX
  5
A37
  8
EBENE_1
 62
     7
 10
28.291699999999999
 20
27.120699999999999
 30
0.0
 70
    32
  0
VERTEX
  5
A38
  8
EBENE_1
 62
     7
 10
28.291699999999999
 20
27.138400000000001
 30
0.0
 70
    32
  0
VERTEX
  5
A39
  8
EBENE_1
 62
     7
 10
28.291699999999999
 20
27.1587
 30
0.0
 70
    32
  0
VERTEX
  5
A3A
  8
EBENE_1
 62
     7
 10
28.291699999999999
 20
27.1814
 30
0.0
 70
    32
  0
VERTEX
  5
A3B
  8
EBENE_1
 62
     7
 10
28.291699999999999
 20
27.206600000000002
 30
0.0
 70
    32
  0
VERTEX
  5
A3C
  8
EBENE_1
 62
     7
 10
28.291699999999999
 20
27.234100000000002
 30
0.0
 70
    32
  0
VERTEX
  5
A3D
  8
EBENE_1
 62
     7
 10
28.291699999999999
 20
27.2639
 30
0.0
 70
    32
  0
VERTEX
  5
A3E
  8
EBENE_1
 62
     7
 10
28.291699999999999
 20
27.2959
 30
0.0
 70
    32
  0
VERTEX
  5
A3F
  8
EBENE_1
 62
     7
 10
28.291699999999999
 20
27.330100000000002
 30
0.0
 70
    32
  0
VERTEX
  5
A40
  8
EBENE_1
 62
     7
 10
28.291699999999999
 20
27.366399999999999
 30
0.0
 70
    32
  0
VERTEX
  5
A41
  8
EBENE_1
 62
     7
 10
28.291699999999999
 20
27.404699999999998
 30
0.0
 70
    32
  0
VERTEX
  5
A42
  8
EBENE_1
 62
     7
 10
28.291699999999999
 20
27.4451
 30
0.0
 70
    32
  0
VERTEX
  5
A43
  8
EBENE_1
 62
     7
 10
28.291699999999999
 20
27.487400000000001
 30
0.0
 70
    32
  0
VERTEX
  5
A44
  8
EBENE_1
 62
     7
 10
28.291699999999999
 20
27.531600000000001
 30
0.0
 70
    32
  0
VERTEX
  5
A45
  8
EBENE_1
 62
     7
 10
28.291699999999999
 20
27.5777
 30
0.0
 70
    32
  0
VERTEX
  5
A46
  8
EBENE_1
 62
     7
 10
28.291699999999999
 20
27.625499999999999
 30
0.0
 70
    32
  0
VERTEX
  5
A47
  8
EBENE_1
 62
     7
 10
28.291699999999999
 20
27.6751
 30
0.0
 70
    32
  0
VERTEX
  5
A48
  8
EBENE_1
 62
     7
 10
28.291699999999999
 20
27.726299999999998
 30
0.0
 70
    32
  0
VERTEX
  5
A49
  8
EBENE_1
 62
     7
 10
28.291699999999999
 20
27.7791
 30
0.0
 70
    32
  0
VERTEX
  5
A4A
  8
EBENE_1
 62
     7
 10
28.291699999999999
 20
27.833400000000001
 30
0.0
 70
    32
  0
VERTEX
  5
A4B
  8
EBENE_1
 62
     7
 10
28.291699999999999
 20
27.889299999999999
 30
0.0
 70
    32
  0
VERTEX
  5
A4C
  8
EBENE_1
 62
     7
 10
28.291699999999999
 20
27.9465
 30
0.0
 70
    32
  0
VERTEX
  5
A4D
  8
EBENE_1
 62
     7
 10
28.291699999999999
 20
28.005199999999999
 30
0.0
 70
    32
  0
VERTEX
  5
A4E
  8
EBENE_1
 62
     7
 10
28.291699999999999
 20
28.065200000000001
 30
0.0
 70
    32
  0
VERTEX
  5
A4F
  8
EBENE_1
 62
     7
 10
28.291699999999999
 20
28.1264
 30
0.0
 70
    32
  0
VERTEX
  5
A50
  8
EBENE_1
 62
     7
 10
28.291699999999999
 20
28.1889
 30
0.0
 70
    32
  0
VERTEX
  5
A51
  8
EBENE_1
 62
     7
 10
28.291699999999999
 20
28.252400000000002
 30
0.0
 70
    32
  0
VERTEX
  5
A52
  8
EBENE_1
 62
     7
 10
28.291699999999999
 20
28.3171
 30
0.0
 70
    32
  0
VERTEX
  5
A53
  8
EBENE_1
 62
     7
 10
28.291699999999999
 20
28.3828
 30
0.0
 70
    32
  0
VERTEX
  5
A54
  8
EBENE_1
 62
     7
 10
28.291699999999999
 20
28.4495
 30
0.0
 70
    32
  0
VERTEX
  5
A55
  8
EBENE_1
 62
     7
 10
28.291699999999999
 20
28.517099999999999
 30
0.0
 70
    32
  0
VERTEX
  5
A56
  8
EBENE_1
 62
     7
 10
28.291699999999999
 20
28.585599999999999
 30
0.0
 70
    32
  0
VERTEX
  5
A57
  8
EBENE_1
 62
     7
 10
28.291699999999999
 20
28.654900000000001
 30
0.0
 70
    32
  0
VERTEX
  5
A58
  8
EBENE_1
 62
     7
 10
28.291699999999999
 20
28.724900000000002
 30
0.0
 70
    32
  0
VERTEX
  5
A59
  8
EBENE_1
 62
     7
 10
28.291699999999999
 20
28.7956
 30
0.0
 70
    32
  0
VERTEX
  5
A5A
  8
EBENE_1
 62
     7
 10
28.291699999999999
 20
28.867000000000001
 30
0.0
 70
    32
  0
VERTEX
  5
A5B
  8
EBENE_1
 62
     7
 10
28.291699999999999
 20
28.9389
 30
0.0
 70
    32
  0
VERTEX
  5
A5C
  8
EBENE_1
 62
     7
 10
28.291699999999999
 20
29.011399999999998
 30
0.0
 70
    32
  0
VERTEX
  5
A5D
  8
EBENE_1
 62
     7
 10
28.291699999999999
 20
29.084299999999999
 30
0.0
 70
    32
  0
VERTEX
  5
A5E
  8
EBENE_1
 62
     7
 10
28.291699999999999
 20
29.157599999999999
 30
0.0
 70
    32
  0
VERTEX
  5
A5F
  8
EBENE_1
 62
     7
 10
28.291699999999999
 20
29.231200000000001
 30
0.0
 70
    32
  0
VERTEX
  5
A60
  8
EBENE_1
 62
     7
 10
28.291699999999999
 20
29.305199999999999
 30
0.0
 70
    32
  0
VERTEX
  5
A61
  8
EBENE_1
 62
     7
 10
28.291699999999999
 20
29.3794
 30
0.0
 70
    32
  0
VERTEX
  5
A62
  8
EBENE_1
 62
     7
 10
28.291699999999999
 20
29.453800000000001
 30
0.0
 70
    32
  0
VERTEX
  5
A63
  8
EBENE_1
 62
     7
 10
28.291699999999999
 20
29.528199999999998
 30
0.0
 70
    32
  0
VERTEX
  5
A64
  8
EBENE_1
 62
     7
 10
28.291699999999999
 20
29.602799999999998
 30
0.0
 70
    32
  0
VERTEX
  5
A65
  8
EBENE_1
 62
     7
 10
28.291699999999999
 20
29.677299999999999
 30
0.0
 70
    32
  0
VERTEX
  5
A66
  8
EBENE_1
 62
     7
 10
28.291699999999999
 20
29.751899999999999
 30
0.0
 70
    32
  0
VERTEX
  5
A67
  8
EBENE_1
 62
     7
 10
28.291699999999999
 20
29.8262
 30
0.0
 70
    32
  0
VERTEX
  5
A68
  8
EBENE_1
 62
     7
 10
28.291699999999999
 20
29.900500000000001
 30
0.0
 70
    32
  0
VERTEX
  5
A69
  8
EBENE_1
 62
     7
 10
28.291699999999999
 20
29.974499999999999
 30
0.0
 70
    32
  0
VERTEX
  5
A6A
  8
EBENE_1
 62
     7
 10
28.291699999999999
 20
30.048200000000001
 30
0.0
 70
    32
  0
VERTEX
  5
A6B
  8
EBENE_1
 62
     7
 10
28.291699999999999
 20
30.121600000000001
 30
0.0
 70
    32
  0
VERTEX
  5
A6C
  8
EBENE_1
 62
     7
 10
28.291699999999999
 20
30.194600000000001
 30
0.0
 70
    32
  0
VERTEX
  5
A6D
  8
EBENE_1
 62
     7
 10
28.291699999999999
 20
30.267099999999999
 30
0.0
 70
    32
  0
VERTEX
  5
A6E
  8
EBENE_1
 62
     7
 10
28.291699999999999
 20
30.339200000000002
 30
0.0
 70
    32
  0
VERTEX
  5
A6F
  8
EBENE_1
 62
     7
 10
28.291699999999999
 20
30.410599999999999
 30
0.0
 70
    32
  0
VERTEX
  5
A70
  8
EBENE_1
 62
     7
 10
28.291699999999999
 20
30.4815
 30
0.0
 70
    32
  0
VERTEX
  5
A71
  8
EBENE_1
 62
     7
 10
28.291699999999999
 20
30.5517
 30
0.0
 70
    32
  0
VERTEX
  5
A72
  8
EBENE_1
 62
     7
 10
28.291699999999999
 20
30.621099999999998
 30
0.0
 70
    32
  0
VERTEX
  5
A73
  8
EBENE_1
 62
     7
 10
28.291699999999999
 20
30.689699999999998
 30
0.0
 70
    32
  0
VERTEX
  5
A74
  8
EBENE_1
 62
     7
 10
28.291699999999999
 20
30.7575
 30
0.0
 70
    32
  0
VERTEX
  5
A75
  8
EBENE_1
 62
     7
 10
28.291699999999999
 20
30.824400000000001
 30
0.0
 70
    32
  0
VERTEX
  5
A76
  8
EBENE_1
 62
     7
 10
28.291699999999999
 20
30.8903
 30
0.0
 70
    32
  0
VERTEX
  5
A77
  8
EBENE_1
 62
     7
 10
28.291699999999999
 20
30.955200000000001
 30
0.0
 70
    32
  0
VERTEX
  5
A78
  8
EBENE_1
 62
     7
 10
28.291699999999999
 20
31.018999999999998
 30
0.0
 70
    32
  0
VERTEX
  5
A79
  8
EBENE_1
 62
     7
 10
28.291699999999999
 20
31.081700000000001
 30
0.0
 70
    32
  0
VERTEX
  5
A7A
  8
EBENE_1
 62
     7
 10
28.291699999999999
 20
31.1432
 30
0.0
 70
    32
  0
VERTEX
  5
A7B
  8
EBENE_1
 62
     7
 10
28.291699999999999
 20
31.203399999999998
 30
0.0
 70
    32
  0
VERTEX
  5
A7C
  8
EBENE_1
 62
     7
 10
28.291699999999999
 20
31.2623
 30
0.0
 70
    32
  0
VERTEX
  5
A7D
  8
EBENE_1
 62
     7
 10
28.291699999999999
 20
31.319900000000001
 30
0.0
 70
    32
  0
VERTEX
  5
A7E
  8
EBENE_1
 62
     7
 10
28.291699999999999
 20
31.376000000000001
 30
0.0
 70
    32
  0
VERTEX
  5
A7F
  8
EBENE_1
 62
     7
 10
28.291699999999999
 20
31.430700000000002
 30
0.0
 70
    32
  0
VERTEX
  5
A80
  8
EBENE_1
 62
     7
 10
28.291699999999999
 20
31.483799999999999
 30
0.0
 70
    32
  0
VERTEX
  5
A81
  8
EBENE_1
 62
     7
 10
28.291699999999999
 20
31.535299999999999
 30
0.0
 70
    32
  0
VERTEX
  5
A82
  8
EBENE_1
 62
     7
 10
28.291699999999999
 20
31.5852
 30
0.0
 70
    32
  0
VERTEX
  5
A83
  8
EBENE_1
 62
     7
 10
28.291699999999999
 20
31.633400000000002
 30
0.0
 70
    32
  0
VERTEX
  5
A84
  8
EBENE_1
 62
     7
 10
28.291699999999999
 20
31.6798
 30
0.0
 70
    32
  0
VERTEX
  5
A85
  8
EBENE_1
 62
     7
 10
28.291699999999999
 20
31.724399999999999
 30
0.0
 70
    32
  0
VERTEX
  5
A86
  8
EBENE_1
 62
     7
 10
28.291699999999999
 20
31.767099999999999
 30
0.0
 70
    32
  0
VERTEX
  5
A87
  8
EBENE_1
 62
     7
 10
28.291699999999999
 20
31.8079
 30
0.0
 70
    32
  0
VERTEX
  5
A88
  8
EBENE_1
 62
     7
 10
28.291699999999999
 20
31.846599999999999
 30
0.0
 70
    32
  0
VERTEX
  5
A89
  8
EBENE_1
 62
     7
 10
28.291699999999999
 20
31.883400000000002
 30
0.0
 70
    32
  0
VERTEX
  5
A8A
  8
EBENE_1
 62
     7
 10
28.291699999999999
 20
31.917999999999999
 30
0.0
 70
    32
  0
VERTEX
  5
A8B
  8
EBENE_1
 62
     7
 10
28.291699999999999
 20
31.950399999999998
 30
0.0
 70
    32
  0
VERTEX
  5
A8C
  8
EBENE_1
 62
     7
 10
28.291699999999999
 20
31.980699999999999
 30
0.0
 70
    32
  0
VERTEX
  5
A8D
  8
EBENE_1
 62
     7
 10
28.291699999999999
 20
32.008600000000001
 30
0.0
 70
    32
  0
VERTEX
  5
A8E
  8
EBENE_1
 62
     7
 10
28.291699999999999
 20
32.034199999999998
 30
0.0
 70
    32
  0
VERTEX
  5
A8F
  8
EBENE_1
 62
     7
 10
28.291699999999999
 20
32.057499999999997
 30
0.0
 70
    32
  0
VERTEX
  5
A90
  8
EBENE_1
 62
     7
 10
28.291699999999999
 20
32.078200000000002
 30
0.0
 70
    32
  0
VERTEX
  5
A91
  8
EBENE_1
 62
     7
 10
28.291699999999999
 20
32.096499999999999
 30
0.0
 70
    32
  0
VERTEX
  5
A92
  8
EBENE_1
 62
     7
 10
28.291699999999999
 20
32.112200000000001
 30
0.0
 70
    32
  0
VERTEX
  5
A93
  8
EBENE_1
 62
     7
 10
28.291699999999999
 20
32.125300000000003
 30
0.0
 70
    32
  0
VERTEX
  5
A94
  8
EBENE_1
 62
     7
 10
28.291699999999999
 20
32.1357
 30
0.0
 70
    32
  0
VERTEX
  5
A95
  8
EBENE_1
 62
     7
 10
28.291699999999999
 20
32.1434
 30
0.0
 70
    32
  0
VERTEX
  5
A96
  8
EBENE_1
 62
     7
 10
28.291699999999999
 20
32.148200000000003
 30
0.0
 70
    32
  0
VERTEX
  5
A97
  8
EBENE_1
 62
     7
 10
28.291699999999999
 20
32.150300000000001
 30
0.0
 70
    32
  0
VERTEX
  5
A98
  8
EBENE_1
 62
     7
 10
28.291699999999999
 20
32.150300000000001
 30
0.0
 70
    32
  0
VERTEX
  5
A99
  8
EBENE_1
 62
     7
 10
28.291499999999999
 20
32.150300000000001
 30
0.0
 70
    32
  0
VERTEX
  5
A9A
  8
EBENE_1
 62
     7
 10
28.2912
 20
32.150300000000001
 30
0.0
 70
    32
  0
VERTEX
  5
A9B
  8
EBENE_1
 62
     7
 10
28.290800000000001
 20
32.150300000000001
 30
0.0
 70
    32
  0
VERTEX
  5
A9C
  8
EBENE_1
 62
     7
 10
28.290299999999998
 20
32.150300000000001
 30
0.0
 70
    32
  0
VERTEX
  5
A9D
  8
EBENE_1
 62
     7
 10
28.2896
 20
32.150300000000001
 30
0.0
 70
    32
  0
VERTEX
  5
A9E
  8
EBENE_1
 62
     7
 10
28.288799999999998
 20
32.150300000000001
 30
0.0
 70
    32
  0
VERTEX
  5
A9F
  8
EBENE_1
 62
     7
 10
28.2879
 20
32.150300000000001
 30
0.0
 70
    32
  0
VERTEX
  5
AA0
  8
EBENE_1
 62
     7
 10
28.286899999999999
 20
32.150300000000001
 30
0.0
 70
    32
  0
VERTEX
  5
AA1
  8
EBENE_1
 62
     7
 10
28.285799999999998
 20
32.150300000000001
 30
0.0
 70
    32
  0
VERTEX
  5
AA2
  8
EBENE_1
 62
     7
 10
28.284600000000001
 20
32.150300000000001
 30
0.0
 70
    32
  0
VERTEX
  5
AA3
  8
EBENE_1
 62
     7
 10
28.283300000000001
 20
32.150300000000001
 30
0.0
 70
    32
  0
VERTEX
  5
AA4
  8
EBENE_1
 62
     7
 10
28.2819
 20
32.150300000000001
 30
0.0
 70
    32
  0
VERTEX
  5
AA5
  8
EBENE_1
 62
     7
 10
28.2804
 20
32.150300000000001
 30
0.0
 70
    32
  0
VERTEX
  5
AA6
  8
EBENE_1
 62
     7
 10
28.2788
 20
32.150300000000001
 30
0.0
 70
    32
  0
VERTEX
  5
AA7
  8
EBENE_1
 62
     7
 10
28.277100000000001
 20
32.150300000000001
 30
0.0
 70
    32
  0
VERTEX
  5
AA8
  8
EBENE_1
 62
     7
 10
28.275300000000001
 20
32.150300000000001
 30
0.0
 70
    32
  0
VERTEX
  5
AA9
  8
EBENE_1
 62
     7
 10
28.273399999999999
 20
32.150300000000001
 30
0.0
 70
    32
  0
VERTEX
  5
AAA
  8
EBENE_1
 62
     7
 10
28.2714
 20
32.150300000000001
 30
0.0
 70
    32
  0
VERTEX
  5
AAB
  8
EBENE_1
 62
     7
 10
28.269400000000001
 20
32.150300000000001
 30
0.0
 70
    32
  0
VERTEX
  5
AAC
  8
EBENE_1
 62
     7
 10
28.267199999999999
 20
32.150300000000001
 30
0.0
 70
    32
  0
VERTEX
  5
AAD
  8
EBENE_1
 62
     7
 10
28.265000000000001
 20
32.150300000000001
 30
0.0
 70
    32
  0
VERTEX
  5
AAE
  8
EBENE_1
 62
     7
 10
28.262699999999999
 20
32.150300000000001
 30
0.0
 70
    32
  0
VERTEX
  5
AAF
  8
EBENE_1
 62
     7
 10
28.260400000000001
 20
32.150300000000001
 30
0.0
 70
    32
  0
VERTEX
  5
AB0
  8
EBENE_1
 62
     7
 10
28.257999999999999
 20
32.150300000000001
 30
0.0
 70
    32
  0
VERTEX
  5
AB1
  8
EBENE_1
 62
     7
 10
28.255500000000001
 20
32.150300000000001
 30
0.0
 70
    32
  0
VERTEX
  5
AB2
  8
EBENE_1
 62
     7
 10
28.2529
 20
32.150300000000001
 30
0.0
 70
    32
  0
VERTEX
  5
AB3
  8
EBENE_1
 62
     7
 10
28.250299999999999
 20
32.150300000000001
 30
0.0
 70
    32
  0
VERTEX
  5
AB4
  8
EBENE_1
 62
     7
 10
28.247599999999998
 20
32.150300000000001
 30
0.0
 70
    32
  0
VERTEX
  5
AB5
  8
EBENE_1
 62
     7
 10
28.244900000000001
 20
32.150300000000001
 30
0.0
 70
    32
  0
VERTEX
  5
AB6
  8
EBENE_1
 62
     7
 10
28.242100000000001
 20
32.150300000000001
 30
0.0
 70
    32
  0
VERTEX
  5
AB7
  8
EBENE_1
 62
     7
 10
28.2392
 20
32.150300000000001
 30
0.0
 70
    32
  0
VERTEX
  5
AB8
  8
EBENE_1
 62
     7
 10
28.2363
 20
32.150300000000001
 30
0.0
 70
    32
  0
VERTEX
  5
AB9
  8
EBENE_1
 62
     7
 10
28.2334
 20
32.150300000000001
 30
0.0
 70
    32
  0
VERTEX
  5
ABA
  8
EBENE_1
 62
     7
 10
28.230399999999999
 20
32.150300000000001
 30
0.0
 70
    32
  0
VERTEX
  5
ABB
  8
EBENE_1
 62
     7
 10
28.227399999999999
 20
32.150300000000001
 30
0.0
 70
    32
  0
VERTEX
  5
ABC
  8
EBENE_1
 62
     7
 10
28.224299999999999
 20
32.150300000000001
 30
0.0
 70
    32
  0
VERTEX
  5
ABD
  8
EBENE_1
 62
     7
 10
28.2212
 20
32.150300000000001
 30
0.0
 70
    32
  0
VERTEX
  5
ABE
  8
EBENE_1
 62
     7
 10
28.2181
 20
32.150300000000001
 30
0.0
 70
    32
  0
VERTEX
  5
ABF
  8
EBENE_1
 62
     7
 10
28.2149
 20
32.150300000000001
 30
0.0
 70
    32
  0
VERTEX
  5
AC0
  8
EBENE_1
 62
     7
 10
28.2117
 20
32.150300000000001
 30
0.0
 70
    32
  0
VERTEX
  5
AC1
  8
EBENE_1
 62
     7
 10
28.208500000000001
 20
32.150300000000001
 30
0.0
 70
    32
  0
VERTEX
  5
AC2
  8
EBENE_1
 62
     7
 10
28.205200000000001
 20
32.150300000000001
 30
0.0
 70
    32
  0
VERTEX
  5
AC3
  8
EBENE_1
 62
     7
 10
28.202000000000002
 20
32.150300000000001
 30
0.0
 70
    32
  0
VERTEX
  5
AC4
  8
EBENE_1
 62
     7
 10
28.198699999999999
 20
32.150300000000001
 30
0.0
 70
    32
  0
VERTEX
  5
AC5
  8
EBENE_1
 62
     7
 10
28.195399999999999
 20
32.150300000000001
 30
0.0
 70
    32
  0
VERTEX
  5
AC6
  8
EBENE_1
 62
     7
 10
28.1921
 20
32.150300000000001
 30
0.0
 70
    32
  0
VERTEX
  5
AC7
  8
EBENE_1
 62
     7
 10
28.188700000000001
 20
32.150300000000001
 30
0.0
 70
    32
  0
VERTEX
  5
AC8
  8
EBENE_1
 62
     7
 10
28.185400000000001
 20
32.150300000000001
 30
0.0
 70
    32
  0
VERTEX
  5
AC9
  8
EBENE_1
 62
     7
 10
28.181999999999999
 20
32.150300000000001
 30
0.0
 70
    32
  0
VERTEX
  5
ACA
  8
EBENE_1
 62
     7
 10
28.178699999999999
 20
32.150300000000001
 30
0.0
 70
    32
  0
VERTEX
  5
ACB
  8
EBENE_1
 62
     7
 10
28.1754
 20
32.150300000000001
 30
0.0
 70
    32
  0
VERTEX
  5
ACC
  8
EBENE_1
 62
     7
 10
28.172000000000001
 20
32.150300000000001
 30
0.0
 70
    32
  0
VERTEX
  5
ACD
  8
EBENE_1
 62
     7
 10
28.168700000000001
 20
32.150300000000001
 30
0.0
 70
    32
  0
VERTEX
  5
ACE
  8
EBENE_1
 62
     7
 10
28.165299999999998
 20
32.150300000000001
 30
0.0
 70
    32
  0
VERTEX
  5
ACF
  8
EBENE_1
 62
     7
 10
28.161999999999999
 20
32.150300000000001
 30
0.0
 70
    32
  0
VERTEX
  5
AD0
  8
EBENE_1
 62
     7
 10
28.1587
 20
32.150300000000001
 30
0.0
 70
    32
  0
VERTEX
  5
AD1
  8
EBENE_1
 62
     7
 10
28.1554
 20
32.150300000000001
 30
0.0
 70
    32
  0
VERTEX
  5
AD2
  8
EBENE_1
 62
     7
 10
28.152100000000001
 20
32.150300000000001
 30
0.0
 70
    32
  0
VERTEX
  5
AD3
  8
EBENE_1
 62
     7
 10
28.148900000000001
 20
32.150300000000001
 30
0.0
 70
    32
  0
VERTEX
  5
AD4
  8
EBENE_1
 62
     7
 10
28.145600000000002
 20
32.150300000000001
 30
0.0
 70
    32
  0
VERTEX
  5
AD5
  8
EBENE_1
 62
     7
 10
28.142399999999999
 20
32.150300000000001
 30
0.0
 70
    32
  0
VERTEX
  5
AD6
  8
EBENE_1
 62
     7
 10
28.139199999999999
 20
32.150300000000001
 30
0.0
 70
    32
  0
VERTEX
  5
AD7
  8
EBENE_1
 62
     7
 10
28.136099999999999
 20
32.150300000000001
 30
0.0
 70
    32
  0
VERTEX
  5
AD8
  8
EBENE_1
 62
     7
 10
28.132899999999999
 20
32.150300000000001
 30
0.0
 70
    32
  0
VERTEX
  5
AD9
  8
EBENE_1
 62
     7
 10
28.129799999999999
 20
32.150300000000001
 30
0.0
 70
    32
  0
VERTEX
  5
ADA
  8
EBENE_1
 62
     7
 10
28.126799999999999
 20
32.150300000000001
 30
0.0
 70
    32
  0
VERTEX
  5
ADB
  8
EBENE_1
 62
     7
 10
28.123799999999999
 20
32.150300000000001
 30
0.0
 70
    32
  0
VERTEX
  5
ADC
  8
EBENE_1
 62
     7
 10
28.120799999999999
 20
32.150300000000001
 30
0.0
 70
    32
  0
VERTEX
  5
ADD
  8
EBENE_1
 62
     7
 10
28.117899999999999
 20
32.150300000000001
 30
0.0
 70
    32
  0
VERTEX
  5
ADE
  8
EBENE_1
 62
     7
 10
28.114999999999998
 20
32.150300000000001
 30
0.0
 70
    32
  0
VERTEX
  5
ADF
  8
EBENE_1
 62
     7
 10
28.112200000000001
 20
32.150300000000001
 30
0.0
 70
    32
  0
VERTEX
  5
AE0
  8
EBENE_1
 62
     7
 10
28.109400000000001
 20
32.150300000000001
 30
0.0
 70
    32
  0
VERTEX
  5
AE1
  8
EBENE_1
 62
     7
 10
28.1067
 20
32.150300000000001
 30
0.0
 70
    32
  0
VERTEX
  5
AE2
  8
EBENE_1
 62
     7
 10
28.104099999999999
 20
32.150300000000001
 30
0.0
 70
    32
  0
VERTEX
  5
AE3
  8
EBENE_1
 62
     7
 10
28.101500000000001
 20
32.150300000000001
 30
0.0
 70
    32
  0
VERTEX
  5
AE4
  8
EBENE_1
 62
     7
 10
28.0989
 20
32.150300000000001
 30
0.0
 70
    32
  0
VERTEX
  5
AE5
  8
EBENE_1
 62
     7
 10
28.096499999999999
 20
32.150300000000001
 30
0.0
 70
    32
  0
VERTEX
  5
AE6
  8
EBENE_1
 62
     7
 10
28.094100000000001
 20
32.150300000000001
 30
0.0
 70
    32
  0
VERTEX
  5
AE7
  8
EBENE_1
 62
     7
 10
28.091699999999999
 20
32.150300000000001
 30
0.0
 70
    32
  0
VERTEX
  5
AE8
  8
EBENE_1
 62
     7
 10
28.089500000000001
 20
32.150300000000001
 30
0.0
 70
    32
  0
VERTEX
  5
AE9
  8
EBENE_1
 62
     7
 10
28.087299999999999
 20
32.150300000000001
 30
0.0
 70
    32
  0
VERTEX
  5
AEA
  8
EBENE_1
 62
     7
 10
28.0852
 20
32.150300000000001
 30
0.0
 70
    32
  0
VERTEX
  5
AEB
  8
EBENE_1
 62
     7
 10
28.083200000000001
 20
32.150300000000001
 30
0.0
 70
    32
  0
VERTEX
  5
AEC
  8
EBENE_1
 62
     7
 10
28.081199999999999
 20
32.150300000000001
 30
0.0
 70
    32
  0
VERTEX
  5
AED
  8
EBENE_1
 62
     7
 10
28.0794
 20
32.150300000000001
 30
0.0
 70
    32
  0
VERTEX
  5
AEE
  8
EBENE_1
 62
     7
 10
28.0776
 20
32.150300000000001
 30
0.0
 70
    32
  0
VERTEX
  5
AEF
  8
EBENE_1
 62
     7
 10
28.076000000000001
 20
32.150300000000001
 30
0.0
 70
    32
  0
VERTEX
  5
AF0
  8
EBENE_1
 62
     7
 10
28.074400000000001
 20
32.150300000000001
 30
0.0
 70
    32
  0
VERTEX
  5
AF1
  8
EBENE_1
 62
     7
 10
28.072900000000001
 20
32.150300000000001
 30
0.0
 70
    32
  0
VERTEX
  5
AF2
  8
EBENE_1
 62
     7
 10
28.0715
 20
32.150300000000001
 30
0.0
 70
    32
  0
VERTEX
  5
AF3
  8
EBENE_1
 62
     7
 10
28.0703
 20
32.150300000000001
 30
0.0
 70
    32
  0
VERTEX
  5
AF4
  8
EBENE_1
 62
     7
 10
28.069099999999999
 20
32.150300000000001
 30
0.0
 70
    32
  0
VERTEX
  5
AF5
  8
EBENE_1
 62
     7
 10
28.068000000000001
 20
32.150300000000001
 30
0.0
 70
    32
  0
VERTEX
  5
AF6
  8
EBENE_1
 62
     7
 10
28.0671
 20
32.150300000000001
 30
0.0
 70
    32
  0
VERTEX
  5
AF7
  8
EBENE_1
 62
     7
 10
28.066199999999998
 20
32.150300000000001
 30
0.0
 70
    32
  0
VERTEX
  5
AF8
  8
EBENE_1
 62
     7
 10
28.0655
 20
32.150300000000001
 30
0.0
 70
    32
  0
VERTEX
  5
AF9
  8
EBENE_1
 62
     7
 10
28.064900000000002
 20
32.150300000000001
 30
0.0
 70
    32
  0
VERTEX
  5
AFA
  8
EBENE_1
 62
     7
 10
28.064399999999999
 20
32.150300000000001
 30
0.0
 70
    32
  0
VERTEX
  5
AFB
  8
EBENE_1
 62
     7
 10
28.064
 20
32.150300000000001
 30
0.0
 70
    32
  0
VERTEX
  5
AFC
  8
EBENE_1
 62
     7
 10
28.063800000000001
 20
32.150300000000001
 30
0.0
 70
    32
  0
VERTEX
  5
AFD
  8
EBENE_1
 62
     7
 10
28.063700000000001
 20
32.150300000000001
 30
0.0
 70
    32
  0
VERTEX
  5
AFE
  8
EBENE_1
 62
     7
 10
28.063500000000001
 20
32.149999999999999
 30
0.0
 70
    32
  0
VERTEX
  5
AFF
  8
EBENE_1
 62
     7
 10
28.0627
 20
32.1479
 30
0.0
 70
    32
  0
VERTEX
  5
B00
  8
EBENE_1
 62
     7
 10
28.061
 20
32.143900000000002
 30
0.0
 70
    32
  0
VERTEX
  5
B01
  8
EBENE_1
 62
     7
 10
28.058700000000002
 20
32.137999999999998
 30
0.0
 70
    32
  0
VERTEX
  5
B02
  8
EBENE_1
 62
     7
 10
28.055599999999998
 20
32.130400000000002
 30
0.0
 70
    32
  0
VERTEX
  5
B03
  8
EBENE_1
 62
     7
 10
28.0518
 20
32.121000000000002
 30
0.0
 70
    32
  0
VERTEX
  5
B04
  8
EBENE_1
 62
     7
 10
28.0472
 20
32.10990000000001
 30
0.0
 70
    32
  0
VERTEX
  5
B05
  8
EBENE_1
 62
     7
 10
28.042000000000002
 20
32.097099999999998
 30
0.0
 70
    32
  0
VERTEX
  5
B06
  8
EBENE_1
 62
     7
 10
28.036200000000001
 20
32.082599999999999
 30
0.0
 70
    32
  0
VERTEX
  5
B07
  8
EBENE_1
 62
     7
 10
28.029599999999999
 20
32.066499999999998
 30
0.0
 70
    32
  0
VERTEX
  5
B08
  8
EBENE_1
 62
     7
 10
28.022500000000001
 20
32.0488
 30
0.0
 70
    32
  0
VERTEX
  5
B09
  8
EBENE_1
 62
     7
 10
28.014700000000001
 20
32.029600000000002
 30
0.0
 70
    32
  0
VERTEX
  5
B0A
  8
EBENE_1
 62
     7
 10
28.0062
 20
32.008899999999997
 30
0.0
 70
    32
  0
VERTEX
  5
B0B
  8
EBENE_1
 62
     7
 10
27.997199999999999
 20
31.986799999999999
 30
0.0
 70
    32
  0
VERTEX
  5
B0C
  8
EBENE_1
 62
     7
 10
27.9877
 20
31.963200000000001
 30
0.0
 70
    32
  0
VERTEX
  5
B0D
  8
EBENE_1
 62
     7
 10
27.977499999999999
 20
31.938199999999998
 30
0.0
 70
    32
  0
VERTEX
  5
B0E
  8
EBENE_1
 62
     7
 10
27.966799999999999
 20
31.911899999999999
 30
0.0
 70
    32
  0
VERTEX
  5
B0F
  8
EBENE_1
 62
     7
 10
27.9556
 20
31.8843
 30
0.0
 70
    32
  0
VERTEX
  5
B10
  8
EBENE_1
 62
     7
 10
27.943899999999999
 20
31.855399999999999
 30
0.0
 70
    32
  0
VERTEX
  5
B11
  8
EBENE_1
 62
     7
 10
27.9316
 20
31.825199999999999
 30
0.0
 70
    32
  0
VERTEX
  5
B12
  8
EBENE_1
 62
     7
 10
27.918900000000001
 20
31.793900000000001
 30
0.0
 70
    32
  0
VERTEX
  5
B13
  8
EBENE_1
 62
     7
 10
27.9057
 20
31.761399999999998
 30
0.0
 70
    32
  0
VERTEX
  5
B14
  8
EBENE_1
 62
     7
 10
27.892099999999999
 20
31.727799999999998
 30
0.0
 70
    32
  0
VERTEX
  5
B15
  8
EBENE_1
 62
     7
 10
27.878
 20
31.693100000000001
 30
0.0
 70
    32
  0
VERTEX
  5
B16
  8
EBENE_1
 62
     7
 10
27.863499999999998
 20
31.657399999999999
 30
0.0
 70
    32
  0
VERTEX
  5
B17
  8
EBENE_1
 62
     7
 10
27.848600000000001
 20
31.6206
 30
0.0
 70
    32
  0
VERTEX
  5
B18
  8
EBENE_1
 62
     7
 10
27.833200000000001
 20
31.582899999999999
 30
0.0
 70
    32
  0
VERTEX
  5
B19
  8
EBENE_1
 62
     7
 10
27.817499999999999
 20
31.5442
 30
0.0
 70
    32
  0
VERTEX
  5
B1A
  8
EBENE_1
 62
     7
 10
27.801500000000001
 20
31.5047
 30
0.0
 70
    32
  0
VERTEX
  5
B1B
  8
EBENE_1
 62
     7
 10
27.7851
 20
31.464300000000001
 30
0.0
 70
    32
  0
VERTEX
  5
B1C
  8
EBENE_1
 62
     7
 10
27.7684
 20
31.423100000000002
 30
0.0
 70
    32
  0
VERTEX
  5
B1D
  8
EBENE_1
 62
     7
 10
27.751300000000001
 20
31.3811
 30
0.0
 70
    32
  0
VERTEX
  5
B1E
  8
EBENE_1
 62
     7
 10
27.734000000000002
 20
31.3384
 30
0.0
 70
    32
  0
VERTEX
  5
B1F
  8
EBENE_1
 62
     7
 10
27.7163
 20
31.295000000000002
 30
0.0
 70
    32
  0
VERTEX
  5
B20
  8
EBENE_1
 62
     7
 10
27.698399999999999
 20
31.250900000000001
 30
0.0
 70
    32
  0
VERTEX
  5
B21
  8
EBENE_1
 62
     7
 10
27.680299999999999
 20
31.206199999999999
 30
0.0
 70
    32
  0
VERTEX
  5
B22
  8
EBENE_1
 62
     7
 10
27.661899999999999
 20
31.160799999999998
 30
0.0
 70
    32
  0
VERTEX
  5
B23
  8
EBENE_1
 62
     7
 10
27.6432
 20
31.114999999999998
 30
0.0
 70
    32
  0
VERTEX
  5
B24
  8
EBENE_1
 62
     7
 10
27.624400000000001
 20
31.0686
 30
0.0
 70
    32
  0
VERTEX
  5
B25
  8
EBENE_1
 62
     7
 10
27.605399999999999
 20
31.021799999999999
 30
0.0
 70
    32
  0
VERTEX
  5
B26
  8
EBENE_1
 62
     7
 10
27.586200000000002
 20
30.974499999999999
 30
0.0
 70
    32
  0
VERTEX
  5
B27
  8
EBENE_1
 62
     7
 10
27.566800000000001
 20
30.9268
 30
0.0
 70
    32
  0
VERTEX
  5
B28
  8
EBENE_1
 62
     7
 10
27.5473
 20
30.878799999999998
 30
0.0
 70
    32
  0
VERTEX
  5
B29
  8
EBENE_1
 62
     7
 10
27.527699999999999
 20
30.830400000000001
 30
0.0
 70
    32
  0
VERTEX
  5
B2A
  8
EBENE_1
 62
     7
 10
27.507899999999999
 20
30.781700000000001
 30
0.0
 70
    32
  0
VERTEX
  5
B2B
  8
EBENE_1
 62
     7
 10
27.488099999999999
 20
30.732800000000001
 30
0.0
 70
    32
  0
VERTEX
  5
B2C
  8
EBENE_1
 62
     7
 10
27.4681
 20
30.683700000000002
 30
0.0
 70
    32
  0
VERTEX
  5
B2D
  8
EBENE_1
 62
     7
 10
27.4481
 20
30.634499999999999
 30
0.0
 70
    32
  0
VERTEX
  5
B2E
  8
EBENE_1
 62
     7
 10
27.428000000000001
 20
30.585000000000001
 30
0.0
 70
    32
  0
VERTEX
  5
B2F
  8
EBENE_1
 62
     7
 10
27.407900000000001
 20
30.535499999999999
 30
0.0
 70
    32
  0
VERTEX
  5
B30
  8
EBENE_1
 62
     7
 10
27.387799999999999
 20
30.486000000000001
 30
0.0
 70
    32
  0
VERTEX
  5
B31
  8
EBENE_1
 62
     7
 10
27.367699999999999
 20
30.436399999999999
 30
0.0
 70
    32
  0
VERTEX
  5
B32
  8
EBENE_1
 62
     7
 10
27.3475
 20
30.386800000000001
 30
0.0
 70
    32
  0
VERTEX
  5
B33
  8
EBENE_1
 62
     7
 10
27.327400000000001
 20
30.337299999999999
 30
0.0
 70
    32
  0
VERTEX
  5
B34
  8
EBENE_1
 62
     7
 10
27.307400000000001
 20
30.2879
 30
0.0
 70
    32
  0
VERTEX
  5
B35
  8
EBENE_1
 62
     7
 10
27.287400000000002
 20
30.238600000000002
 30
0.0
 70
    32
  0
VERTEX
  5
B36
  8
EBENE_1
 62
     7
 10
27.267399999999999
 20
30.189499999999999
 30
0.0
 70
    32
  0
VERTEX
  5
B37
  8
EBENE_1
 62
     7
 10
27.247599999999998
 20
30.140599999999999
 30
0.0
 70
    32
  0
VERTEX
  5
B38
  8
EBENE_1
 62
     7
 10
27.227799999999998
 20
30.091999999999999
 30
0.0
 70
    32
  0
VERTEX
  5
B39
  8
EBENE_1
 62
     7
 10
27.208200000000001
 20
30.043600000000001
 30
0.0
 70
    32
  0
VERTEX
  5
B3A
  8
EBENE_1
 62
     7
 10
27.188700000000001
 20
29.9956
 30
0.0
 70
    32
  0
VERTEX
  5
B3B
  8
EBENE_1
 62
     7
 10
27.1693
 20
29.947900000000001
 30
0.0
 70
    32
  0
VERTEX
  5
B3C
  8
EBENE_1
 62
     7
 10
27.150099999999998
 20
29.900600000000001
 30
0.0
 70
    32
  0
VERTEX
  5
B3D
  8
EBENE_1
 62
     7
 10
27.1311
 20
29.8538
 30
0.0
 70
    32
  0
VERTEX
  5
B3E
  8
EBENE_1
 62
     7
 10
27.112300000000001
 20
29.807400000000001
 30
0.0
 70
    32
  0
VERTEX
  5
B3F
  8
EBENE_1
 62
     7
 10
27.093599999999999
 20
29.761500000000002
 30
0.0
 70
    32
  0
VERTEX
  5
B40
  8
EBENE_1
 62
     7
 10
27.075199999999999
 20
29.716200000000001
 30
0.0
 70
    32
  0
VERTEX
  5
B41
  8
EBENE_1
 62
     7
 10
27.057099999999998
 20
29.671500000000002
 30
0.0
 70
    32
  0
VERTEX
  5
B42
  8
EBENE_1
 62
     7
 10
27.039200000000001
 20
29.627400000000002
 30
0.0
 70
    32
  0
VERTEX
  5
B43
  8
EBENE_1
 62
     7
 10
27.0215
 20
29.584
 30
0.0
 70
    32
  0
VERTEX
  5
B44
  8
EBENE_1
 62
     7
 10
27.004200000000001
 20
29.5413
 30
0.0
 70
    32
  0
VERTEX
  5
B45
  8
EBENE_1
 62
     7
 10
26.987100000000002
 20
29.499300000000002
 30
0.0
 70
    32
  0
VERTEX
  5
B46
  8
EBENE_1
 62
     7
 10
26.970400000000001
 20
29.458100000000002
 30
0.0
 70
    32
  0
VERTEX
  5
B47
  8
EBENE_1
 62
     7
 10
26.954000000000001
 20
29.4177
 30
0.0
 70
    32
  0
VERTEX
  5
B48
  8
EBENE_1
 62
     7
 10
26.937899999999999
 20
29.3781
 30
0.0
 70
    32
  0
VERTEX
  5
B49
  8
EBENE_1
 62
     7
 10
26.9222
 20
29.339500000000001
 30
0.0
 70
    32
  0
VERTEX
  5
B4A
  8
EBENE_1
 62
     7
 10
26.9069
 20
29.3018
 30
0.0
 70
    32
  0
VERTEX
  5
B4B
  8
EBENE_1
 62
     7
 10
26.891999999999999
 20
29.265000000000001
 30
0.0
 70
    32
  0
VERTEX
  5
B4C
  8
EBENE_1
 62
     7
 10
26.877500000000001
 20
29.229299999999999
 30
0.0
 70
    32
  0
VERTEX
  5
B4D
  8
EBENE_1
 62
     7
 10
26.863399999999999
 20
29.194600000000001
 30
0.0
 70
    32
  0
VERTEX
  5
B4E
  8
EBENE_1
 62
     7
 10
26.849799999999998
 20
29.161000000000001
 30
0.0
 70
    32
  0
VERTEX
  5
B4F
  8
EBENE_1
 62
     7
 10
26.836600000000001
 20
29.128499999999999
 30
0.0
 70
    32
  0
VERTEX
  5
B50
  8
EBENE_1
 62
     7
 10
26.823799999999999
 20
29.097200000000001
 30
0.0
 70
    32
  0
VERTEX
  5
B51
  8
EBENE_1
 62
     7
 10
26.811599999999999
 20
29.067
 30
0.0
 70
    32
  0
VERTEX
  5
B52
  8
EBENE_1
 62
     7
 10
26.799900000000001
 20
29.0381
 30
0.0
 70
    32
  0
VERTEX
  5
B53
  8
EBENE_1
 62
     7
 10
26.788599999999999
 20
29.0105
 30
0.0
 70
    32
  0
VERTEX
  5
B54
  8
EBENE_1
 62
     7
 10
26.777999999999999
 20
28.984200000000001
 30
0.0
 70
    32
  0
VERTEX
  5
B55
  8
EBENE_1
 62
     7
 10
26.767800000000001
 20
28.959199999999999
 30
0.0
 70
    32
  0
VERTEX
  5
B56
  8
EBENE_1
 62
     7
 10
26.758199999999999
 20
28.935600000000001
 30
0.0
 70
    32
  0
VERTEX
  5
B57
  8
EBENE_1
 62
     7
 10
26.749199999999998
 20
28.913399999999999
 30
0.0
 70
    32
  0
VERTEX
  5
B58
  8
EBENE_1
 62
     7
 10
26.7408
 20
28.892700000000001
 30
0.0
 70
    32
  0
VERTEX
  5
B59
  8
EBENE_1
 62
     7
 10
26.733000000000001
 20
28.8735
 30
0.0
 70
    32
  0
VERTEX
  5
B5A
  8
EBENE_1
 62
     7
 10
26.725899999999999
 20
28.855899999999998
 30
0.0
 70
    32
  0
VERTEX
  5
B5B
  8
EBENE_1
 62
     7
 10
26.7193
 20
28.8398
 30
0.0
 70
    32
  0
VERTEX
  5
B5C
  8
EBENE_1
 62
     7
 10
26.7135
 20
28.825299999999999
 30
0.0
 70
    32
  0
VERTEX
  5
B5D
  8
EBENE_1
 62
     7
 10
26.708200000000001
 20
28.8125
 30
0.0
 70
    32
  0
VERTEX
  5
B5E
  8
EBENE_1
 62
     7
 10
26.703700000000001
 20
28.801400000000001
 30
0.0
 70
    32
  0
VERTEX
  5
B5F
  8
EBENE_1
 62
     7
 10
26.6999
 20
28.792000000000002
 30
0.0
 70
    32
  0
VERTEX
  5
B60
  8
EBENE_1
 62
     7
 10
26.6968
 20
28.784300000000002
 30
0.0
 70
    32
  0
VERTEX
  5
B61
  8
EBENE_1
 62
     7
 10
26.694400000000002
 20
28.778500000000001
 30
0.0
 70
    32
  0
VERTEX
  5
B62
  8
EBENE_1
 62
     7
 10
26.692799999999998
 20
28.7745
 30
0.0
 70
    32
  0
VERTEX
  5
B63
  8
EBENE_1
 62
     7
 10
26.692
 20
28.772400000000001
 30
0.0
 70
    32
  0
VERTEX
  5
B64
  8
EBENE_1
 62
     7
 10
26.691700000000001
 20
28.771799999999999
 30
0.0
 70
    32
  0
VERTEX
  5
B65
  8
EBENE_1
 62
     7
 10
26.691500000000001
 20
28.770900000000001
 30
0.0
 70
    32
  0
VERTEX
  5
B66
  8
EBENE_1
 62
     7
 10
26.691299999999998
 20
28.7697
 30
0.0
 70
    32
  0
VERTEX
  5
B67
  8
EBENE_1
 62
     7
 10
26.691099999999999
 20
28.7682
 30
0.0
 70
    32
  0
VERTEX
  5
B68
  8
EBENE_1
 62
     7
 10
26.690799999999999
 20
28.766300000000001
 30
0.0
 70
    32
  0
VERTEX
  5
B69
  8
EBENE_1
 62
     7
 10
26.6906
 20
28.764199999999999
 30
0.0
 70
    32
  0
VERTEX
  5
B6A
  8
EBENE_1
 62
     7
 10
26.6905
 20
28.761700000000001
 30
0.0
 70
    32
  0
VERTEX
  5
B6B
  8
EBENE_1
 62
     7
 10
26.690300000000001
 20
28.759
 30
0.0
 70
    32
  0
VERTEX
  5
B6C
  8
EBENE_1
 62
     7
 10
26.690100000000001
 20
28.7559
 30
0.0
 70
    32
  0
VERTEX
  5
B6D
  8
EBENE_1
 62
     7
 10
26.689900000000002
 20
28.752600000000001
 30
0.0
 70
    32
  0
VERTEX
  5
B6E
  8
EBENE_1
 62
     7
 10
26.689800000000002
 20
28.748999999999999
 30
0.0
 70
    32
  0
VERTEX
  5
B6F
  8
EBENE_1
 62
     7
 10
26.689599999999999
 20
28.745200000000001
 30
0.0
 70
    32
  0
VERTEX
  5
B70
  8
EBENE_1
 62
     7
 10
26.689499999999999
 20
28.741
 30
0.0
 70
    32
  0
VERTEX
  5
B71
  8
EBENE_1
 62
     7
 10
26.689399999999999
 20
28.736599999999999
 30
0.0
 70
    32
  0
VERTEX
  5
B72
  8
EBENE_1
 62
     7
 10
26.6892
 20
28.731999999999999
 30
0.0
 70
    32
  0
VERTEX
  5
B73
  8
EBENE_1
 62
     7
 10
26.6891
 20
28.7271
 30
0.0
 70
    32
  0
VERTEX
  5
B74
  8
EBENE_1
 62
     7
 10
26.689
 20
28.722000000000001
 30
0.0
 70
    32
  0
VERTEX
  5
B75
  8
EBENE_1
 62
     7
 10
26.6889
 20
28.7166
 30
0.0
 70
    32
  0
VERTEX
  5
B76
  8
EBENE_1
 62
     7
 10
26.688800000000001
 20
28.710999999999999
 30
0.0
 70
    32
  0
VERTEX
  5
B77
  8
EBENE_1
 62
     7
 10
26.688700000000001
 20
28.705200000000001
 30
0.0
 70
    32
  0
VERTEX
  5
B78
  8
EBENE_1
 62
     7
 10
26.688700000000001
 20
28.699200000000001
 30
0.0
 70
    32
  0
VERTEX
  5
B79
  8
EBENE_1
 62
     7
 10
26.688600000000001
 20
28.693000000000001
 30
0.0
 70
    32
  0
VERTEX
  5
B7A
  8
EBENE_1
 62
     7
 10
26.688500000000001
 20
28.686599999999999
 30
0.0
 70
    32
  0
VERTEX
  5
B7B
  8
EBENE_1
 62
     7
 10
26.688400000000001
 20
28.68
 30
0.0
 70
    32
  0
VERTEX
  5
B7C
  8
EBENE_1
 62
     7
 10
26.688400000000001
 20
28.673200000000001
 30
0.0
 70
    32
  0
VERTEX
  5
B7D
  8
EBENE_1
 62
     7
 10
26.688300000000002
 20
28.6662
 30
0.0
 70
    32
  0
VERTEX
  5
B7E
  8
EBENE_1
 62
     7
 10
26.688300000000002
 20
28.658999999999999
 30
0.0
 70
    32
  0
VERTEX
  5
B7F
  8
EBENE_1
 62
     7
 10
26.688300000000002
 20
28.651700000000002
 30
0.0
 70
    32
  0
VERTEX
  5
B80
  8
EBENE_1
 62
     7
 10
26.688199999999998
 20
28.644200000000001
 30
0.0
 70
    32
  0
VERTEX
  5
B81
  8
EBENE_1
 62
     7
 10
26.688199999999998
 20
28.636600000000001
 30
0.0
 70
    32
  0
VERTEX
  5
B82
  8
EBENE_1
 62
     7
 10
26.688199999999998
 20
28.628799999999998
 30
0.0
 70
    32
  0
VERTEX
  5
B83
  8
EBENE_1
 62
     7
 10
26.688199999999998
 20
28.620799999999999
 30
0.0
 70
    32
  0
VERTEX
  5
B84
  8
EBENE_1
 62
     7
 10
26.688199999999998
 20
28.6128
 30
0.0
 70
    32
  0
VERTEX
  5
B85
  8
EBENE_1
 62
     7
 10
26.688199999999998
 20
28.604600000000001
 30
0.0
 70
    32
  0
VERTEX
  5
B86
  8
EBENE_1
 62
     7
 10
26.688199999999998
 20
28.5962
 30
0.0
 70
    32
  0
VERTEX
  5
B87
  8
EBENE_1
 62
     7
 10
26.688199999999998
 20
28.587800000000001
 30
0.0
 70
    32
  0
VERTEX
  5
B88
  8
EBENE_1
 62
     7
 10
26.688199999999998
 20
28.5792
 30
0.0
 70
    32
  0
VERTEX
  5
B89
  8
EBENE_1
 62
     7
 10
26.688199999999998
 20
28.570599999999999
 30
0.0
 70
    32
  0
VERTEX
  5
B8A
  8
EBENE_1
 62
     7
 10
26.688199999999998
 20
28.561800000000002
 30
0.0
 70
    32
  0
VERTEX
  5
B8B
  8
EBENE_1
 62
     7
 10
26.688199999999998
 20
28.552900000000001
 30
0.0
 70
    32
  0
VERTEX
  5
B8C
  8
EBENE_1
 62
     7
 10
26.688199999999998
 20
28.544
 30
0.0
 70
    32
  0
VERTEX
  5
B8D
  8
EBENE_1
 62
     7
 10
26.688300000000002
 20
28.535
 30
0.0
 70
    32
  0
VERTEX
  5
B8E
  8
EBENE_1
 62
     7
 10
26.688300000000002
 20
28.5259
 30
0.0
 70
    32
  0
VERTEX
  5
B8F
  8
EBENE_1
 62
     7
 10
26.688300000000002
 20
28.5167
 30
0.0
 70
    32
  0
VERTEX
  5
B90
  8
EBENE_1
 62
     7
 10
26.688400000000001
 20
28.5075
 30
0.0
 70
    32
  0
VERTEX
  5
B91
  8
EBENE_1
 62
     7
 10
26.688400000000001
 20
28.498200000000001
 30
0.0
 70
    32
  0
VERTEX
  5
B92
  8
EBENE_1
 62
     7
 10
26.688500000000001
 20
28.488900000000001
 30
0.0
 70
    32
  0
VERTEX
  5
B93
  8
EBENE_1
 62
     7
 10
26.688500000000001
 20
28.479500000000002
 30
0.0
 70
    32
  0
VERTEX
  5
B94
  8
EBENE_1
 62
     7
 10
26.688600000000001
 20
28.470099999999999
 30
0.0
 70
    32
  0
VERTEX
  5
B95
  8
EBENE_1
 62
     7
 10
26.688600000000001
 20
28.460699999999999
 30
0.0
 70
    32
  0
VERTEX
  5
B96
  8
EBENE_1
 62
     7
 10
26.688700000000001
 20
28.4512
 30
0.0
 70
    32
  0
VERTEX
  5
B97
  8
EBENE_1
 62
     7
 10
26.688700000000001
 20
28.441800000000001
 30
0.0
 70
    32
  0
VERTEX
  5
B98
  8
EBENE_1
 62
     7
 10
26.688800000000001
 20
28.432300000000001
 30
0.0
 70
    32
  0
VERTEX
  5
B99
  8
EBENE_1
 62
     7
 10
26.6889
 20
28.422799999999999
 30
0.0
 70
    32
  0
VERTEX
  5
B9A
  8
EBENE_1
 62
     7
 10
26.6889
 20
28.4133
 30
0.0
 70
    32
  0
VERTEX
  5
B9B
  8
EBENE_1
 62
     7
 10
26.689
 20
28.4038
 30
0.0
 70
    32
  0
VERTEX
  5
B9C
  8
EBENE_1
 62
     7
 10
26.6891
 20
28.394400000000001
 30
0.0
 70
    32
  0
VERTEX
  5
B9D
  8
EBENE_1
 62
     7
 10
26.6891
 20
28.385000000000002
 30
0.0
 70
    32
  0
VERTEX
  5
B9E
  8
EBENE_1
 62
     7
 10
26.6892
 20
28.375499999999999
 30
0.0
 70
    32
  0
VERTEX
  5
B9F
  8
EBENE_1
 62
     7
 10
26.689299999999999
 20
28.366199999999999
 30
0.0
 70
    32
  0
VERTEX
  5
BA0
  8
EBENE_1
 62
     7
 10
26.689399999999999
 20
28.3568
 30
0.0
 70
    32
  0
VERTEX
  5
BA1
  8
EBENE_1
 62
     7
 10
26.689399999999999
 20
28.3476
 30
0.0
 70
    32
  0
VERTEX
  5
BA2
  8
EBENE_1
 62
     7
 10
26.689499999999999
 20
28.3383
 30
0.0
 70
    32
  0
VERTEX
  5
BA3
  8
EBENE_1
 62
     7
 10
26.689599999999999
 20
28.3292
 30
0.0
 70
    32
  0
VERTEX
  5
BA4
  8
EBENE_1
 62
     7
 10
26.689699999999998
 20
28.32
 30
0.0
 70
    32
  0
VERTEX
  5
BA5
  8
EBENE_1
 62
     7
 10
26.689800000000002
 20
28.311
 30
0.0
 70
    32
  0
VERTEX
  5
BA6
  8
EBENE_1
 62
     7
 10
26.689800000000002
 20
28.302099999999999
 30
0.0
 70
    32
  0
VERTEX
  5
BA7
  8
EBENE_1
 62
     7
 10
26.689900000000002
 20
28.293199999999999
 30
0.0
 70
    32
  0
VERTEX
  5
BA8
  8
EBENE_1
 62
     7
 10
26.690000000000001
 20
28.284400000000002
 30
0.0
 70
    32
  0
VERTEX
  5
BA9
  8
EBENE_1
 62
     7
 10
26.690100000000001
 20
28.275700000000001
 30
0.0
 70
    32
  0
VERTEX
  5
BAA
  8
EBENE_1
 62
     7
 10
26.690200000000001
 20
28.267199999999999
 30
0.0
 70
    32
  0
VERTEX
  5
BAB
  8
EBENE_1
 62
     7
 10
26.690300000000001
 20
28.258700000000001
 30
0.0
 70
    32
  0
VERTEX
  5
BAC
  8
EBENE_1
 62
     7
 10
26.690300000000001
 20
28.250399999999999
 30
0.0
 70
    32
  0
VERTEX
  5
BAD
  8
EBENE_1
 62
     7
 10
26.6904
 20
28.242100000000001
 30
0.0
 70
    32
  0
VERTEX
  5
BAE
  8
EBENE_1
 62
     7
 10
26.6905
 20
28.234000000000002
 30
0.0
 70
    32
  0
VERTEX
  5
BAF
  8
EBENE_1
 62
     7
 10
26.6906
 20
28.226099999999999
 30
0.0
 70
    32
  0
VERTEX
  5
BB0
  8
EBENE_1
 62
     7
 10
26.6906
 20
28.218299999999999
 30
0.0
 70
    32
  0
VERTEX
  5
BB1
  8
EBENE_1
 62
     7
 10
26.6907
 20
28.210599999999999
 30
0.0
 70
    32
  0
VERTEX
  5
BB2
  8
EBENE_1
 62
     7
 10
26.690799999999999
 20
28.203099999999999
 30
0.0
 70
    32
  0
VERTEX
  5
BB3
  8
EBENE_1
 62
     7
 10
26.690899999999999
 20
28.195699999999999
 30
0.0
 70
    32
  0
VERTEX
  5
BB4
  8
EBENE_1
 62
     7
 10
26.690899999999999
 20
28.188500000000001
 30
0.0
 70
    32
  0
VERTEX
  5
BB5
  8
EBENE_1
 62
     7
 10
26.690999999999999
 20
28.1815
 30
0.0
 70
    32
  0
VERTEX
  5
BB6
  8
EBENE_1
 62
     7
 10
26.691099999999999
 20
28.174700000000001
 30
0.0
 70
    32
  0
VERTEX
  5
BB7
  8
EBENE_1
 62
     7
 10
26.691099999999999
 20
28.168099999999999
 30
0.0
 70
    32
  0
VERTEX
  5
BB8
  8
EBENE_1
 62
     7
 10
26.691199999999998
 20
28.1616
 30
0.0
 70
    32
  0
VERTEX
  5
BB9
  8
EBENE_1
 62
     7
 10
26.691299999999998
 20
28.1554
 30
0.0
 70
    32
  0
VERTEX
  5
BBA
  8
EBENE_1
 62
     7
 10
26.691299999999998
 20
28.1493
 30
0.0
 70
    32
  0
VERTEX
  5
BBB
  8
EBENE_1
 62
     7
 10
26.691400000000002
 20
28.1435
 30
0.0
 70
    32
  0
VERTEX
  5
BBC
  8
EBENE_1
 62
     7
 10
26.691400000000002
 20
28.137899999999998
 30
0.0
 70
    32
  0
VERTEX
  5
BBD
  8
EBENE_1
 62
     7
 10
26.691500000000001
 20
28.1325
 30
0.0
 70
    32
  0
VERTEX
  5
BBE
  8
EBENE_1
 62
     7
 10
26.691500000000001
 20
28.127300000000002
 30
0.0
 70
    32
  0
VERTEX
  5
BBF
  8
EBENE_1
 62
     7
 10
26.691600000000001
 20
28.122399999999999
 30
0.0
 70
    32
  0
VERTEX
  5
BC0
  8
EBENE_1
 62
     7
 10
26.691600000000001
 20
28.117699999999999
 30
0.0
 70
    32
  0
VERTEX
  5
BC1
  8
EBENE_1
 62
     7
 10
26.691700000000001
 20
28.113299999999999
 30
0.0
 70
    32
  0
VERTEX
  5
BC2
  8
EBENE_1
 62
     7
 10
26.691700000000001
 20
28.109100000000002
 30
0.0
 70
    32
  0
VERTEX
  5
BC3
  8
EBENE_1
 62
     7
 10
26.691700000000001
 20
28.1052
 30
0.0
 70
    32
  0
VERTEX
  5
BC4
  8
EBENE_1
 62
     7
 10
26.691700000000001
 20
28.101600000000001
 30
0.0
 70
    32
  0
VERTEX
  5
BC5
  8
EBENE_1
 62
     7
 10
26.691800000000001
 20
28.098199999999999
 30
0.0
 70
    32
  0
VERTEX
  5
BC6
  8
EBENE_1
 62
     7
 10
26.691800000000001
 20
28.095199999999998
 30
0.0
 70
    32
  0
VERTEX
  5
BC7
  8
EBENE_1
 62
     7
 10
26.691800000000001
 20
28.092400000000001
 30
0.0
 70
    32
  0
VERTEX
  5
BC8
  8
EBENE_1
 62
     7
 10
26.691800000000001
 20
28.0899
 30
0.0
 70
    32
  0
VERTEX
  5
BC9
  8
EBENE_1
 62
     7
 10
26.691800000000001
 20
28.087700000000002
 30
0.0
 70
    32
  0
VERTEX
  5
BCA
  8
EBENE_1
 62
     7
 10
26.691800000000001
 20
28.086099999999998
 30
0.0
 70
    32
  0
VERTEX
  5
BCB
  8
EBENE_1
 62
     7
 10
26.692699999999999
 20
28.086099999999998
 30
0.0
 70
    32
  0
VERTEX
  5
BCC
  8
EBENE_1
 62
     7
 10
26.694700000000001
 20
28.086099999999998
 30
0.0
 70
    32
  0
VERTEX
  5
BCD
  8
EBENE_1
 62
     7
 10
26.697800000000001
 20
28.086099999999998
 30
0.0
 70
    32
  0
VERTEX
  5
BCE
  8
EBENE_1
 62
     7
 10
26.702100000000002
 20
28.086099999999998
 30
0.0
 70
    32
  0
VERTEX
  5
BCF
  8
EBENE_1
 62
     7
 10
26.7075
 20
28.086099999999998
 30
0.0
 70
    32
  0
VERTEX
  5
BD0
  8
EBENE_1
 62
     7
 10
26.713899999999999
 20
28.086099999999998
 30
0.0
 70
    32
  0
VERTEX
  5
BD1
  8
EBENE_1
 62
     7
 10
26.721399999999999
 20
28.086099999999998
 30
0.0
 70
    32
  0
VERTEX
  5
BD2
  8
EBENE_1
 62
     7
 10
26.729900000000001
 20
28.086099999999998
 30
0.0
 70
    32
  0
VERTEX
  5
BD3
  8
EBENE_1
 62
     7
 10
26.7394
 20
28.086099999999998
 30
0.0
 70
    32
  0
VERTEX
  5
BD4
  8
EBENE_1
 62
     7
 10
26.7499
 20
28.086099999999998
 30
0.0
 70
    32
  0
VERTEX
  5
BD5
  8
EBENE_1
 62
     7
 10
26.761399999999998
 20
28.086099999999998
 30
0.0
 70
    32
  0
VERTEX
  5
BD6
  8
EBENE_1
 62
     7
 10
26.773800000000001
 20
28.086099999999998
 30
0.0
 70
    32
  0
VERTEX
  5
BD7
  8
EBENE_1
 62
     7
 10
26.787099999999999
 20
28.086099999999998
 30
0.0
 70
    32
  0
VERTEX
  5
BD8
  8
EBENE_1
 62
     7
 10
26.801300000000001
 20
28.086099999999998
 30
0.0
 70
    32
  0
VERTEX
  5
BD9
  8
EBENE_1
 62
     7
 10
26.816299999999998
 20
28.086099999999998
 30
0.0
 70
    32
  0
VERTEX
  5
BDA
  8
EBENE_1
 62
     7
 10
26.8322
 20
28.086099999999998
 30
0.0
 70
    32
  0
VERTEX
  5
BDB
  8
EBENE_1
 62
     7
 10
26.849
 20
28.086099999999998
 30
0.0
 70
    32
  0
VERTEX
  5
BDC
  8
EBENE_1
 62
     7
 10
26.866499999999998
 20
28.086099999999998
 30
0.0
 70
    32
  0
VERTEX
  5
BDD
  8
EBENE_1
 62
     7
 10
26.884699999999999
 20
28.086099999999998
 30
0.0
 70
    32
  0
VERTEX
  5
BDE
  8
EBENE_1
 62
     7
 10
26.9038
 20
28.086099999999998
 30
0.0
 70
    32
  0
VERTEX
  5
BDF
  8
EBENE_1
 62
     7
 10
26.923500000000001
 20
28.086099999999998
 30
0.0
 70
    32
  0
VERTEX
  5
BE0
  8
EBENE_1
 62
     7
 10
26.943999999999999
 20
28.086099999999998
 30
0.0
 70
    32
  0
VERTEX
  5
BE1
  8
EBENE_1
 62
     7
 10
26.9651
 20
28.086099999999998
 30
0.0
 70
    32
  0
VERTEX
  5
BE2
  8
EBENE_1
 62
     7
 10
26.986899999999999
 20
28.086099999999998
 30
0.0
 70
    32
  0
VERTEX
  5
BE3
  8
EBENE_1
 62
     7
 10
27.0093
 20
28.086099999999998
 30
0.0
 70
    32
  0
VERTEX
  5
BE4
  8
EBENE_1
 62
     7
 10
27.032299999999999
 20
28.086099999999998
 30
0.0
 70
    32
  0
VERTEX
  5
BE5
  8
EBENE_1
 62
     7
 10
27.055900000000001
 20
28.086099999999998
 30
0.0
 70
    32
  0
VERTEX
  5
BE6
  8
EBENE_1
 62
     7
 10
27.080100000000002
 20
28.086099999999998
 30
0.0
 70
    32
  0
VERTEX
  5
BE7
  8
EBENE_1
 62
     7
 10
27.104800000000001
 20
28.086099999999998
 30
0.0
 70
    32
  0
VERTEX
  5
BE8
  8
EBENE_1
 62
     7
 10
27.129999999999999
 20
28.086099999999998
 30
0.0
 70
    32
  0
VERTEX
  5
BE9
  8
EBENE_1
 62
     7
 10
27.1557
 20
28.086099999999998
 30
0.0
 70
    32
  0
VERTEX
  5
BEA
  8
EBENE_1
 62
     7
 10
27.181799999999999
 20
28.086099999999998
 30
0.0
 70
    32
  0
VERTEX
  5
BEB
  8
EBENE_1
 62
     7
 10
27.208400000000001
 20
28.086099999999998
 30
0.0
 70
    32
  0
VERTEX
  5
BEC
  8
EBENE_1
 62
     7
 10
27.235499999999998
 20
28.086099999999998
 30
0.0
 70
    32
  0
VERTEX
  5
BED
  8
EBENE_1
 62
     7
 10
27.262899999999998
 20
28.086099999999998
 30
0.0
 70
    32
  0
VERTEX
  5
BEE
  8
EBENE_1
 62
     7
 10
27.290700000000001
 20
28.086099999999998
 30
0.0
 70
    32
  0
VERTEX
  5
BEF
  8
EBENE_1
 62
     7
 10
27.3188
 20
28.086099999999998
 30
0.0
 70
    32
  0
VERTEX
  5
BF0
  8
EBENE_1
 62
     7
 10
27.347300000000001
 20
28.086099999999998
 30
0.0
 70
    32
  0
VERTEX
  5
BF1
  8
EBENE_1
 62
     7
 10
27.376100000000001
 20
28.086099999999998
 30
0.0
 70
    32
  0
VERTEX
  5
BF2
  8
EBENE_1
 62
     7
 10
27.405100000000001
 20
28.086099999999998
 30
0.0
 70
    32
  0
VERTEX
  5
BF3
  8
EBENE_1
 62
     7
 10
27.4344
 20
28.086099999999998
 30
0.0
 70
    32
  0
VERTEX
  5
BF4
  8
EBENE_1
 62
     7
 10
27.463899999999999
 20
28.086099999999998
 30
0.0
 70
    32
  0
VERTEX
  5
BF5
  8
EBENE_1
 62
     7
 10
27.4937
 20
28.086099999999998
 30
0.0
 70
    32
  0
VERTEX
  5
BF6
  8
EBENE_1
 62
     7
 10
27.523599999999998
 20
28.086099999999998
 30
0.0
 70
    32
  0
VERTEX
  5
BF7
  8
EBENE_1
 62
     7
 10
27.553699999999999
 20
28.086099999999998
 30
0.0
 70
    32
  0
VERTEX
  5
BF8
  8
EBENE_1
 62
     7
 10
27.5839
 20
28.086099999999998
 30
0.0
 70
    32
  0
VERTEX
  5
BF9
  8
EBENE_1
 62
     7
 10
27.6143
 20
28.086099999999998
 30
0.0
 70
    32
  0
VERTEX
  5
BFA
  8
EBENE_1
 62
     7
 10
27.6447
 20
28.086099999999998
 30
0.0
 70
    32
  0
VERTEX
  5
BFB
  8
EBENE_1
 62
     7
 10
27.6752
 20
28.086099999999998
 30
0.0
 70
    32
  0
VERTEX
  5
BFC
  8
EBENE_1
 62
     7
 10
27.7058
 20
28.086099999999998
 30
0.0
 70
    32
  0
VERTEX
  5
BFD
  8
EBENE_1
 62
     7
 10
27.7363
 20
28.086099999999998
 30
0.0
 70
    32
  0
VERTEX
  5
BFE
  8
EBENE_1
 62
     7
 10
27.7669
 20
28.086099999999998
 30
0.0
 70
    32
  0
VERTEX
  5
BFF
  8
EBENE_1
 62
     7
 10
27.7974
 20
28.086099999999998
 30
0.0
 70
    32
  0
VERTEX
  5
C00
  8
EBENE_1
 62
     7
 10
27.8279
 20
28.086099999999998
 30
0.0
 70
    32
  0
VERTEX
  5
C01
  8
EBENE_1
 62
     7
 10
27.8583
 20
28.086099999999998
 30
0.0
 70
    32
  0
VERTEX
  5
C02
  8
EBENE_1
 62
     7
 10
27.8887
 20
28.086099999999998
 30
0.0
 70
    32
  0
VERTEX
  5
C03
  8
EBENE_1
 62
     7
 10
27.918900000000001
 20
28.086099999999998
 30
0.0
 70
    32
  0
VERTEX
  5
C04
  8
EBENE_1
 62
     7
 10
27.948899999999998
 20
28.086099999999998
 30
0.0
 70
    32
  0
VERTEX
  5
C05
  8
EBENE_1
 62
     7
 10
27.9788
 20
28.086099999999998
 30
0.0
 70
    32
  0
VERTEX
  5
C06
  8
EBENE_1
 62
     7
 10
28.008500000000002
 20
28.086099999999998
 30
0.0
 70
    32
  0
VERTEX
  5
C07
  8
EBENE_1
 62
     7
 10
28.038
 20
28.086099999999998
 30
0.0
 70
    32
  0
VERTEX
  5
C08
  8
EBENE_1
 62
     7
 10
28.067299999999999
 20
28.086099999999998
 30
0.0
 70
    32
  0
VERTEX
  5
C09
  8
EBENE_1
 62
     7
 10
28.096299999999999
 20
28.086099999999998
 30
0.0
 70
    32
  0
VERTEX
  5
C0A
  8
EBENE_1
 62
     7
 10
28.125
 20
28.086099999999998
 30
0.0
 70
    32
  0
VERTEX
  5
C0B
  8
EBENE_1
 62
     7
 10
28.153400000000001
 20
28.086099999999998
 30
0.0
 70
    32
  0
VERTEX
  5
C0C
  8
EBENE_1
 62
     7
 10
28.1815
 20
28.086099999999998
 30
0.0
 70
    32
  0
VERTEX
  5
C0D
  8
EBENE_1
 62
     7
 10
28.209199999999999
 20
28.086099999999998
 30
0.0
 70
    32
  0
VERTEX
  5
C0E
  8
EBENE_1
 62
     7
 10
28.236499999999999
 20
28.086099999999998
 30
0.0
 70
    32
  0
VERTEX
  5
C0F
  8
EBENE_1
 62
     7
 10
28.263500000000001
 20
28.086099999999998
 30
0.0
 70
    32
  0
VERTEX
  5
C10
  8
EBENE_1
 62
     7
 10
28.289999999999999
 20
28.086099999999998
 30
0.0
 70
    32
  0
VERTEX
  5
C11
  8
EBENE_1
 62
     7
 10
28.316099999999999
 20
28.086099999999998
 30
0.0
 70
    32
  0
VERTEX
  5
C12
  8
EBENE_1
 62
     7
 10
28.341699999999999
 20
28.086099999999998
 30
0.0
 70
    32
  0
VERTEX
  5
C13
  8
EBENE_1
 62
     7
 10
28.366800000000001
 20
28.086099999999998
 30
0.0
 70
    32
  0
VERTEX
  5
C14
  8
EBENE_1
 62
     7
 10
28.391400000000001
 20
28.086099999999998
 30
0.0
 70
    32
  0
VERTEX
  5
C15
  8
EBENE_1
 62
     7
 10
28.415400000000002
 20
28.086099999999998
 30
0.0
 70
    32
  0
VERTEX
  5
C16
  8
EBENE_1
 62
     7
 10
28.4389
 20
28.086099999999998
 30
0.0
 70
    32
  0
VERTEX
  5
C17
  8
EBENE_1
 62
     7
 10
28.4618
 20
28.086099999999998
 30
0.0
 70
    32
  0
VERTEX
  5
C18
  8
EBENE_1
 62
     7
 10
28.484100000000002
 20
28.086099999999998
 30
0.0
 70
    32
  0
VERTEX
  5
C19
  8
EBENE_1
 62
     7
 10
28.505700000000001
 20
28.086099999999998
 30
0.0
 70
    32
  0
VERTEX
  5
C1A
  8
EBENE_1
 62
     7
 10
28.526700000000002
 20
28.086099999999998
 30
0.0
 70
    32
  0
VERTEX
  5
C1B
  8
EBENE_1
 62
     7
 10
28.547000000000001
 20
28.086099999999998
 30
0.0
 70
    32
  0
VERTEX
  5
C1C
  8
EBENE_1
 62
     7
 10
28.566600000000001
 20
28.086099999999998
 30
0.0
 70
    32
  0
VERTEX
  5
C1D
  8
EBENE_1
 62
     7
 10
28.5855
 20
28.086099999999998
 30
0.0
 70
    32
  0
VERTEX
  5
C1E
  8
EBENE_1
 62
     7
 10
28.6037
 20
28.086099999999998
 30
0.0
 70
    32
  0
VERTEX
  5
C1F
  8
EBENE_1
 62
     7
 10
28.620999999999999
 20
28.086099999999998
 30
0.0
 70
    32
  0
VERTEX
  5
C20
  8
EBENE_1
 62
     7
 10
28.637599999999999
 20
28.086099999999998
 30
0.0
 70
    32
  0
VERTEX
  5
C21
  8
EBENE_1
 62
     7
 10
28.653300000000002
 20
28.086099999999998
 30
0.0
 70
    32
  0
VERTEX
  5
C22
  8
EBENE_1
 62
     7
 10
28.668199999999999
 20
28.086099999999998
 30
0.0
 70
    32
  0
VERTEX
  5
C23
  8
EBENE_1
 62
     7
 10
28.682200000000002
 20
28.086099999999998
 30
0.0
 70
    32
  0
VERTEX
  5
C24
  8
EBENE_1
 62
     7
 10
28.6953
 20
28.086099999999998
 30
0.0
 70
    32
  0
VERTEX
  5
C25
  8
EBENE_1
 62
     7
 10
28.7075
 20
28.086099999999998
 30
0.0
 70
    32
  0
VERTEX
  5
C26
  8
EBENE_1
 62
     7
 10
28.718800000000002
 20
28.086099999999998
 30
0.0
 70
    32
  0
VERTEX
  5
C27
  8
EBENE_1
 62
     7
 10
28.729099999999999
 20
28.086099999999998
 30
0.0
 70
    32
  0
VERTEX
  5
C28
  8
EBENE_1
 62
     7
 10
28.738399999999999
 20
28.086099999999998
 30
0.0
 70
    32
  0
VERTEX
  5
C29
  8
EBENE_1
 62
     7
 10
28.7468
 20
28.086099999999998
 30
0.0
 70
    32
  0
VERTEX
  5
C2A
  8
EBENE_1
 62
     7
 10
28.754000000000001
 20
28.086099999999998
 30
0.0
 70
    32
  0
VERTEX
  5
C2B
  8
EBENE_1
 62
     7
 10
28.760300000000001
 20
28.086099999999998
 30
0.0
 70
    32
  0
VERTEX
  5
C2C
  8
EBENE_1
 62
     7
 10
28.7654
 20
28.086099999999998
 30
0.0
 70
    32
  0
VERTEX
  5
C2D
  8
EBENE_1
 62
     7
 10
28.769500000000001
 20
28.086099999999998
 30
0.0
 70
    32
  0
VERTEX
  5
C2E
  8
EBENE_1
 62
     7
 10
28.772400000000001
 20
28.086099999999998
 30
0.0
 70
    32
  0
VERTEX
  5
C2F
  8
EBENE_1
 62
     7
 10
28.774100000000001
 20
28.086099999999998
 30
0.0
 70
    32
  0
VERTEX
  5
C30
  8
EBENE_1
 62
     7
 10
28.774699999999999
 20
28.086099999999998
 30
0.0
 70
    32
  0
SEQEND
  5
C31
  8
EBENE_1
 62
     7
  0
POLYLINE
  5
2D
  8
EBENE_1
 62
     7
 66
     1
 10
0.0
 20
0.0
 30
0.0
  0
VERTEX
  5
C83
  8
EBENE_1
 62
     7
 10
23.312186008029521
 20
31.139012315538189
 30
0.0
  0
VERTEX
  5
C84
  8
EBENE_1
 62
     7
 10
23.76900566948785
 20
32.155487738715273
 30
0.0
  0
VERTEX
  5
C85
  8
EBENE_1
 62
     7
 10
23.76900566948785
 20
27.075005425347221
 30
0.0
  0
SEQEND
  5
C86
  8
EBENE_1
 62
     7
  0
LINE
  5
2C
  8
EBENE_1
 62
     7
 10
23.425185139973951
 20
27.065359157986109
 30
0.0
 11
24.088021511501729
 21
27.065359157986109
 31
0.0
  0
ENDBLK
  5
64B
  8
EBENE_1
  0
BLOCK
  8
0
  2
*D3
 70
     1
 10
0.0
 20
0.0
 30
0.0
  3
*D3
  1

  0
LINE
  5
C68
  8
0
  6
CONTINUOUS
 62
     0
 10
91.624726019965237
 20
174.389326985677
 30
0.0
 11
91.624726019965237
 21
183.83727941640149
 31
0.0
  0
LINE
  5
C69
  8
0
  6
CONTINUOUS
 62
     0
 10
112.62472601996519
 20
174.389326985677
 30
0.0
 11
112.62472601996519
 21
183.83727941640149
 31
0.0
  0
LINE
  5
C6A
  8
0
  6
CONTINUOUS
 62
     0
 10
91.804726019965244
 20
183.65727941640151
 30
0.0
 11
101.5847260199652
 21
183.65727941640151
 31
0.0
  0
LINE
  5
C6B
  8
0
  6
CONTINUOUS
 62
     0
 10
112.4447260199652
 20
183.65727941640151
 30
0.0
 11
102.6647260199652
 21
183.65727941640151
 31
0.0
  0
SOLID
  5
C6C
  8
0
  6
CONTINUOUS
 62
     0
 10
91.804726019965244
 20
183.68727941640151
 30
0.0
 11
91.804726019965244
 21
183.62727941640151
 31
0.0
 12
91.624726019965237
 22
183.65727941640151
 32
0.0
 13
91.624726019965237
 23
183.65727941640151
 33
0.0
  0
SOLID
  5
C6D
  8
0
  6
CONTINUOUS
 62
     0
 10
112.4447260199652
 20
183.68727941640151
 30
0.0
 11
112.4447260199652
 21
183.62727941640151
 31
0.0
 12
112.62472601996519
 22
183.65727941640151
 32
0.0
 13
112.62472601996519
 23
183.65727941640151
 33
0.0
  0
INSERT
  5
C6E
  8
0
  6
CONTINUOUS
  2
*U4
 10
0.0
 20
0.0
 30
0.0
  0
POINT
  5
C6F
  8
DEFPOINTS
  6
CONTINUOUS
 62
     0
 10
91.624726019965237
 20
174.326826985677
 30
0.0
  0
POINT
  5
C70
  8
DEFPOINTS
  6
CONTINUOUS
 62
     0
 10
112.62472601996519
 20
174.326826985677
 30
0.0
  0
POINT
  5
C71
  8
DEFPOINTS
  6
CONTINUOUS
 62
     0
 10
112.62472601996519
 20
183.65727941640151
 30
0.0
  0
ENDBLK
  5
C73
  8
0
  0
BLOCK
  8
0
  2
*U4
 70
     1
 10
0.0
 20
0.0
 30
0.0
  3
*U4
  1

  0
TEXT
  5
125D
  8
0
  6
CONTINUOUS
 62
     0
 10
101.67472601996521
 20
183.5672794164015
 30
0.0
 40
0.18
  1
21.0000
  0
ENDBLK
  5
125F
  8
0
  0
ENDSEC
  0
SECTION
  2
ENTITIES
  0
INSERT
  5
2A
  8
EBENE_1
 62
     7
  2
AI9-BLK1
 10
144.7754884400342
 20
70.477540217354161
 30
0.0
 41
3.9977845858298768
 42
3.9977845858298768
 43
3.9977845858298768
  0
ENDSEC
  0
EOF
