  0
SECTION
  2
HEADER
  9
$ACADVER
  1
AC1015
  9
$ACADMAINTVER
 70
    20
  9
$DWGCODEPAGE
  3
ANSI_932
  9
$INSBASE
 10
-150.2268989384199
 20
163.3791618657737
 30
0.0
  9
$EXTMIN
 10
0.0
 20
0.0
 30
0.0
  9
$EXTMAX
 10
759.1493103537332
 20
879.4543721657859
 30
0.0
  9
$LIMMIN
 10
0.0
 20
0.0
  9
$LIMMAX
 10
420.0
 20
297.0
  9
$ORTHOMODE
 70
     1
  9
$REGENMODE
 70
     1
  9
$FILLMODE
 70
     1
  9
$QTEXTMODE
 70
     0
  9
$MIRRTEXT
 70
     1
  9
$LTSCALE
 40
1.0
  9
$ATTMODE
 70
     1
  9
$TEXTSIZE
 40
0.0
  9
$TRACEWID
 40
1.0
  9
$TEXTSTYLE
  7
STANDARD
  9
$CLAYER
  8
buhin-1
  9
$CELTYPE
  6
BYLAYER
  9
$CECOLOR
 62
   256
  9
$CELTSCALE
 40
1.0
  9
$DISPSILH
 70
     0
  9
$DIMSCALE
 40
1.0
  9
$DIMASZ
 40
2.5
  9
$DIMEXO
 40
0.625
  9
$DIMDLI
 40
3.75
  9
$DIMRND
 40
0.0
  9
$DIMDLE
 40
0.0
  9
$DIMEXE
 40
1.25
  9
$DIMTP
 40
0.0
  9
$DIMTM
 40
0.0
  9
$DIMTXT
 40
2.5
  9
$DIMCEN
 40
2.5
  9
$DIMTSZ
 40
0.0
  9
$DIMTOL
 70
     0
  9
$DIMLIM
 70
     0
  9
$DIMTIH
 70
     0
  9
$DIMTOH
 70
     0
  9
$DIMSE1
 70
     0
  9
$DIMSE2
 70
     0
  9
$DIMTAD
 70
     1
  9
$DIMZIN
 70
     8
  9
$DIMBLK
  1
Open30
  9
$DIMASO
 70
     1
  9
$DIMSHO
 70
     1
  9
$DIMPOST
  1

  9
$DIMAPOST
  1

  9
$DIMALT
 70
     0
  9
$DIMALTD
 70
     3
  9
$DIMALTF
 40
0.039370079
  9
$DIMLFAC
 40
1.0
  9
$DIMTOFL
 70
     1
  9
$DIMTVP
 40
0.0
  9
$DIMTIX
 70
     0
  9
$DIMSOXD
 70
     0
  9
$DIMSAH
 70
     0
  9
$DIMBLK1
  1

  9
$DIMBLK2
  1

  9
$DIMSTYLE
  2
STANDARD
  9
$DIMCLRD
 70
     0
  9
$DIMCLRE
 70
     0
  9
$DIMCLRT
 70
     0
  9
$DIMTFAC
 40
1.0
  9
$DIMGAP
 40
0.625
  9
$DIMJUST
 70
     0
  9
$DIMSD1
 70
     0
  9
$DIMSD2
 70
     0
  9
$DIMTOLJ
 70
     0
  9
$DIMTZIN
 70
     8
  9
$DIMALTZ
 70
     0
  9
$DIMALTTZ
 70
     0
  9
$DIMUPT
 70
     0
  9
$DIMDEC
 70
     2
  9
$DIMTDEC
 70
     2
  9
$DIMALTU
 70
     2
  9
$DIMALTTD
 70
     3
  9
$DIMTXSTY
  7
STANDARD
  9
$DIMAUNIT
 70
     0
  9
$DIMADEC
 70
     0
  9
$DIMALTRND
 40
0.0
  9
$DIMAZIN
 70
     0
  9
$DIMDSEP
 70
    46
  9
$DIMATFIT
 70
     0
  9
$DIMFRAC
 70
     0
  9
$DIMLDRBLK
  1
Open30
  9
$DIMLUNIT
 70
     2
  9
$DIMLWD
 70
    -2
  9
$DIMLWE
 70
    -2
  9
$DIMTMOVE
 70
     0
  9
$LUNITS
 70
     2
  9
$LUPREC
 70
     4
  9
$SKETCHINC
 40
1.0
  9
$FILLETRAD
 40
0.0
  9
$AUNITS
 70
     0
  9
$AUPREC
 70
     0
  9
$MENU
  1
.
  9
$ELEVATION
 40
0.0
  9
$PELEVATION
 40
0.0
  9
$THICKNESS
 40
0.0
  9
$LIMCHECK
 70
     0
  9
$CHAMFERA
 40
2.5
  9
$CHAMFERB
 40
2.5
  9
$CHAMFERC
 40
0.0
  9
$CHAMFERD
 40
0.0
  9
$SKPOLY
 70
     0
  9
$TDCREATE
 40
2444972.375000000
  9
$TDUCREATE
 40
2444972.000000000
  9
$TDUPDATE
 40
2454064.374888901
  9
$TDUUPDATE
 40
2454063.999888901
  9
$TDINDWG
 40
0.6473302431
  9
$TDUSRTIMER
 40
0.6473302431
  9
$USRTIMER
 70
     1
  9
$ANGBASE
 50
180.0
  9
$ANGDIR
 70
     0
  9
$PDMODE
 70
     0
  9
$PDSIZE
 40
0.0
  9
$PLINEWID
 40
0.0
  9
$SPLFRAME
 70
     0
  9
$SPLINETYPE
 70
     6
  9
$SPLINESEGS
 70
     8
  9
$HANDSEED
  5
29709
  9
$SURFTAB1
 70
     6
  9
$SURFTAB2
 70
     6
  9
$SURFTYPE
 70
     6
  9
$SURFU
 70
     6
  9
$SURFV
 70
     6
  9
$UCSBASE
  2

  9
$UCSNAME
  2

  9
$UCSORG
 10
0.0
 20
0.0
 30
0.0
  9
$UCSXDIR
 10
1.0
 20
0.0
 30
0.0
  9
$UCSYDIR
 10
0.0
 20
1.0
 30
0.0
  9
$UCSORTHOREF
  2

  9
$UCSORTHOVIEW
 70
     0
  9
$UCSORGTOP
 10
0.0
 20
0.0
 30
0.0
  9
$UCSORGBOTTOM
 10
0.0
 20
0.0
 30
0.0
  9
$UCSORGLEFT
 10
0.0
 20
0.0
 30
0.0
  9
$UCSORGRIGHT
 10
0.0
 20
0.0
 30
0.0
  9
$UCSORGFRONT
 10
0.0
 20
0.0
 30
0.0
  9
$UCSORGBACK
 10
0.0
 20
0.0
 30
0.0
  9
$PUCSBASE
  2

  9
$PUCSNAME
  2

  9
$PUCSORG
 10
0.0
 20
0.0
 30
0.0
  9
$PUCSXDIR
 10
1.0
 20
0.0
 30
0.0
  9
$PUCSYDIR
 10
0.0
 20
1.0
 30
0.0
  9
$PUCSORTHOREF
  2

  9
$PUCSORTHOVIEW
 70
     0
  9
$PUCSORGTOP
 10
0.0
 20
0.0
 30
0.0
  9
$PUCSORGBOTTOM
 10
0.0
 20
0.0
 30
0.0
  9
$PUCSORGLEFT
 10
0.0
 20
0.0
 30
0.0
  9
$PUCSORGRIGHT
 10
0.0
 20
0.0
 30
0.0
  9
$PUCSORGFRONT
 10
0.0
 20
0.0
 30
0.0
  9
$PUCSORGBACK
 10
0.0
 20
0.0
 30
0.0
  9
$USERI1
 70
     0
  9
$USERI2
 70
     0
  9
$USERI3
 70
     0
  9
$USERI4
 70
     0
  9
$USERI5
 70
     0
  9
$USERR1
 40
0.0
  9
$USERR2
 40
0.0
  9
$USERR3
 40
0.0
  9
$USERR4
 40
0.0
  9
$USERR5
 40
0.0
  9
$WORLDVIEW
 70
     1
  9
$SHADEDGE
 70
     3
  9
$SHADEDIF
 70
    70
  9
$TILEMODE
 70
     1
  9
$MAXACTVP
 70
    48
  9
$PINSBASE
 10
0.0
 20
0.0
 30
0.0
  9
$PLIMCHECK
 70
     0
  9
$PEXTMIN
 10
28.36545224189757
 20
19.50931735038756
 30
0.0
  9
$PEXTMAX
 10
255.2890701770782
 20
175.5838561534881
 30
0.0
  9
$PLIMMIN
 10
-7.14373779296875
 20
-7.143749713897705
  9
$PLIMMAX
 10
289.8245849609375
 20
202.829577922821
  9
$UNITMODE
 70
     0
  9
$VISRETAIN
 70
     0
  9
$PLINEGEN
 70
     0
  9
$PSLTSCALE
 70
     1
  9
$TREEDEPTH
 70
  3020
  9
$CMLSTYLE
  2
STANDARD
  9
$CMLJUST
 70
     0
  9
$CMLSCALE
 40
20.0
  9
$PROXYGRAPHICS
 70
     1
  9
$MEASUREMENT
 70
     1
  9
$CELWEIGHT
370
    -1
  9
$ENDCAPS
280
     0
  9
$JOINSTYLE
280
     0
  9
$LWDISPLAY
290
     0
  9
$INSUNITS
 70
     0
  9
$HYPERLINKBASE
  1

  9
$STYLESHEET
  1

  9
$XEDIT
290
     1
  9
$CEPSNTYPE
380
     0
  9
$PSTYLEMODE
290
     1
  9
$FINGERPRINTGUID
  2
{41ACEC81-9508-475E-BA74-0EEB4862B396}
  9
$VERSIONGUID
  2
{1BBAABD6-E023-40C0-B08C-F9853CBAD28E}
  9
$EXTNAMES
290
     1
  9
$PSVPSCALE
 40
0.0
  9
$OLESTARTUP
290
     0
  0
ENDSEC
  0
SECTION
  2
CLASSES
  0
CLASS
  1
IMAGE
  2
AcDbRasterImage
  3
ISM
 90
    32895
280
     0
281
     1
  0
CLASS
  1
DICTIONARYVAR
  2
AcDbDictionaryVar
  3
ObjectDBX Classes
 90
        0
280
     0
281
     0
  0
CLASS
  1
RASTERVARIABLES
  2
AcDbRasterVariables
  3
ISM
 90
    32768
280
     0
281
     0
  0
CLASS
  1
IMAGEDEF
  2
AcDbRasterImageDef
  3
ISM
 90
    32768
280
     0
281
     0
  0
CLASS
  1
IMAGEDEF_REACTOR
  2
AcDbRasterImageDefReactor
  3
ISM
 90
    32769
280
     0
281
     0
  0
CLASS
  1
IDBUFFER
  2
AcDbIdBuffer
  3
ObjectDBX Classes
 90
    32768
280
     0
281
     0
  0
CLASS
  1
SPATIAL_FILTER
  2
AcDbSpatialFilter
  3
ObjectDBX Classes
 90
    32768
280
     0
281
     0
  0
CLASS
  1
SORTENTSTABLE
  2
AcDbSortentsTable
  3
ObjectDBX Classes
 90
    32768
280
     0
281
     0
  0
CLASS
  1
LAYER_INDEX
  2
AcDbLayerIndex
  3
ObjectDBX Classes
 90
    32768
280
     0
281
     0
  0
CLASS
  1
SPATIAL_INDEX
  2
AcDbSpatialIndex
  3
ObjectDBX Classes
 90
    32768
280
     0
281
     0
  0
CLASS
  1
OBJECT_PTR
  2
CAseDLPNTableRecord
  3
"ASE-LPNTableRecord"
 90
    32769
280
     0
281
     0
  0
CLASS
  1
LAYOUT
  2
AcDbLayout
  3
ObjectDBX Classes
 90
        0
280
     0
281
     0
  0
CLASS
  1
PLOTSETTINGS
  2
AcDbPlotSettings
  3
ObjectDBX Classes
 90
    32768
280
     0
281
     0
  0
CLASS
  1
ACDBDICTIONARYWDFLT
  2
AcDbDictionaryWithDefault
  3
ObjectDBX Classes
 90
        0
280
     0
281
     0
  0
CLASS
  1
ACDBPLACEHOLDER
  2
AcDbPlaceHolder
  3
ObjectDBX Classes
 90
        0
280
     0
281
     0
  0
CLASS
  1
VBA_PROJECT
  2
AcDbVbaProject
  3
acad
 90
    32768
280
     0
281
     0
  0
CLASS
  1
WIPEOUT
  2
AcDbWipeout
  3
"WipeOut|Product Desc: Object Enabler for WipeOut entity^I^I^I^I^I^I|Company: Autodesk, Inc.^I^I^I^I^I^I|WEB Address: www.autodesk.com"
 90
    32895
280
     0
281
     1
  0
CLASS
  1
WIPEOUTVARIABLES
  2
AcDbWipeoutVariables
  3
"WipeOut|Product Desc:     WipeOut Dbx Application|Company:          Autodesk, Inc.|WEB Address:      www.autodesk.com"
 90
    32768
280
     0
281
     0
  0
CLASS
  1
RTEXT
  2
RText
  3
RText|AutoCAD Express Tool|expresstools@autodesk.com
 90
    32768
280
     0
281
     1
  0
CLASS
  1
ARCALIGNEDTEXT
  2
AcDbArcAlignedText
  3
ATEXT|AutoCAD Express Tool|expresstools@autodesk.com
 90
    32768
280
     0
281
     1
  0
ENDSEC
  0
SECTION
  2
TABLES
  0
TABLE
  2
VPORT
  5
7
330
0
100
AcDbSymbolTable
 70
     2
  0
VPORT
  5
296FD
330
7
100
AcDbSymbolTableRecord
100
AcDbViewportTableRecord
  2
*Active
 70
     0
 10
0.0
 20
0.0
 11
1.0
 21
1.0
 12
622.6999670001451
 22
439.7271881305327
 13
0.0
 23
0.0
 14
1.0
 24
1.0
 15
0.0
 25
0.0
 16
0.0
 26
0.0
 36
1.0
 17
0.0
 27
0.0
 37
0.0
 40
889.4087032695463
 41
1.952727272727272
 42
50.0
 43
0.0
 44
0.0
 50
0.0
 51
0.0
 71
     0
 72
   100
 73
     1
 74
     1
 75
     0
 76
     0
 77
     0
 78
     0
281
     0
 65
     1
110
0.0
120
0.0
130
0.0
111
1.0
121
0.0
131
0.0
112
0.0
122
1.0
132
0.0
 79
     0
146
0.0
  0
ENDTAB
  0
TABLE
  2
LTYPE
  5
4
330
0
100
AcDbSymbolTable
 70
     3
  0
LTYPE
  5
11
330
4
100
AcDbSymbolTableRecord
100
AcDbLinetypeTableRecord
  2
BYBLOCK
 70
     0
  3

 72
    65
 73
     0
 40
0.0
  0
LTYPE
  5
12
330
4
100
AcDbSymbolTableRecord
100
AcDbLinetypeTableRecord
  2
BYLAYER
 70
     0
  3

 72
    65
 73
     0
 40
0.0
  0
LTYPE
  5
13
330
4
100
AcDbSymbolTableRecord
100
AcDbLinetypeTableRecord
  2
CONTINUOUS
 70
     0
  3
Solid line
 72
    65
 73
     0
 40
0.0
  0
LTYPE
  5
15850
330
4
100
AcDbSymbolTableRecord
100
AcDbLinetypeTableRecord
  2
DASHDOT
 70
     0
  3
Dash dot __ . __ . __ . __ . __ . __ . __ . __
 72
    65
 73
     4
 40
25.4
 49
12.7
 74
     0
 49
-6.349999999999999
 74
     0
 49
0.0
 74
     0
 49
-6.349999999999999
 74
     0
  0
LTYPE
  5
15855
330
4
100
AcDbSymbolTableRecord
100
AcDbLinetypeTableRecord
  2
HIDDEN
 70
     0
  3
Hidden __ __ __ __ __ __ __ __ __ __ __ __ __ _
 72
    65
 73
     2
 40
9.524999999999998
 49
6.349999999999999
 74
     0
 49
-3.174999999999999
 74
     0
  0
ENDTAB
  0
TABLE
  2
LAYER
  5
2
330
0
100
AcDbSymbolTable
 70
     6
  0
LAYER
  5
14
330
2
100
AcDbSymbolTableRecord
100
AcDbLayerTableRecord
  2
0
 70
     0
 62
     7
  6
CONTINUOUS
370
    -3
390
1328
  0
LAYER
  5
2F7F
330
2
100
AcDbSymbolTableRecord
100
AcDbLayerTableRecord
  2
Defpoints
 70
     0
 62
     4
  6
CONTINUOUS
290
     0
370
    -3
390
1328
  0
LAYER
  5
531C
330
2
100
AcDbSymbolTableRecord
100
AcDbLayerTableRecord
  2
buhin-1
 70
     0
 62
     7
  6
CONTINUOUS
370
    -3
390
1328
  0
LAYER
  5
15851
330
2
100
AcDbSymbolTableRecord
100
AcDbLayerTableRecord
  2
BUHIN-2
 70
     0
 62
     3
  6
CONTINUOUS
370
    -3
390
1328
  0
LAYER
  5
15852
330
2
100
AcDbSymbolTableRecord
100
AcDbLayerTableRecord
  2
BUHIN-3
 70
     0
 62
     5
  6
CONTINUOUS
370
    -3
390
1328
  0
LAYER
  5
15853
330
2
100
AcDbSymbolTableRecord
100
AcDbLayerTableRecord
  2
BUHIN
 70
     0
 62
     6
  6
CONTINUOUS
370
    -3
390
1328
  0
ENDTAB
  0
TABLE
  2
STYLE
  5
3
330
0
100
AcDbSymbolTable
 70
     1
  0
STYLE
  5
17
330
3
100
AcDbSymbolTableRecord
100
AcDbTextStyleTableRecord
  2
STANDARD
 70
     0
 40
0.0
 41
1.0
 50
0.0
 71
     0
 42
0.0
  3
MS Gothic.ttf
  4

1001
ACAD
1000
MS Gothic
1071
    32817
  0
ENDTAB
  0
TABLE
  2
VIEW
  5
5
330
0
100
AcDbSymbolTable
 70
     0
  0
ENDTAB
  0
TABLE
  2
UCS
  5
6
330
0
100
AcDbSymbolTable
 70
     0
  0
ENDTAB
  0
TABLE
  2
APPID
  5
8
330
0
100
AcDbSymbolTable
 70
     1
  0
APPID
  5
16
330
8
100
AcDbSymbolTableRecord
100
AcDbRegAppTableRecord
  2
ACAD
 70
     0
  0
ENDTAB
  0
TABLE
  2
DIMSTYLE
  5
9
330
0
100
AcDbSymbolTable
 70
     1
100
AcDbDimStyleTable
 71
     1
340
18
  0
DIMSTYLE
105
18
330
9
100
AcDbSymbolTableRecord
100
AcDbDimStyleTableRecord
  2
STANDARD
 70
     0
 41
2.5
 42
0.625
 43
3.75
 44
1.25
 73
     0
 74
     0
 77
     1
 78
     8
140
2.5
141
2.5
143
0.039370079
147
0.625
171
     3
172
     1
271
     2
272
     2
274
     3
283
     0
284
     8
289
     0
340
17
341
531E
342
531E
  0
ENDTAB
  0
TABLE
  2
BLOCK_RECORD
  5
1
330
0
100
AcDbSymbolTable
 70
    40
  0
BLOCK_RECORD
  5
A
330
1
100
AcDbSymbolTableRecord
100
AcDbBlockTableRecord
  2
*MODEL_SPACE
340
132D
  0
BLOCK_RECORD
  5
B
330
1
100
AcDbSymbolTableRecord
100
AcDbBlockTableRecord
  2
*PAPER_SPACE
340
132E
  0
BLOCK_RECORD
  5
1488
330
1
100
AcDbSymbolTableRecord
100
AcDbBlockTableRecord
  2
XH19
340
0
102
{BLKREFS
331
1905
331
1B79
331
4E13
102
}
  0
BLOCK_RECORD
  5
148B
330
1
100
AcDbSymbolTableRecord
100
AcDbBlockTableRecord
  2
XH21
340
0
102
{BLKREFS
331
1906
331
1B7A
331
4E14
102
}
  0
BLOCK_RECORD
  5
148E
330
1
100
AcDbSymbolTableRecord
100
AcDbBlockTableRecord
  2
XH30
340
0
102
{BLKREFS
331
1907
331
1B7B
331
4E15
102
}
  0
BLOCK_RECORD
  5
1491
330
1
100
AcDbSymbolTableRecord
100
AcDbBlockTableRecord
  2
XH32
340
0
102
{BLKREFS
331
1908
331
1B7C
331
4E16
102
}
  0
BLOCK_RECORD
  5
1494
330
1
100
AcDbSymbolTableRecord
100
AcDbBlockTableRecord
  2
XH33
340
0
102
{BLKREFS
331
1909
331
1B7D
331
4E17
102
}
  0
BLOCK_RECORD
  5
1497
330
1
100
AcDbSymbolTableRecord
100
AcDbBlockTableRecord
  2
XH39
340
0
102
{BLKREFS
331
190A
331
1B7E
331
27AB
331
4E18
102
}
  0
BLOCK_RECORD
  5
149A
330
1
100
AcDbSymbolTableRecord
100
AcDbBlockTableRecord
  2
XH40
340
0
102
{BLKREFS
331
190B
331
1B7F
331
27AA
331
4E19
102
}
  0
BLOCK_RECORD
  5
149D
330
1
100
AcDbSymbolTableRecord
100
AcDbBlockTableRecord
  2
XH42
340
0
102
{BLKREFS
331
190C
331
1B80
331
27A8
331
4E1A
102
}
  0
BLOCK_RECORD
  5
14A0
330
1
100
AcDbSymbolTableRecord
100
AcDbBlockTableRecord
  2
XH43
340
0
102
{BLKREFS
331
190D
331
1B81
331
27A7
331
4E1B
102
}
  0
BLOCK_RECORD
  5
14A3
330
1
100
AcDbSymbolTableRecord
100
AcDbBlockTableRecord
  2
XH44
340
0
102
{BLKREFS
331
190E
331
1B82
331
27A6
331
4E1C
102
}
  0
BLOCK_RECORD
  5
14A6
330
1
100
AcDbSymbolTableRecord
100
AcDbBlockTableRecord
  2
XH45
340
0
102
{BLKREFS
331
190F
331
1B83
331
27A5
331
4E1D
102
}
  0
BLOCK_RECORD
  5
14A9
330
1
100
AcDbSymbolTableRecord
100
AcDbBlockTableRecord
  2
XH46
340
0
102
{BLKREFS
331
1910
331
1B84
331
27A4
331
4E1E
102
}
  0
BLOCK_RECORD
  5
14AC
330
1
100
AcDbSymbolTableRecord
100
AcDbBlockTableRecord
  2
XH47
340
0
102
{BLKREFS
331
1911
331
1B85
331
27A3
331
4E1F
102
}
  0
BLOCK_RECORD
  5
14AF
330
1
100
AcDbSymbolTableRecord
100
AcDbBlockTableRecord
  2
XH48
340
0
102
{BLKREFS
331
1912
331
1B86
331
27A2
331
4E20
102
}
  0
BLOCK_RECORD
  5
14B2
330
1
100
AcDbSymbolTableRecord
100
AcDbBlockTableRecord
  2
XH49
340
0
102
{BLKREFS
331
1913
331
1B87
331
27A1
331
4E21
102
}
  0
BLOCK_RECORD
  5
14B5
330
1
100
AcDbSymbolTableRecord
100
AcDbBlockTableRecord
  2
XH50
340
0
102
{BLKREFS
331
1914
331
1B88
331
27A0
331
4E22
102
}
  0
BLOCK_RECORD
  5
14B8
330
1
100
AcDbSymbolTableRecord
100
AcDbBlockTableRecord
  2
XH51
340
0
102
{BLKREFS
331
1915
331
1B89
331
279F
331
4E23
102
}
  0
BLOCK_RECORD
  5
14BB
330
1
100
AcDbSymbolTableRecord
100
AcDbBlockTableRecord
  2
XH52
340
0
102
{BLKREFS
331
1916
331
1B8A
331
279E
331
4E24
102
}
  0
BLOCK_RECORD
  5
14BE
330
1
100
AcDbSymbolTableRecord
100
AcDbBlockTableRecord
  2
XH53
340
0
102
{BLKREFS
331
1917
331
1B8B
331
279D
331
4E25
102
}
  0
BLOCK_RECORD
  5
14C1
330
1
100
AcDbSymbolTableRecord
100
AcDbBlockTableRecord
  2
XH54
340
0
102
{BLKREFS
331
1918
331
1B8C
331
279C
331
4E26
102
}
  0
BLOCK_RECORD
  5
14C4
330
1
100
AcDbSymbolTableRecord
100
AcDbBlockTableRecord
  2
XH55
340
0
102
{BLKREFS
331
1919
331
1B8D
331
279B
331
4E27
102
}
  0
BLOCK_RECORD
  5
14C7
330
1
100
AcDbSymbolTableRecord
100
AcDbBlockTableRecord
  2
XH56
340
0
102
{BLKREFS
331
191A
331
1B8E
331
279A
331
4E28
102
}
  0
BLOCK_RECORD
  5
14CA
330
1
100
AcDbSymbolTableRecord
100
AcDbBlockTableRecord
  2
XH57
340
0
102
{BLKREFS
331
191B
331
1B8F
331
2799
331
4E29
102
}
  0
BLOCK_RECORD
  5
14CD
330
1
100
AcDbSymbolTableRecord
100
AcDbBlockTableRecord
  2
XH58
340
0
102
{BLKREFS
331
191C
331
1B90
331
2798
331
4E2A
102
}
  0
BLOCK_RECORD
  5
14D0
330
1
100
AcDbSymbolTableRecord
100
AcDbBlockTableRecord
  2
XH76
340
0
102
{BLKREFS
331
191D
331
1B91
331
2786
331
4E2B
102
}
  0
BLOCK_RECORD
  5
14D3
330
1
100
AcDbSymbolTableRecord
100
AcDbBlockTableRecord
  2
XH102
340
0
102
{BLKREFS
331
191E
331
1B92
331
276C
331
4E2C
102
}
  0
BLOCK_RECORD
  5
14D6
330
1
100
AcDbSymbolTableRecord
100
AcDbBlockTableRecord
  2
XH103
340
0
102
{BLKREFS
331
191F
331
1B93
331
276B
331
4E2D
102
}
  0
BLOCK_RECORD
  5
14D9
330
1
100
AcDbSymbolTableRecord
100
AcDbBlockTableRecord
  2
XH104
340
0
102
{BLKREFS
331
1920
331
1B94
331
276A
331
4E2E
102
}
  0
BLOCK_RECORD
  5
14DC
330
1
100
AcDbSymbolTableRecord
100
AcDbBlockTableRecord
  2
XH105
340
0
102
{BLKREFS
331
1921
331
1B95
331
2769
331
4E2F
102
}
  0
BLOCK_RECORD
  5
14DF
330
1
100
AcDbSymbolTableRecord
100
AcDbBlockTableRecord
  2
XH106
340
0
102
{BLKREFS
331
1922
331
1B96
331
2768
331
4E30
102
}
  0
BLOCK_RECORD
  5
14E2
330
1
100
AcDbSymbolTableRecord
100
AcDbBlockTableRecord
  2
XH107
340
0
102
{BLKREFS
331
1923
331
1B97
331
2767
331
4E31
102
}
  0
BLOCK_RECORD
  5
14E5
330
1
100
AcDbSymbolTableRecord
100
AcDbBlockTableRecord
  2
XH108
340
0
102
{BLKREFS
331
1924
331
1B98
331
2766
331
4E32
102
}
  0
BLOCK_RECORD
  5
14E8
330
1
100
AcDbSymbolTableRecord
100
AcDbBlockTableRecord
  2
XH109
340
0
102
{BLKREFS
331
1925
331
1B99
331
2765
331
4E33
102
}
  0
BLOCK_RECORD
  5
14EB
330
1
100
AcDbSymbolTableRecord
100
AcDbBlockTableRecord
  2
XH127
340
0
102
{BLKREFS
331
1926
331
1B9A
331
4E34
102
}
  0
BLOCK_RECORD
  5
14EE
330
1
100
AcDbSymbolTableRecord
100
AcDbBlockTableRecord
  2
XH211
340
0
102
{BLKREFS
331
1927
331
1B9B
331
4E35
102
}
  0
BLOCK_RECORD
  5
14F1
330
1
100
AcDbSymbolTableRecord
100
AcDbBlockTableRecord
  2
XH218
340
0
102
{BLKREFS
331
1928
331
1B9C
331
4E36
102
}
  0
BLOCK_RECORD
  5
14F4
330
1
100
AcDbSymbolTableRecord
100
AcDbBlockTableRecord
  2
XH221
340
0
102
{BLKREFS
331
1929
331
1B9D
331
4E37
102
}
  0
BLOCK_RECORD
  5
14F7
330
1
100
AcDbSymbolTableRecord
100
AcDbBlockTableRecord
  2
XH225
340
0
102
{BLKREFS
331
192A
331
1B9E
331
4E38
102
}
  0
BLOCK_RECORD
  5
531E
330
1
100
AcDbSymbolTableRecord
100
AcDbBlockTableRecord
  2
_Open30
340
0
102
{BLKREFS
331
158A8
331
158A9
102
}
  0
BLOCK_RECORD
  5
1BAE1
330
1
100
AcDbSymbolTableRecord
100
AcDbBlockTableRecord
  2
box
340
0
102
{BLKREFS
331
28560
331
296CB
102
}
  0
ENDTAB
  0
ENDSEC
  0
SECTION
  2
BLOCKS
  0
BLOCK
  5
D
330
A
100
AcDbEntity
  8
0
100
AcDbBlockBegin
  2
*MODEL_SPACE
 70
     0
 10
0.0
 20
0.0
 30
0.0
  3
*MODEL_SPACE
  1

  0
ENDBLK
  5
E
330
A
100
AcDbEntity
  8
0
100
AcDbBlockEnd
  0
BLOCK
  5
F
330
B
100
AcDbEntity
 67
     1
  8
0
100
AcDbBlockBegin
  2
*PAPER_SPACE
 70
     0
 10
0.0
 20
0.0
 30
0.0
  3
*PAPER_SPACE
  1

  0
ENDBLK
  5
10
330
B
100
AcDbEntity
 67
     1
  8
0
100
AcDbBlockEnd
  0
BLOCK
  5
1489
330
1488
100
AcDbEntity
  8
0
  6
Continuous
 62
     7
100
AcDbBlockBegin
  2
XH19
 70
     0
 10
0.0
 20
0.0
 30
0.0
  3
XH19
  1

  0
ENDBLK
  5
148A
330
1488
100
AcDbEntity
  8
0
100
AcDbBlockEnd
  0
BLOCK
  5
148C
330
148B
100
AcDbEntity
  8
0
  6
Continuous
 62
     7
100
AcDbBlockBegin
  2
XH21
 70
     0
 10
0.0
 20
0.0
 30
0.0
  3
XH21
  1

  0
ENDBLK
  5
148D
330
148B
100
AcDbEntity
  8
0
100
AcDbBlockEnd
  0
BLOCK
  5
148F
330
148E
100
AcDbEntity
  8
0
  6
Continuous
 62
     7
100
AcDbBlockBegin
  2
XH30
 70
     0
 10
0.0
 20
0.0
 30
0.0
  3
XH30
  1

  0
ENDBLK
  5
1490
330
148E
100
AcDbEntity
  8
0
100
AcDbBlockEnd
  0
BLOCK
  5
1492
330
1491
100
AcDbEntity
  8
0
  6
Continuous
 62
     7
100
AcDbBlockBegin
  2
XH32
 70
     0
 10
0.0
 20
0.0
 30
0.0
  3
XH32
  1

  0
ENDBLK
  5
1493
330
1491
100
AcDbEntity
  8
0
100
AcDbBlockEnd
  0
BLOCK
  5
1495
330
1494
100
AcDbEntity
  8
0
  6
Continuous
 62
     7
100
AcDbBlockBegin
  2
XH33
 70
     0
 10
0.0
 20
0.0
 30
0.0
  3
XH33
  1

  0
ENDBLK
  5
1496
330
1494
100
AcDbEntity
  8
0
100
AcDbBlockEnd
  0
BLOCK
  5
1498
330
1497
100
AcDbEntity
  8
0
  6
Continuous
 62
     7
100
AcDbBlockBegin
  2
XH39
 70
     0
 10
0.0
 20
0.0
 30
0.0
  3
XH39
  1

  0
ENDBLK
  5
1499
330
1497
100
AcDbEntity
  8
0
100
AcDbBlockEnd
  0
BLOCK
  5
149B
330
149A
100
AcDbEntity
  8
0
  6
Continuous
 62
     7
100
AcDbBlockBegin
  2
XH40
 70
     0
 10
0.0
 20
0.0
 30
0.0
  3
XH40
  1

  0
ENDBLK
  5
149C
330
149A
100
AcDbEntity
  8
0
100
AcDbBlockEnd
  0
BLOCK
  5
149E
330
149D
100
AcDbEntity
  8
0
  6
Continuous
 62
     7
100
AcDbBlockBegin
  2
XH42
 70
     0
 10
0.0
 20
0.0
 30
0.0
  3
XH42
  1

  0
ENDBLK
  5
149F
330
149D
100
AcDbEntity
  8
0
100
AcDbBlockEnd
  0
BLOCK
  5
14A1
330
14A0
100
AcDbEntity
  8
0
  6
Continuous
 62
     7
100
AcDbBlockBegin
  2
XH43
 70
     0
 10
0.0
 20
0.0
 30
0.0
  3
XH43
  1

  0
ENDBLK
  5
14A2
330
14A0
100
AcDbEntity
  8
0
100
AcDbBlockEnd
  0
BLOCK
  5
14A4
330
14A3
100
AcDbEntity
  8
0
  6
Continuous
 62
     7
100
AcDbBlockBegin
  2
XH44
 70
     0
 10
0.0
 20
0.0
 30
0.0
  3
XH44
  1

  0
ENDBLK
  5
14A5
330
14A3
100
AcDbEntity
  8
0
100
AcDbBlockEnd
  0
BLOCK
  5
14A7
330
14A6
100
AcDbEntity
  8
0
  6
Continuous
 62
     7
100
AcDbBlockBegin
  2
XH45
 70
     0
 10
0.0
 20
0.0
 30
0.0
  3
XH45
  1

  0
ENDBLK
  5
14A8
330
14A6
100
AcDbEntity
  8
0
100
AcDbBlockEnd
  0
BLOCK
  5
14AA
330
14A9
100
AcDbEntity
  8
0
  6
Continuous
 62
     7
100
AcDbBlockBegin
  2
XH46
 70
     0
 10
0.0
 20
0.0
 30
0.0
  3
XH46
  1

  0
ENDBLK
  5
14AB
330
14A9
100
AcDbEntity
  8
0
100
AcDbBlockEnd
  0
BLOCK
  5
14AD
330
14AC
100
AcDbEntity
  8
0
  6
Continuous
 62
     7
100
AcDbBlockBegin
  2
XH47
 70
     0
 10
0.0
 20
0.0
 30
0.0
  3
XH47
  1

  0
ENDBLK
  5
14AE
330
14AC
100
AcDbEntity
  8
0
100
AcDbBlockEnd
  0
BLOCK
  5
14B0
330
14AF
100
AcDbEntity
  8
0
  6
Continuous
 62
     7
100
AcDbBlockBegin
  2
XH48
 70
     0
 10
0.0
 20
0.0
 30
0.0
  3
XH48
  1

  0
ENDBLK
  5
14B1
330
14AF
100
AcDbEntity
  8
0
100
AcDbBlockEnd
  0
BLOCK
  5
14B3
330
14B2
100
AcDbEntity
  8
0
  6
Continuous
 62
     7
100
AcDbBlockBegin
  2
XH49
 70
     0
 10
0.0
 20
0.0
 30
0.0
  3
XH49
  1

  0
ENDBLK
  5
14B4
330
14B2
100
AcDbEntity
  8
0
100
AcDbBlockEnd
  0
BLOCK
  5
14B6
330
14B5
100
AcDbEntity
  8
0
  6
Continuous
 62
     7
100
AcDbBlockBegin
  2
XH50
 70
     0
 10
0.0
 20
0.0
 30
0.0
  3
XH50
  1

  0
ENDBLK
  5
14B7
330
14B5
100
AcDbEntity
  8
0
100
AcDbBlockEnd
  0
BLOCK
  5
14B9
330
14B8
100
AcDbEntity
  8
0
  6
Continuous
 62
     7
100
AcDbBlockBegin
  2
XH51
 70
     0
 10
0.0
 20
0.0
 30
0.0
  3
XH51
  1

  0
ENDBLK
  5
14BA
330
14B8
100
AcDbEntity
  8
0
100
AcDbBlockEnd
  0
BLOCK
  5
14BC
330
14BB
100
AcDbEntity
  8
0
  6
Continuous
 62
     7
100
AcDbBlockBegin
  2
XH52
 70
     0
 10
0.0
 20
0.0
 30
0.0
  3
XH52
  1

  0
ENDBLK
  5
14BD
330
14BB
100
AcDbEntity
  8
0
100
AcDbBlockEnd
  0
BLOCK
  5
14BF
330
14BE
100
AcDbEntity
  8
0
  6
Continuous
 62
     7
100
AcDbBlockBegin
  2
XH53
 70
     0
 10
0.0
 20
0.0
 30
0.0
  3
XH53
  1

  0
ENDBLK
  5
14C0
330
14BE
100
AcDbEntity
  8
0
100
AcDbBlockEnd
  0
BLOCK
  5
14C2
330
14C1
100
AcDbEntity
  8
0
  6
Continuous
 62
     7
100
AcDbBlockBegin
  2
XH54
 70
     0
 10
0.0
 20
0.0
 30
0.0
  3
XH54
  1

  0
ENDBLK
  5
14C3
330
14C1
100
AcDbEntity
  8
0
100
AcDbBlockEnd
  0
BLOCK
  5
14C5
330
14C4
100
AcDbEntity
  8
0
  6
Continuous
 62
     7
100
AcDbBlockBegin
  2
XH55
 70
     0
 10
0.0
 20
0.0
 30
0.0
  3
XH55
  1

  0
ENDBLK
  5
14C6
330
14C4
100
AcDbEntity
  8
0
100
AcDbBlockEnd
  0
BLOCK
  5
14C8
330
14C7
100
AcDbEntity
  8
0
  6
Continuous
 62
     7
100
AcDbBlockBegin
  2
XH56
 70
     0
 10
0.0
 20
0.0
 30
0.0
  3
XH56
  1

  0
ENDBLK
  5
14C9
330
14C7
100
AcDbEntity
  8
0
100
AcDbBlockEnd
  0
BLOCK
  5
14CB
330
14CA
100
AcDbEntity
  8
0
  6
Continuous
 62
     7
100
AcDbBlockBegin
  2
XH57
 70
     0
 10
0.0
 20
0.0
 30
0.0
  3
XH57
  1

  0
ENDBLK
  5
14CC
330
14CA
100
AcDbEntity
  8
0
100
AcDbBlockEnd
  0
BLOCK
  5
14CE
330
14CD
100
AcDbEntity
  8
0
  6
Continuous
 62
     7
100
AcDbBlockBegin
  2
XH58
 70
     0
 10
0.0
 20
0.0
 30
0.0
  3
XH58
  1

  0
ENDBLK
  5
14CF
330
14CD
100
AcDbEntity
  8
0
100
AcDbBlockEnd
  0
BLOCK
  5
14D1
330
14D0
100
AcDbEntity
  8
0
  6
Continuous
 62
     7
100
AcDbBlockBegin
  2
XH76
 70
     0
 10
0.0
 20
0.0
 30
0.0
  3
XH76
  1

  0
ENDBLK
  5
14D2
330
14D0
100
AcDbEntity
  8
0
100
AcDbBlockEnd
  0
BLOCK
  5
14D4
330
14D3
100
AcDbEntity
  8
0
  6
Continuous
 62
     7
100
AcDbBlockBegin
  2
XH102
 70
     0
 10
0.0
 20
0.0
 30
0.0
  3
XH102
  1

  0
ENDBLK
  5
14D5
330
14D3
100
AcDbEntity
  8
0
100
AcDbBlockEnd
  0
BLOCK
  5
14D7
330
14D6
100
AcDbEntity
  8
0
  6
Continuous
 62
     7
100
AcDbBlockBegin
  2
XH103
 70
     0
 10
0.0
 20
0.0
 30
0.0
  3
XH103
  1

  0
ENDBLK
  5
14D8
330
14D6
100
AcDbEntity
  8
0
100
AcDbBlockEnd
  0
BLOCK
  5
14DA
330
14D9
100
AcDbEntity
  8
0
  6
Continuous
 62
     7
100
AcDbBlockBegin
  2
XH104
 70
     0
 10
0.0
 20
0.0
 30
0.0
  3
XH104
  1

  0
ENDBLK
  5
14DB
330
14D9
100
AcDbEntity
  8
0
100
AcDbBlockEnd
  0
BLOCK
  5
14DD
330
14DC
100
AcDbEntity
  8
0
  6
Continuous
 62
     7
100
AcDbBlockBegin
  2
XH105
 70
     0
 10
0.0
 20
0.0
 30
0.0
  3
XH105
  1

  0
ENDBLK
  5
14DE
330
14DC
100
AcDbEntity
  8
0
100
AcDbBlockEnd
  0
BLOCK
  5
14E0
330
14DF
100
AcDbEntity
  8
0
  6
Continuous
 62
     7
100
AcDbBlockBegin
  2
XH106
 70
     0
 10
0.0
 20
0.0
 30
0.0
  3
XH106
  1

  0
ENDBLK
  5
14E1
330
14DF
100
AcDbEntity
  8
0
100
AcDbBlockEnd
  0
BLOCK
  5
14E3
330
14E2
100
AcDbEntity
  8
0
  6
Continuous
 62
     7
100
AcDbBlockBegin
  2
XH107
 70
     0
 10
0.0
 20
0.0
 30
0.0
  3
XH107
  1

  0
ENDBLK
  5
14E4
330
14E2
100
AcDbEntity
  8
0
100
AcDbBlockEnd
  0
BLOCK
  5
14E6
330
14E5
100
AcDbEntity
  8
0
  6
Continuous
 62
     7
100
AcDbBlockBegin
  2
XH108
 70
     0
 10
0.0
 20
0.0
 30
0.0
  3
XH108
  1

  0
ENDBLK
  5
14E7
330
14E5
100
AcDbEntity
  8
0
100
AcDbBlockEnd
  0
BLOCK
  5
14E9
330
14E8
100
AcDbEntity
  8
0
  6
Continuous
 62
     7
100
AcDbBlockBegin
  2
XH109
 70
     0
 10
0.0
 20
0.0
 30
0.0
  3
XH109
  1

  0
ENDBLK
  5
14EA
330
14E8
100
AcDbEntity
  8
0
100
AcDbBlockEnd
  0
BLOCK
  5
14EC
330
14EB
100
AcDbEntity
  8
0
  6
Continuous
 62
     7
100
AcDbBlockBegin
  2
XH127
 70
     0
 10
0.0
 20
0.0
 30
0.0
  3
XH127
  1

  0
ENDBLK
  5
14ED
330
14EB
100
AcDbEntity
  8
0
100
AcDbBlockEnd
  0
BLOCK
  5
14EF
330
14EE
100
AcDbEntity
  8
0
  6
Continuous
 62
     7
100
AcDbBlockBegin
  2
XH211
 70
     0
 10
0.0
 20
0.0
 30
0.0
  3
XH211
  1

  0
ENDBLK
  5
14F0
330
14EE
100
AcDbEntity
  8
0
100
AcDbBlockEnd
  0
BLOCK
  5
14F2
330
14F1
100
AcDbEntity
  8
0
  6
Continuous
 62
     7
100
AcDbBlockBegin
  2
XH218
 70
     0
 10
0.0
 20
0.0
 30
0.0
  3
XH218
  1

  0
ENDBLK
  5
14F3
330
14F1
100
AcDbEntity
  8
0
100
AcDbBlockEnd
  0
BLOCK
  5
14F5
330
14F4
100
AcDbEntity
  8
0
  6
Continuous
 62
     7
100
AcDbBlockBegin
  2
XH221
 70
     0
 10
0.0
 20
0.0
 30
0.0
  3
XH221
  1

  0
ENDBLK
  5
14F6
330
14F4
100
AcDbEntity
  8
0
100
AcDbBlockEnd
  0
BLOCK
  5
14F8
330
14F7
100
AcDbEntity
  8
0
  6
Continuous
 62
     7
100
AcDbBlockBegin
  2
XH225
 70
     0
 10
0.0
 20
0.0
 30
0.0
  3
XH225
  1

  0
ENDBLK
  5
14F9
330
14F7
100
AcDbEntity
  8
0
100
AcDbBlockEnd
  0
BLOCK
  5
531F
330
531E
100
AcDbEntity
  8
0
100
AcDbBlockBegin
  2
_Open30
 70
     0
 10
0.0
 20
0.0
 30
0.0
  3
_Open30
  1

  0
LINE
  5
5320
330
531E
100
AcDbEntity
  8
0
  6
ByBlock
 62
     0
370
    -2
100
AcDbLine
 10
-1.0
 20
0.26794919
 30
0.0
 11
0.0
 21
0.0
 31
0.0
  0
LINE
  5
5321
330
531E
100
AcDbEntity
  8
0
  6
ByBlock
 62
     0
370
    -2
100
AcDbLine
 10
0.0
 20
0.0
 30
0.0
 11
-1.0
 21
-0.26794919
 31
0.0
  0
LINE
  5
5322
330
531E
100
AcDbEntity
  8
0
  6
ByBlock
 62
     0
370
    -2
100
AcDbLine
 10
0.0
 20
0.0
 30
0.0
 11
-1.0
 21
0.0
 31
0.0
  0
ENDBLK
  5
5323
330
531E
100
AcDbEntity
  8
0
100
AcDbBlockEnd
  0
BLOCK
  5
1BAE2
330
1BAE1
100
AcDbEntity
  8
0
100
AcDbBlockBegin
  2
box
 70
     0
 10
0.0
 20
0.0
 30
0.0
  3
box
  1

  0
LINE
  5
2969C
330
1BAE1
100
AcDbEntity
  8
Defpoints
100
AcDbLine
 10
0.0
 20
79.69037296433817
 30
0.0
 11
0.0
 21
-82.87164584644328
 31
0.0
  0
LINE
  5
2969D
330
1BAE1
100
AcDbEntity
  8
buhin-1
100
AcDbLine
 10
-41.00000381469726
 20
61.0
 30
0.0
 11
-48.00000381469726
 21
61.0
 31
0.0
  0
LINE
  5
2969E
330
1BAE1
100
AcDbEntity
  8
buhin-1
100
AcDbLine
 10
-41.00000381469726
 20
-61.0
 30
0.0
 11
-73.36543599999959
 21
-60.99999999999994
 31
0.0
  0
LINE
  5
2969F
330
1BAE1
100
AcDbEntity
  8
buhin-1
100
AcDbLine
 10
32.26747179031372
 20
60.87552261352533
 30
0.0
 11
32.2454001903534
 21
60.88399887084955
 31
0.0
  0
LINE
  5
296A0
330
1BAE1
100
AcDbEntity
  8
buhin-1
100
AcDbLine
 10
32.36930227279663
 20
60.83328628540034
 30
0.0
 11
32.24598447559265
 21
60.88443492792243
 31
0.0
  0
LINE
  5
296A1
330
1BAE1
100
AcDbEntity
  8
buhin-1
100
AcDbLine
 10
32.49311333341143
 20
60.77887954625674
 30
0.0
 11
32.36930227279663
 21
60.83328628540034
 31
0.0
  0
POINT
  5
296A2
330
1BAE1
100
AcDbEntity
  8
buhin-1
100
AcDbPoint
 10
-64.28498458862304
 20
-61.0
 30
0.0
  0
POINT
  5
296A3
330
1BAE1
100
AcDbEntity
  8
buhin-1
100
AcDbPoint
 10
-61.28498458862305
 20
-61.0
 30
0.0
  0
ARC
  5
296A4
330
1BAE1
100
AcDbEntity
  8
buhin-1
100
AcDbCircle
 10
32.99999618530274
 20
59.78131866455072
 30
0.0
 40
1.0
100
AcDbArc
 50
359.999999316757
 51
90.27719138832855
  0
LINE
  5
296A5
330
1BAE1
100
AcDbEntity
  8
buhin-1
100
AcDbLine
 10
-48.00000381469726
 20
61.5
 30
0.0
 11
-48.00000381469726
 21
-61.0
 31
0.0
  0
LINE
  5
296A6
330
1BAE1
100
AcDbEntity
  8
buhin-1
100
AcDbLine
 10
-48.00000381469726
 20
61.5
 30
0.0
 11
-73.36543599999959
 21
61.50000000000017
 31
0.0
  0
LINE
  5
296A7
330
1BAE1
100
AcDbEntity
  8
buhin-1
  6
DASHDOT
100
AcDbLine
 10
35.87911713123322
 20
-0.0000000000000568
 30
0.0
 11
-73.36543599999959
 21
0.0000000000001137
 31
0.0
  0
LINE
  5
296A8
330
1BAE1
100
AcDbEntity
  8
buhin-1
  6
DASHDOT
 48
0.175
100
AcDbLine
 10
-35.00000381469727
 20
-68.59756469726562
 30
0.0
 11
-42.00000381469727
 21
-68.59756469726562
 31
0.0
  0
LINE
  5
296A9
330
1BAE1
100
AcDbEntity
  8
buhin-1
 48
0.125
100
AcDbLine
 10
-36.00000381469727
 20
-67.815673828125
 30
0.0
 11
-41.00000381469726
 21
-67.815673828125
 31
0.0
  0
LINE
  5
296AA
330
1BAE1
100
AcDbEntity
  8
buhin-1
 48
0.3074192047119141
100
AcDbLine
 10
-41.00000381469726
 20
61.0
 30
0.0
 11
-41.00000381469726
 21
-73.29676818847656
 31
0.0
  0
LINE
  5
296AB
330
1BAE1
100
AcDbEntity
  8
buhin-1
 48
0.125
100
AcDbLine
 10
-36.00000381469727
 20
-73.29676818847659
 30
0.0
 11
-41.00000381469726
 21
-73.29676818847656
 31
0.0
  0
LINE
  5
296AC
330
1BAE1
100
AcDbEntity
  8
buhin-1
 48
0.3074192047119141
100
AcDbLine
 10
-36.00000381469727
 20
61.0
 30
0.0
 11
-36.00000381469727
 21
-73.29676818847659
 31
0.0
  0
LINE
  5
296AD
330
1BAE1
100
AcDbEntity
  8
buhin-1
 48
0.125
100
AcDbLine
 10
-36.00000381469727
 20
73.29676818847656
 30
0.0
 11
-41.00000381469726
 21
73.29676818847656
 31
0.0
  0
LINE
  5
296AE
330
1BAE1
100
AcDbEntity
  8
buhin-1
  6
DASHDOT
 48
0.175
100
AcDbLine
 10
-35.00000381469727
 20
68.59756469726562
 30
0.0
 11
-42.00000381469727
 21
68.59756469726562
 31
0.0
  0
LINE
  5
296AF
330
1BAE1
100
AcDbEntity
  8
buhin-1
 48
0.3074192047119141
100
AcDbLine
 10
-41.00000381469726
 20
73.29676818847656
 30
0.0
 11
-41.00000381469726
 21
61.0
 31
0.0
  0
LINE
  5
296B0
330
1BAE1
100
AcDbEntity
  8
buhin-1
 48
0.125
100
AcDbLine
 10
-36.00000381469727
 20
67.815673828125
 30
0.0
 11
-41.00000381469726
 21
67.815673828125
 31
0.0
  0
LINE
  5
296B1
330
1BAE1
100
AcDbEntity
  8
buhin-1
100
AcDbLine
 10
33.40136367061905
 20
-61.00000000000005
 30
0.0
 11
-36.00000381469727
 21
-61.0
 31
0.0
  0
LINE
  5
296B2
330
1BAE1
100
AcDbEntity
  8
buhin-1
 48
0.3074192047119141
100
AcDbLine
 10
-36.00000381469727
 20
73.29676818847656
 30
0.0
 11
-36.00000381469727
 21
61.0
 31
0.0
  0
LINE
  5
296B3
330
1BAE1
100
AcDbEntity
  8
buhin-1
 48
0.0125433778956052
100
AcDbLine
 10
32.9951583147049
 20
60.78130722045893
 30
0.0
 11
32.49311333341143
 21
60.77887954625674
 31
0.0
  0
LINE
  5
296B4
330
1BAE1
100
AcDbEntity
  8
buhin-1
100
AcDbLine
 10
33.99999618530273
 20
59.78131866455072
 30
0.0
 11
33.99999618530273
 21
-59.78131866455083
 31
0.0
  0
ARC
  5
296B5
330
1BAE1
100
AcDbEntity
  8
buhin-1
100
AcDbCircle
 10
31.50000977516175
 20
-58.50008010864264
 30
0.0
 40
2.49992036819458
100
AcDbArc
 50
287.4001171935585
 51
292.6004575682587
  0
ARC
  5
296B6
330
1BAE1
100
AcDbEntity
  8
buhin-1
100
AcDbCircle
 10
31.49999618530273
 20
-58.50000000000005
 30
0.0
 40
2.5
100
AcDbArc
 50
292.6000204361478
 51
294.2700808556541
  0
LINE
  5
296B7
330
1BAE1
100
AcDbEntity
  8
buhin-1
 48
0.0116892662745372
100
AcDbLine
 10
32.52759213293052
 20
-60.77904510012842
 30
0.0
 11
32.9951583147049
 21
-60.78130722045904
 31
0.0
  0
LINE
  5
296B8
330
1BAE1
100
AcDbEntity
  8
buhin-1
100
AcDbLine
 10
32.59863251470643
 20
60.99999999999994
 30
0.0
 11
-36.00000381469727
 21
61.0
 31
0.0
  0
ARC
  5
296B9
330
1BAE1
100
AcDbEntity
  8
buhin-1
100
AcDbCircle
 10
32.99999618530274
 20
-59.78131866455083
 30
0.0
 40
1.0
100
AcDbArc
 50
269.7228093923827
 51
359.999999316757
  0
CIRCLE
  5
296BA
330
1BAE1
100
AcDbEntity
  8
buhin-1
100
AcDbCircle
 10
12.0
 20
-0.0000000000000568
 30
0.0
 40
16.75
  0
CIRCLE
  5
296BB
330
1BAE1
100
AcDbEntity
  8
buhin-1
100
AcDbCircle
 10
12.0
 20
-0.0000000000000568
 30
0.0
 40
15.75
  0
CIRCLE
  5
296BC
330
1BAE1
100
AcDbEntity
  8
buhin-1
100
AcDbCircle
 10
12.0
 20
-0.0000000000000568
 30
0.0
 40
12.0600004196167
  0
LINE
  5
296BD
330
1BAE1
100
AcDbEntity
  8
buhin-1
  6
DASHDOT
100
AcDbLine
 10
11.99999618530273
 20
67.55589294433594
 30
0.0
 11
11.99999618530273
 21
-67.63455963134766
 31
0.0
  0
LINE
  5
296BE
330
1BAE1
100
AcDbEntity
  8
buhin-1
 48
0.0350000381469727
100
AcDbLine
 10
-10.00000381469726
 20
63.0
 30
0.0
 11
-10.00000381469726
 21
61.59999847412109
 31
0.0
  0
LINE
  5
296BF
330
1BAE1
100
AcDbEntity
  8
buhin-1
100
AcDbLine
 10
33.99999618530273
 20
62.99999999999994
 30
0.0
 11
-10.00000381469726
 21
63.0
 31
0.0
  0
LINE
  5
296C0
330
1BAE1
100
AcDbEntity
  8
buhin-1
 48
0.0350000381469727
100
AcDbLine
 10
33.99999618530273
 20
62.99999999999994
 30
0.0
 11
33.99999618530273
 21
61.59999847412104
 31
0.0
  0
LINE
  5
296C1
330
1BAE1
100
AcDbEntity
  8
buhin-1
 48
0.0199999988079071
100
AcDbLine
 10
33.39999616146088
 20
60.99999999999994
 30
0.0
 11
32.59999620914459
 21
60.99999999999994
 31
0.0
  0
ARC
  5
296C2
330
1BAE1
100
AcDbEntity
  8
buhin-1
100
AcDbCircle
 10
-9.400005340576171
 20
61.59999847412109
 30
0.0
 40
0.6000000238418579
100
AcDbArc
 50
179.9999974955247
 51
270.0
  0
ARC
  5
296C3
330
1BAE1
100
AcDbEntity
  8
buhin-1
100
AcDbCircle
 10
33.39999616146088
 20
61.59999847412104
 30
0.0
 40
0.6000000238418579
100
AcDbArc
 50
269.9999899820861
 51
359.999999316757
  0
ARC
  5
296C4
330
1BAE1
100
AcDbEntity
  8
buhin-1
100
AcDbCircle
 10
32.59999620914459
 20
60.40000152587885
 30
0.0
 40
0.6000000238418579
100
AcDbArc
 50
89.99999499104957
 51
126.1583943027559
  0
ARC
  5
296C5
330
1BAE1
100
AcDbEntity
  8
buhin-1
100
AcDbCircle
 10
-9.400001525878906
 20
-61.59999847412109
 30
0.0
 40
0.6000000238418579
100
AcDbArc
 50
89.99999499104957
 51
179.9999974955247
  0
LINE
  5
296C6
330
1BAE1
100
AcDbEntity
  8
buhin-1
 48
0.0350000381469727
100
AcDbLine
 10
-10.0
 20
-61.59999847412109
 30
0.0
 11
-10.0
 21
-63.0
 31
0.0
  0
LINE
  5
296C7
330
1BAE1
100
AcDbEntity
  8
buhin-1
100
AcDbLine
 10
34.0
 20
-63.00000000000006
 30
0.0
 11
-10.0
 21
-63.0
 31
0.0
  0
ARC
  5
296C8
330
1BAE1
100
AcDbEntity
  8
buhin-1
100
AcDbCircle
 10
32.60000002384186
 20
-60.40000152587897
 30
0.0
 40
0.6000000238418579
100
AcDbArc
 50
234.0311509986955
 51
270.0
  0
ARC
  5
296C9
330
1BAE1
100
AcDbEntity
  8
buhin-1
100
AcDbCircle
 10
33.39999997615815
 20
-61.59999847412115
 30
0.0
 40
0.6000000238418579
100
AcDbArc
 50
359.999999316757
 51
89.99999499104957
  0
LINE
  5
296CA
330
1BAE1
100
AcDbEntity
  8
buhin-1
 48
0.0350000381469727
100
AcDbLine
 10
34.0
 20
-61.59999847412115
 30
0.0
 11
34.0
 21
-63.00000000000006
 31
0.0
  0
ENDBLK
  5
1BB12
330
1BAE1
100
AcDbEntity
  8
0
100
AcDbBlockEnd
  0
ENDSEC
  0
SECTION
  2
ENTITIES
  0
TEXT
  5
18E9
330
A
100
AcDbEntity
  8
0
 62
     7
100
AcDbText
 10
-77.67806799999998
 20
49.18654599999999
 30
0.0
 40
2.5
  1

 41
0.75
 11
-77.67806799999998
 21
50.43654599999999
 31
0.0
100
AcDbText
 73
     2
  0
TEXT
  5
18EE
330
A
100
AcDbEntity
  8
0
 62
     7
100
AcDbText
 10
-77.67806799999998
 20
54.18654599999999
 30
0.0
 40
2.5
  1

 41
0.75
 11
-77.67806799999998
 21
55.43654599999999
 31
0.0
100
AcDbText
 73
     2
  0
TEXT
  5
18F3
330
A
100
AcDbEntity
  8
0
 62
     7
100
AcDbText
 10
-77.67806799999998
 20
59.18654599999999
 30
0.0
 40
2.5
  1

 41
0.75
 11
-77.67806799999998
 21
60.43654599999999
 31
0.0
100
AcDbText
 73
     2
  0
TEXT
  5
18F8
330
A
100
AcDbEntity
  8
0
 62
     7
100
AcDbText
 10
-77.67806799999998
 20
64.18654599999999
 30
0.0
 40
2.5
  1

 41
0.75
 11
-77.67806799999998
 21
65.43654599999999
 31
0.0
100
AcDbText
 73
     2
  0
TEXT
  5
18FD
330
A
100
AcDbEntity
  8
0
 62
     7
100
AcDbText
 10
-77.67806799999998
 20
69.18654599999999
 30
0.0
 40
2.5
  1

 41
0.75
 11
-77.67806799999998
 21
70.43654599999999
 31
0.0
100
AcDbText
 73
     2
  0
TEXT
  5
1902
330
A
100
AcDbEntity
  8
0
 62
     7
100
AcDbText
 10
-77.67806799999998
 20
74.18654599999999
 30
0.0
 40
2.5
  1

 41
0.75
 11
-77.67806799999998
 21
75.43654599999999
 31
0.0
100
AcDbText
 73
     2
  0
INSERT
  5
1905
330
A
100
AcDbEntity
  8
0
 62
     7
100
AcDbBlockReference
  2
XH19
 10
0.0
 20
0.0
 30
0.0
  0
INSERT
  5
1906
330
A
100
AcDbEntity
  8
0
 62
     7
100
AcDbBlockReference
  2
XH21
 10
0.0
 20
0.0
 30
0.0
  0
INSERT
  5
1907
330
A
100
AcDbEntity
  8
0
 62
     7
100
AcDbBlockReference
  2
XH30
 10
0.0
 20
0.0
 30
0.0
  0
INSERT
  5
1908
330
A
100
AcDbEntity
  8
0
 62
     7
100
AcDbBlockReference
  2
XH32
 10
0.0
 20
0.0
 30
0.0
  0
INSERT
  5
1909
330
A
100
AcDbEntity
  8
0
 62
     7
100
AcDbBlockReference
  2
XH33
 10
0.0
 20
0.0
 30
0.0
  0
INSERT
  5
190A
330
A
100
AcDbEntity
  8
0
 62
     7
100
AcDbBlockReference
  2
XH39
 10
0.0
 20
0.0
 30
0.0
  0
INSERT
  5
190B
330
A
100
AcDbEntity
  8
0
 62
     7
100
AcDbBlockReference
  2
XH40
 10
0.0
 20
0.0
 30
0.0
  0
INSERT
  5
190C
330
A
100
AcDbEntity
  8
0
 62
     7
100
AcDbBlockReference
  2
XH42
 10
0.0
 20
0.0
 30
0.0
  0
INSERT
  5
190D
330
A
100
AcDbEntity
  8
0
 62
     7
100
AcDbBlockReference
  2
XH43
 10
0.0
 20
0.0
 30
0.0
  0
INSERT
  5
190E
330
A
100
AcDbEntity
  8
0
 62
     7
100
AcDbBlockReference
  2
XH44
 10
0.0
 20
0.0
 30
0.0
  0
INSERT
  5
190F
330
A
100
AcDbEntity
  8
0
 62
     7
100
AcDbBlockReference
  2
XH45
 10
0.0
 20
0.0
 30
0.0
  0
INSERT
  5
1910
330
A
100
AcDbEntity
  8
0
 62
     7
100
AcDbBlockReference
  2
XH46
 10
0.0
 20
0.0
 30
0.0
  0
INSERT
  5
1911
330
A
100
AcDbEntity
  8
0
 62
     7
100
AcDbBlockReference
  2
XH47
 10
0.0
 20
0.0
 30
0.0
  0
INSERT
  5
1912
330
A
100
AcDbEntity
  8
0
 62
     7
100
AcDbBlockReference
  2
XH48
 10
0.0
 20
0.0
 30
0.0
  0
INSERT
  5
1913
330
A
100
AcDbEntity
  8
0
 62
     7
100
AcDbBlockReference
  2
XH49
 10
0.0
 20
0.0
 30
0.0
  0
INSERT
  5
1914
330
A
100
AcDbEntity
  8
0
 62
     7
100
AcDbBlockReference
  2
XH50
 10
0.0
 20
0.0
 30
0.0
  0
INSERT
  5
1915
330
A
100
AcDbEntity
  8
0
 62
     7
100
AcDbBlockReference
  2
XH51
 10
0.0
 20
0.0
 30
0.0
  0
INSERT
  5
1916
330
A
100
AcDbEntity
  8
0
 62
     7
100
AcDbBlockReference
  2
XH52
 10
0.0
 20
0.0
 30
0.0
  0
INSERT
  5
1917
330
A
100
AcDbEntity
  8
0
 62
     7
100
AcDbBlockReference
  2
XH53
 10
0.0
 20
0.0
 30
0.0
  0
INSERT
  5
1918
330
A
100
AcDbEntity
  8
0
 62
     7
100
AcDbBlockReference
  2
XH54
 10
0.0
 20
0.0
 30
0.0
  0
INSERT
  5
1919
330
A
100
AcDbEntity
  8
0
 62
     7
100
AcDbBlockReference
  2
XH55
 10
0.0
 20
0.0
 30
0.0
  0
INSERT
  5
191A
330
A
100
AcDbEntity
  8
0
 62
     7
100
AcDbBlockReference
  2
XH56
 10
0.0
 20
0.0
 30
0.0
  0
INSERT
  5
191B
330
A
100
AcDbEntity
  8
0
 62
     7
100
AcDbBlockReference
  2
XH57
 10
0.0
 20
0.0
 30
0.0
  0
INSERT
  5
191C
330
A
100
AcDbEntity
  8
0
 62
     7
100
AcDbBlockReference
  2
XH58
 10
0.0
 20
0.0
 30
0.0
  0
INSERT
  5
191D
330
A
100
AcDbEntity
  8
0
 62
     7
100
AcDbBlockReference
  2
XH76
 10
0.0
 20
0.0
 30
0.0
  0
INSERT
  5
191E
330
A
100
AcDbEntity
  8
0
 62
     7
100
AcDbBlockReference
  2
XH102
 10
0.0
 20
0.0
 30
0.0
  0
INSERT
  5
191F
330
A
100
AcDbEntity
  8
0
 62
     7
100
AcDbBlockReference
  2
XH103
 10
0.0
 20
0.0
 30
0.0
  0
INSERT
  5
1920
330
A
100
AcDbEntity
  8
0
 62
     7
100
AcDbBlockReference
  2
XH104
 10
0.0
 20
0.0
 30
0.0
  0
INSERT
  5
1921
330
A
100
AcDbEntity
  8
0
 62
     7
100
AcDbBlockReference
  2
XH105
 10
0.0
 20
0.0
 30
0.0
  0
INSERT
  5
1922
330
A
100
AcDbEntity
  8
0
 62
     7
100
AcDbBlockReference
  2
XH106
 10
0.0
 20
0.0
 30
0.0
  0
INSERT
  5
1923
330
A
100
AcDbEntity
  8
0
 62
     7
100
AcDbBlockReference
  2
XH107
 10
0.0
 20
0.0
 30
0.0
  0
INSERT
  5
1924
330
A
100
AcDbEntity
  8
0
 62
     7
100
AcDbBlockReference
  2
XH108
 10
0.0
 20
0.0
 30
0.0
  0
INSERT
  5
1925
330
A
100
AcDbEntity
  8
0
 62
     7
100
AcDbBlockReference
  2
XH109
 10
0.0
 20
0.0
 30
0.0
  0
INSERT
  5
1926
330
A
100
AcDbEntity
  8
0
 62
     7
100
AcDbBlockReference
  2
XH127
 10
0.0
 20
0.0
 30
0.0
  0
INSERT
  5
1927
330
A
100
AcDbEntity
  8
0
 62
     7
100
AcDbBlockReference
  2
XH211
 10
0.0
 20
0.0
 30
0.0
  0
INSERT
  5
1928
330
A
100
AcDbEntity
  8
0
 62
     7
100
AcDbBlockReference
  2
XH218
 10
0.0
 20
0.0
 30
0.0
  0
INSERT
  5
1929
330
A
100
AcDbEntity
  8
0
 62
     7
100
AcDbBlockReference
  2
XH221
 10
0.0
 20
0.0
 30
0.0
  0
INSERT
  5
192A
330
A
100
AcDbEntity
  8
0
 62
     7
100
AcDbBlockReference
  2
XH225
 10
0.0
 20
0.0
 30
0.0
  0
TEXT
  5
1B73
330
A
100
AcDbEntity
  8
0
 62
     7
100
AcDbText
 10
-77.67806799999998
 20
49.18654599999999
 30
0.0
 40
2.5
  1

 41
0.75
 11
-77.67806799999998
 21
50.43654599999999
 31
0.0
100
AcDbText
 73
     2
  0
TEXT
  5
1B74
330
A
100
AcDbEntity
  8
0
 62
     7
100
AcDbText
 10
-77.67806799999998
 20
54.18654599999999
 30
0.0
 40
2.5
  1

 41
0.75
 11
-77.67806799999998
 21
55.43654599999999
 31
0.0
100
AcDbText
 73
     2
  0
TEXT
  5
1B75
330
A
100
AcDbEntity
  8
0
 62
     7
100
AcDbText
 10
-77.67806799999998
 20
59.18654599999999
 30
0.0
 40
2.5
  1

 41
0.75
 11
-77.67806799999998
 21
60.43654599999999
 31
0.0
100
AcDbText
 73
     2
  0
TEXT
  5
1B76
330
A
100
AcDbEntity
  8
0
 62
     7
100
AcDbText
 10
-77.67806799999998
 20
64.18654599999999
 30
0.0
 40
2.5
  1

 41
0.75
 11
-77.67806799999998
 21
65.43654599999999
 31
0.0
100
AcDbText
 73
     2
  0
TEXT
  5
1B77
330
A
100
AcDbEntity
  8
0
 62
     7
100
AcDbText
 10
-77.67806799999998
 20
69.18654599999999
 30
0.0
 40
2.5
  1

 41
0.75
 11
-77.67806799999998
 21
70.43654599999999
 31
0.0
100
AcDbText
 73
     2
  0
TEXT
  5
1B78
330
A
100
AcDbEntity
  8
0
 62
     7
100
AcDbText
 10
-77.67806799999998
 20
74.18654599999999
 30
0.0
 40
2.5
  1

 41
0.75
 11
-77.67806799999998
 21
75.43654599999999
 31
0.0
100
AcDbText
 73
     2
  0
INSERT
  5
1B79
330
A
100
AcDbEntity
  8
0
 62
     7
100
AcDbBlockReference
  2
XH19
 10
0.0
 20
0.0
 30
0.0
  0
INSERT
  5
1B7A
330
A
100
AcDbEntity
  8
0
 62
     7
100
AcDbBlockReference
  2
XH21
 10
0.0
 20
0.0
 30
0.0
  0
INSERT
  5
1B7B
330
A
100
AcDbEntity
  8
0
 62
     7
100
AcDbBlockReference
  2
XH30
 10
0.0
 20
0.0
 30
0.0
  0
INSERT
  5
1B7C
330
A
100
AcDbEntity
  8
0
 62
     7
100
AcDbBlockReference
  2
XH32
 10
0.0
 20
0.0
 30
0.0
  0
INSERT
  5
1B7D
330
A
100
AcDbEntity
  8
0
 62
     7
100
AcDbBlockReference
  2
XH33
 10
0.0
 20
0.0
 30
0.0
  0
INSERT
  5
1B7E
330
A
100
AcDbEntity
  8
0
 62
     7
100
AcDbBlockReference
  2
XH39
 10
0.0
 20
0.0
 30
0.0
  0
INSERT
  5
1B7F
330
A
100
AcDbEntity
  8
0
 62
     7
100
AcDbBlockReference
  2
XH40
 10
0.0
 20
0.0
 30
0.0
  0
INSERT
  5
1B80
330
A
100
AcDbEntity
  8
0
 62
     7
100
AcDbBlockReference
  2
XH42
 10
0.0
 20
0.0
 30
0.0
  0
INSERT
  5
1B81
330
A
100
AcDbEntity
  8
0
 62
     7
100
AcDbBlockReference
  2
XH43
 10
0.0
 20
0.0
 30
0.0
  0
INSERT
  5
1B82
330
A
100
AcDbEntity
  8
0
 62
     7
100
AcDbBlockReference
  2
XH44
 10
0.0
 20
0.0
 30
0.0
  0
INSERT
  5
1B83
330
A
100
AcDbEntity
  8
0
 62
     7
100
AcDbBlockReference
  2
XH45
 10
0.0
 20
0.0
 30
0.0
  0
INSERT
  5
1B84
330
A
100
AcDbEntity
  8
0
 62
     7
100
AcDbBlockReference
  2
XH46
 10
0.0
 20
0.0
 30
0.0
  0
INSERT
  5
1B85
330
A
100
AcDbEntity
  8
0
 62
     7
100
AcDbBlockReference
  2
XH47
 10
0.0
 20
0.0
 30
0.0
  0
INSERT
  5
1B86
330
A
100
AcDbEntity
  8
0
 62
     7
100
AcDbBlockReference
  2
XH48
 10
0.0
 20
0.0
 30
0.0
  0
INSERT
  5
1B87
330
A
100
AcDbEntity
  8
0
 62
     7
100
AcDbBlockReference
  2
XH49
 10
0.0
 20
0.0
 30
0.0
  0
INSERT
  5
1B88
330
A
100
AcDbEntity
  8
0
 62
     7
100
AcDbBlockReference
  2
XH50
 10
0.0
 20
0.0
 30
0.0
  0
INSERT
  5
1B89
330
A
100
AcDbEntity
  8
0
 62
     7
100
AcDbBlockReference
  2
XH51
 10
0.0
 20
0.0
 30
0.0
  0
INSERT
  5
1B8A
330
A
100
AcDbEntity
  8
0
 62
     7
100
AcDbBlockReference
  2
XH52
 10
0.0
 20
0.0
 30
0.0
  0
INSERT
  5
1B8B
330
A
100
AcDbEntity
  8
0
 62
     7
100
AcDbBlockReference
  2
XH53
 10
0.0
 20
0.0
 30
0.0
  0
INSERT
  5
1B8C
330
A
100
AcDbEntity
  8
0
 62
     7
100
AcDbBlockReference
  2
XH54
 10
0.0
 20
0.0
 30
0.0
  0
INSERT
  5
1B8D
330
A
100
AcDbEntity
  8
0
 62
     7
100
AcDbBlockReference
  2
XH55
 10
0.0
 20
0.0
 30
0.0
  0
INSERT
  5
1B8E
330
A
100
AcDbEntity
  8
0
 62
     7
100
AcDbBlockReference
  2
XH56
 10
0.0
 20
0.0
 30
0.0
  0
INSERT
  5
1B8F
330
A
100
AcDbEntity
  8
0
 62
     7
100
AcDbBlockReference
  2
XH57
 10
0.0
 20
0.0
 30
0.0
  0
INSERT
  5
1B90
330
A
100
AcDbEntity
  8
0
 62
     7
100
AcDbBlockReference
  2
XH58
 10
0.0
 20
0.0
 30
0.0
  0
INSERT
  5
1B91
330
A
100
AcDbEntity
  8
0
 62
     7
100
AcDbBlockReference
  2
XH76
 10
0.0
 20
0.0
 30
0.0
  0
INSERT
  5
1B92
330
A
100
AcDbEntity
  8
0
 62
     7
100
AcDbBlockReference
  2
XH102
 10
0.0
 20
0.0
 30
0.0
  0
INSERT
  5
1B93
330
A
100
AcDbEntity
  8
0
 62
     7
100
AcDbBlockReference
  2
XH103
 10
0.0
 20
0.0
 30
0.0
  0
INSERT
  5
1B94
330
A
100
AcDbEntity
  8
0
 62
     7
100
AcDbBlockReference
  2
XH104
 10
0.0
 20
0.0
 30
0.0
  0
INSERT
  5
1B95
330
A
100
AcDbEntity
  8
0
 62
     7
100
AcDbBlockReference
  2
XH105
 10
0.0
 20
0.0
 30
0.0
  0
INSERT
  5
1B96
330
A
100
AcDbEntity
  8
0
 62
     7
100
AcDbBlockReference
  2
XH106
 10
0.0
 20
0.0
 30
0.0
  0
INSERT
  5
1B97
330
A
100
AcDbEntity
  8
0
 62
     7
100
AcDbBlockReference
  2
XH107
 10
0.0
 20
0.0
 30
0.0
  0
INSERT
  5
1B98
330
A
100
AcDbEntity
  8
0
 62
     7
100
AcDbBlockReference
  2
XH108
 10
0.0
 20
0.0
 30
0.0
  0
INSERT
  5
1B99
330
A
100
AcDbEntity
  8
0
 62
     7
100
AcDbBlockReference
  2
XH109
 10
0.0
 20
0.0
 30
0.0
  0
INSERT
  5
1B9A
330
A
100
AcDbEntity
  8
0
 62
     7
100
AcDbBlockReference
  2
XH127
 10
0.0
 20
0.0
 30
0.0
  0
INSERT
  5
1B9B
330
A
100
AcDbEntity
  8
0
 62
     7
100
AcDbBlockReference
  2
XH211
 10
0.0
 20
0.0
 30
0.0
  0
INSERT
  5
1B9C
330
A
100
AcDbEntity
  8
0
 62
     7
100
AcDbBlockReference
  2
XH218
 10
0.0
 20
0.0
 30
0.0
  0
INSERT
  5
1B9D
330
A
100
AcDbEntity
  8
0
 62
     7
100
AcDbBlockReference
  2
XH221
 10
0.0
 20
0.0
 30
0.0
  0
INSERT
  5
1B9E
330
A
100
AcDbEntity
  8
0
 62
     7
100
AcDbBlockReference
  2
XH225
 10
0.0
 20
0.0
 30
0.0
  0
INSERT
  5
2765
330
A
100
AcDbEntity
  8
0
 62
     7
100
AcDbBlockReference
  2
XH109
 10
656.5306660752958
 20
16.02572037078084
 30
0.0
  0
INSERT
  5
2766
330
A
100
AcDbEntity
  8
0
 62
     7
100
AcDbBlockReference
  2
XH108
 10
656.5306660752958
 20
16.02572037078084
 30
0.0
  0
INSERT
  5
2767
330
A
100
AcDbEntity
  8
0
 62
     7
100
AcDbBlockReference
  2
XH107
 10
839.6087300752958
 20
116.3391743707808
 30
0.0
  0
INSERT
  5
2768
330
A
100
AcDbEntity
  8
0
 62
     7
100
AcDbBlockReference
  2
XH106
 10
839.6087300752958
 20
116.3391743707808
 30
0.0
  0
INSERT
  5
2769
330
A
100
AcDbEntity
  8
0
 62
     7
100
AcDbBlockReference
  2
XH105
 10
839.6087300752958
 20
116.3391743707808
 30
0.0
  0
INSERT
  5
276A
330
A
100
AcDbEntity
  8
0
 62
     7
100
AcDbBlockReference
  2
XH104
 10
839.6087300752958
 20
116.3391743707808
 30
0.0
  0
INSERT
  5
276B
330
A
100
AcDbEntity
  8
0
 62
     7
100
AcDbBlockReference
  2
XH103
 10
839.6087300752958
 20
116.3391743707808
 30
0.0
  0
INSERT
  5
276C
330
A
100
AcDbEntity
  8
0
 62
     7
100
AcDbBlockReference
  2
XH102
 10
839.6087300752958
 20
116.3391743707808
 30
0.0
  0
INSERT
  5
2786
330
A
100
AcDbEntity
  8
0
 62
     7
100
AcDbBlockReference
  2
XH76
 10
839.6087300752958
 20
116.3391743707808
 30
0.0
  0
INSERT
  5
2798
330
A
100
AcDbEntity
  8
0
 62
     7
100
AcDbBlockReference
  2
XH58
 10
839.6087300752958
 20
116.3391743707808
 30
0.0
  0
INSERT
  5
2799
330
A
100
AcDbEntity
  8
0
 62
     7
100
AcDbBlockReference
  2
XH57
 10
839.6087300752958
 20
116.3391743707808
 30
0.0
  0
INSERT
  5
279A
330
A
100
AcDbEntity
  8
0
 62
     7
100
AcDbBlockReference
  2
XH56
 10
839.6087300752958
 20
116.3391743707808
 30
0.0
  0
INSERT
  5
279B
330
A
100
AcDbEntity
  8
0
 62
     7
100
AcDbBlockReference
  2
XH55
 10
839.6087300752958
 20
116.3391743707808
 30
0.0
  0
INSERT
  5
279C
330
A
100
AcDbEntity
  8
0
 62
     7
100
AcDbBlockReference
  2
XH54
 10
839.6087300752958
 20
116.3391743707808
 30
0.0
  0
INSERT
  5
279D
330
A
100
AcDbEntity
  8
0
 62
     7
100
AcDbBlockReference
  2
XH53
 10
839.6087300752958
 20
116.3391743707808
 30
0.0
  0
INSERT
  5
279E
330
A
100
AcDbEntity
  8
0
 62
     7
100
AcDbBlockReference
  2
XH52
 10
839.6087300752958
 20
116.3391743707808
 30
0.0
  0
INSERT
  5
279F
330
A
100
AcDbEntity
  8
0
 62
     7
100
AcDbBlockReference
  2
XH51
 10
839.6087300752958
 20
116.3391743707808
 30
0.0
  0
INSERT
  5
27A0
330
A
100
AcDbEntity
  8
0
 62
     7
100
AcDbBlockReference
  2
XH50
 10
576.5306660752957
 20
206.0257203707808
 30
0.0
  0
INSERT
  5
27A1
330
A
100
AcDbEntity
  8
0
 62
     7
100
AcDbBlockReference
  2
XH49
 10
576.5306660752957
 20
206.0257203707808
 30
0.0
  0
INSERT
  5
27A2
330
A
100
AcDbEntity
  8
0
 62
     7
100
AcDbBlockReference
  2
XH48
 10
839.6087300752958
 20
116.3391743707808
 30
0.0
  0
INSERT
  5
27A3
330
A
100
AcDbEntity
  8
0
 62
     7
100
AcDbBlockReference
  2
XH47
 10
839.6087300752958
 20
116.3391743707808
 30
0.0
  0
INSERT
  5
27A4
330
A
100
AcDbEntity
  8
0
 62
     7
100
AcDbBlockReference
  2
XH46
 10
839.6087300752958
 20
116.3391743707808
 30
0.0
  0
INSERT
  5
27A5
330
A
100
AcDbEntity
  8
0
 62
     7
100
AcDbBlockReference
  2
XH45
 10
839.6087300752958
 20
116.3391743707808
 30
0.0
  0
INSERT
  5
27A6
330
A
100
AcDbEntity
  8
0
 62
     7
100
AcDbBlockReference
  2
XH44
 10
839.6087300752958
 20
116.3391743707808
 30
0.0
  0
INSERT
  5
27A7
330
A
100
AcDbEntity
  8
0
 62
     7
100
AcDbBlockReference
  2
XH43
 10
839.6087300752958
 20
116.3391743707808
 30
0.0
  0
INSERT
  5
27A8
330
A
100
AcDbEntity
  8
0
 62
     7
100
AcDbBlockReference
  2
XH42
 10
839.6087300752958
 20
116.3391743707808
 30
0.0
  0
INSERT
  5
27AA
330
A
100
AcDbEntity
  8
0
 62
     7
100
AcDbBlockReference
  2
XH40
 10
839.6087300752958
 20
116.3391743707808
 30
0.0
  0
INSERT
  5
27AB
330
A
100
AcDbEntity
  8
0
 62
     7
100
AcDbBlockReference
  2
XH39
 10
839.6087300752958
 20
116.3391743707808
 30
0.0
  0
TEXT
  5
4E0D
330
A
100
AcDbEntity
  8
0
 62
     7
100
AcDbText
 10
-77.67806799999998
 20
49.18654599999999
 30
0.0
 40
2.5
  1

 11
-77.67806799999998
 21
50.43654599999999
 31
0.0
100
AcDbText
 73
     2
  0
TEXT
  5
4E0E
330
A
100
AcDbEntity
  8
0
 62
     7
100
AcDbText
 10
-77.67806799999998
 20
54.18654599999999
 30
0.0
 40
2.5
  1

 11
-77.67806799999998
 21
55.43654599999999
 31
0.0
100
AcDbText
 73
     2
  0
TEXT
  5
4E0F
330
A
100
AcDbEntity
  8
0
 62
     7
100
AcDbText
 10
-77.67806799999998
 20
59.18654599999999
 30
0.0
 40
2.5
  1

 11
-77.67806799999998
 21
60.43654599999999
 31
0.0
100
AcDbText
 73
     2
  0
TEXT
  5
4E10
330
A
100
AcDbEntity
  8
0
 62
     7
100
AcDbText
 10
-77.67806799999998
 20
64.18654599999999
 30
0.0
 40
2.5
  1

 11
-77.67806799999998
 21
65.43654599999999
 31
0.0
100
AcDbText
 73
     2
  0
TEXT
  5
4E11
330
A
100
AcDbEntity
  8
0
 62
     7
100
AcDbText
 10
-77.67806799999998
 20
69.18654599999999
 30
0.0
 40
2.5
  1

 11
-77.67806799999998
 21
70.43654599999999
 31
0.0
100
AcDbText
 73
     2
  0
TEXT
  5
4E12
330
A
100
AcDbEntity
  8
0
 62
     7
100
AcDbText
 10
-77.67806799999998
 20
74.18654599999999
 30
0.0
 40
2.5
  1

 11
-77.67806799999998
 21
75.43654599999999
 31
0.0
100
AcDbText
 73
     2
  0
INSERT
  5
4E13
330
A
100
AcDbEntity
  8
0
 62
     7
100
AcDbBlockReference
  2
XH19
 10
0.0
 20
0.0
 30
0.0
  0
INSERT
  5
4E14
330
A
100
AcDbEntity
  8
0
 62
     7
100
AcDbBlockReference
  2
XH21
 10
0.0
 20
0.0
 30
0.0
  0
INSERT
  5
4E15
330
A
100
AcDbEntity
  8
0
 62
     7
100
AcDbBlockReference
  2
XH30
 10
0.0
 20
0.0
 30
0.0
  0
INSERT
  5
4E16
330
A
100
AcDbEntity
  8
0
 62
     7
100
AcDbBlockReference
  2
XH32
 10
0.0
 20
0.0
 30
0.0
  0
INSERT
  5
4E17
330
A
100
AcDbEntity
  8
0
 62
     7
100
AcDbBlockReference
  2
XH33
 10
0.0
 20
0.0
 30
0.0
  0
INSERT
  5
4E18
330
A
100
AcDbEntity
  8
0
 62
     7
100
AcDbBlockReference
  2
XH39
 10
0.0
 20
0.0
 30
0.0
  0
INSERT
  5
4E19
330
A
100
AcDbEntity
  8
0
 62
     7
100
AcDbBlockReference
  2
XH40
 10
0.0
 20
0.0
 30
0.0
  0
INSERT
  5
4E1A
330
A
100
AcDbEntity
  8
0
 62
     7
100
AcDbBlockReference
  2
XH42
 10
0.0
 20
0.0
 30
0.0
  0
INSERT
  5
4E1B
330
A
100
AcDbEntity
  8
0
 62
     7
100
AcDbBlockReference
  2
XH43
 10
0.0
 20
0.0
 30
0.0
  0
INSERT
  5
4E1C
330
A
100
AcDbEntity
  8
0
 62
     7
100
AcDbBlockReference
  2
XH44
 10
0.0
 20
0.0
 30
0.0
  0
INSERT
  5
4E1D
330
A
100
AcDbEntity
  8
0
 62
     7
100
AcDbBlockReference
  2
XH45
 10
0.0
 20
0.0
 30
0.0
  0
INSERT
  5
4E1E
330
A
100
AcDbEntity
  8
0
 62
     7
100
AcDbBlockReference
  2
XH46
 10
0.0
 20
0.0
 30
0.0
  0
INSERT
  5
4E1F
330
A
100
AcDbEntity
  8
0
 62
     7
100
AcDbBlockReference
  2
XH47
 10
0.0
 20
0.0
 30
0.0
  0
INSERT
  5
4E20
330
A
100
AcDbEntity
  8
0
 62
     7
100
AcDbBlockReference
  2
XH48
 10
0.0
 20
0.0
 30
0.0
  0
INSERT
  5
4E21
330
A
100
AcDbEntity
  8
0
 62
     7
100
AcDbBlockReference
  2
XH49
 10
0.0
 20
0.0
 30
0.0
  0
INSERT
  5
4E22
330
A
100
AcDbEntity
  8
0
 62
     7
100
AcDbBlockReference
  2
XH50
 10
0.0
 20
0.0
 30
0.0
  0
INSERT
  5
4E23
330
A
100
AcDbEntity
  8
0
 62
     7
100
AcDbBlockReference
  2
XH51
 10
0.0
 20
0.0
 30
0.0
  0
INSERT
  5
4E24
330
A
100
AcDbEntity
  8
0
 62
     7
100
AcDbBlockReference
  2
XH52
 10
0.0
 20
0.0
 30
0.0
  0
INSERT
  5
4E25
330
A
100
AcDbEntity
  8
0
 62
     7
100
AcDbBlockReference
  2
XH53
 10
0.0
 20
0.0
 30
0.0
  0
INSERT
  5
4E26
330
A
100
AcDbEntity
  8
0
 62
     7
100
AcDbBlockReference
  2
XH54
 10
0.0
 20
0.0
 30
0.0
  0
INSERT
  5
4E27
330
A
100
AcDbEntity
  8
0
 62
     7
100
AcDbBlockReference
  2
XH55
 10
0.0
 20
0.0
 30
0.0
  0
INSERT
  5
4E28
330
A
100
AcDbEntity
  8
0
 62
     7
100
AcDbBlockReference
  2
XH56
 10
0.0
 20
0.0
 30
0.0
  0
INSERT
  5
4E29
330
A
100
AcDbEntity
  8
0
 62
     7
100
AcDbBlockReference
  2
XH57
 10
0.0
 20
0.0
 30
0.0
  0
INSERT
  5
4E2A
330
A
100
AcDbEntity
  8
0
 62
     7
100
AcDbBlockReference
  2
XH58
 10
0.0
 20
0.0
 30
0.0
  0
INSERT
  5
4E2B
330
A
100
AcDbEntity
  8
0
 62
     7
100
AcDbBlockReference
  2
XH76
 10
0.0
 20
0.0
 30
0.0
  0
INSERT
  5
4E2C
330
A
100
AcDbEntity
  8
0
 62
     7
100
AcDbBlockReference
  2
XH102
 10
0.0
 20
0.0
 30
0.0
  0
INSERT
  5
4E2D
330
A
100
AcDbEntity
  8
0
 62
     7
100
AcDbBlockReference
  2
XH103
 10
0.0
 20
0.0
 30
0.0
  0
INSERT
  5
4E2E
330
A
100
AcDbEntity
  8
0
 62
     7
100
AcDbBlockReference
  2
XH104
 10
0.0
 20
0.0
 30
0.0
  0
INSERT
  5
4E2F
330
A
100
AcDbEntity
  8
0
 62
     7
100
AcDbBlockReference
  2
XH105
 10
0.0
 20
0.0
 30
0.0
  0
INSERT
  5
4E30
330
A
100
AcDbEntity
  8
0
 62
     7
100
AcDbBlockReference
  2
XH106
 10
0.0
 20
0.0
 30
0.0
  0
INSERT
  5
4E31
330
A
100
AcDbEntity
  8
0
 62
     7
100
AcDbBlockReference
  2
XH107
 10
0.0
 20
0.0
 30
0.0
  0
INSERT
  5
4E32
330
A
100
AcDbEntity
  8
0
 62
     7
100
AcDbBlockReference
  2
XH108
 10
0.0
 20
0.0
 30
0.0
  0
INSERT
  5
4E33
330
A
100
AcDbEntity
  8
0
 62
     7
100
AcDbBlockReference
  2
XH109
 10
0.0
 20
0.0
 30
0.0
  0
INSERT
  5
4E34
330
A
100
AcDbEntity
  8
0
 62
     7
100
AcDbBlockReference
  2
XH127
 10
0.0
 20
0.0
 30
0.0
  0
INSERT
  5
4E35
330
A
100
AcDbEntity
  8
0
 62
     7
100
AcDbBlockReference
  2
XH211
 10
0.0
 20
0.0
 30
0.0
  0
INSERT
  5
4E36
330
A
100
AcDbEntity
  8
0
 62
     7
100
AcDbBlockReference
  2
XH218
 10
0.0
 20
0.0
 30
0.0
  0
INSERT
  5
4E37
330
A
100
AcDbEntity
  8
0
 62
     7
100
AcDbBlockReference
  2
XH221
 10
0.0
 20
0.0
 30
0.0
  0
INSERT
  5
4E38
330
A
100
AcDbEntity
  8
0
 62
     7
100
AcDbBlockReference
  2
XH225
 10
0.0
 20
0.0
 30
0.0
  0
TEXT
  5
4F6F
330
A
100
AcDbEntity
  8
0
100
AcDbText
 10
302.0699257168474
 20
59.0
 30
0.0
 40
2.5
  1

100
AcDbText
  0
TEXT
  5
4F8B
330
A
100
AcDbEntity
  8
0
100
AcDbText
 10
302.0699257168474
 20
77.99999237060546
 30
0.0
 40
2.5
  1

100
AcDbText
  0
TEXT
  5
4F90
330
A
100
AcDbEntity
  8
0
100
AcDbText
 10
302.0699257168474
 20
82.99999237060546
 30
0.0
 40
2.5
  1

100
AcDbText
  0
TEXT
  5
4FB3
330
A
100
AcDbEntity
  8
0
100
AcDbText
 10
302.0699257168474
 20
114.9999847412109
 30
0.0
 40
2.5
  1

100
AcDbText
  0
TEXT
  5
4FBD
330
A
100
AcDbEntity
  8
0
100
AcDbText
 10
302.0699257168474
 20
124.9999847412109
 30
0.0
 40
2.5
  1

100
AcDbText
  0
TEXT
  5
4FC7
330
A
100
AcDbEntity
  8
0
100
AcDbText
 10
302.0699257168474
 20
133.9999847412109
 30
0.0
 40
2.5
  1

100
AcDbText
  0
TEXT
  5
4FF3
330
A
100
AcDbEntity
  8
0
100
AcDbText
 10
401.9800109863281
 20
76.33533156345357
 30
0.0
 40
2.5
  1

100
AcDbText
  0
TEXT
  5
4FF9
330
A
100
AcDbEntity
  8
0
100
AcDbText
 10
401.9800109863281
 20
105.0376027258421
 30
0.0
 40
2.5
  1

100
AcDbText
  0
TEXT
  5
4FFC
330
A
100
AcDbEntity
  8
0
100
AcDbText
 10
401.9800109863281
 20
118.6013791923517
 30
0.0
 40
2.5
  1

100
AcDbText
  0
TEXT
  5
4FFD
330
A
100
AcDbEntity
  8
0
100
AcDbText
 10
401.9800109863281
 20
123.6013791923517
 30
0.0
 40
2.5
  1

100
AcDbText
  0
TEXT
  5
4FFE
330
A
100
AcDbEntity
  8
0
100
AcDbText
 10
401.9800109863281
 20
128.6013791923517
 30
0.0
 40
2.5
  1

100
AcDbText
  0
TEXT
  5
4FFF
330
A
100
AcDbEntity
  8
0
100
AcDbText
 10
416.9800109863281
 20
133.6666564941406
 30
0.0
 40
2.5
  1

100
AcDbText
  0
LWPOLYLINE
  5
14FF1
330
A
100
AcDbEntity
  8
Defpoints
100
AcDbPolyline
 90
        4
 70
     1
 43
0.0
 10
0.0
 20
0.0
 10
759.1493103537332
 20
0.0
 10
759.1493103537332
 20
879.4543721657859
 10
0.0
 20
879.4543721657859
  0
TEXT
  5
15030
330
A
100
AcDbEntity
  8
buhin-1
100
AcDbText
 10
605.5520698713057
 20
53.61152238569776
 30
0.0
 40
10.0
  1
10615XX4+01800184
100
AcDbText
  0
LINE
  5
158A5
330
A
100
AcDbEntity
  8
buhin-1
100
AcDbLine
 10
544.6757914777381
 20
235.2349785771885
 30
0.0
 11
544.6757914777381
 21
193.0677586259931
 31
0.0
  0
LINE
  5
158A6
330
A
100
AcDbEntity
  8
buhin-1
100
AcDbLine
 10
652.0412236630403
 20
247.6276308099269
 30
0.0
 11
652.0412236630403
 21
193.0677586259931
 31
0.0
  0
LINE
  5
158A7
330
A
100
AcDbEntity
  8
buhin-1
100
AcDbLine
 10
547.1757914777381
 20
194.3177586259931
 30
0.0
 11
649.5412236630403
 21
194.3177586259931
 31
0.0
  0
INSERT
  5
158A8
330
A
100
AcDbEntity
  8
buhin-1
100
AcDbBlockReference
  2
_Open30
 10
544.6757914777381
 20
194.3177586259931
 30
0.0
 41
2.5
 42
2.5
 43
2.5
 50
180.0
  0
INSERT
  5
158A9
330
A
100
AcDbEntity
  8
buhin-1
100
AcDbBlockReference
  2
_Open30
 10
652.0412236630403
 20
194.3177586259931
 30
0.0
 41
2.5
 42
2.5
 43
2.5
  0
MTEXT
  5
158AA
330
A
100
AcDbEntity
  8
buhin-1
100
AcDbMText
 10
598.3300868451083
 20
197.8177586259931
 30
0.0
 40
5.0
 41
0.0
 71
     5
 72
     1
  1
82-110
 73
     1
 44
1.0
1001
ACAD
1000
MTEXTBEGIN
1070
    73
1070
     1
1070
    44
1040
1.0
1070
    74
1070
     0
1000
MTEXTEND
  0
MTEXT
  5
158AB
330
A
100
AcDbEntity
  8
buhin-1
100
AcDbMText
 10
598.3300868451083
 20
189.8177586259931
 30
0.0
 40
5.0
 41
0.0
 71
     5
 72
     1
  1
調整しろ:28{\fArial|b0|i0|c0|p32;mm}
 73
     1
 44
1.0
1001
ACAD
1000
MTEXTBEGIN
1070
    73
1070
     1
1070
    44
1040
1.0
1070
    74
1070
     0
1000
MTEXTEND
  0
INSERT
  5
28560
330
A
100
AcDbEntity
  8
buhin-1
100
AcDbBlockReference
  2
box
 10
247.6770150523252
 20
712.9666436181232
 30
0.0
 50
90.0
  0
LINE
  5
28D51
330
A
100
AcDbEntity
  8
BUHIN-3
  6
Continuous
100
AcDbLine
 10
270.961833052325
 20
616.0166416181232
 30
0.0
 11
272.8577630523251
 21
616.0166416181232
 31
0.0
  0
LINE
  5
28D52
330
A
100
AcDbEntity
  8
BUHIN-3
  6
Continuous
100
AcDbLine
 10
243.7804710523252
 20
574.1160476181232
 30
0.0
 11
243.8348990523251
 21
573.5541916181232
 31
0.0
  0
LWPOLYLINE
  5
28D53
330
A
100
AcDbEntity
  8
BUHIN-3
  6
Continuous
100
AcDbPolyline
 90
        5
 70
     0
 43
0.0
 10
243.8333530523251
 20
573.5701476181231
 10
243.723525052325
 20
572.8785436181233
 10
243.637715052325
 20
572.1083036181233
 10
243.6156750523251
 20
571.5192996181233
 10
243.6210750523251
 20
571.2891036181233
  0
LWPOLYLINE
  5
28D54
330
A
100
AcDbEntity
  8
BUHIN-3
  6
Continuous
100
AcDbPolyline
 90
       17
 70
     0
 43
0.0
 10
247.658047052325
 20
566.6455556181233
 10
247.044947052325
 20
566.7098256181231
 10
246.6176510523252
 20
566.7872636181232
 10
246.2886090523251
 20
566.8848276181233
 10
245.9702690523251
 20
567.0094716181234
 10
245.664175052325
 20
567.1613416181233
 10
245.3718690523252
 20
567.3405776181232
 10
245.0953850523252
 20
567.5471096181233
 10
244.8367570523252
 20
567.7808676181232
 10
244.5985050523251
 20
568.0409536181232
 10
244.3831410523249
 20
568.3264636181234
 10
244.1936590523252
 20
568.6350636181232
 10
243.968047052325
 20
569.1179836181233
 10
243.8700490523252
 20
569.3832616181232
 10
243.6975210523252
 20
570.2375296181233
 10
243.6317730523252
 20
571.1058596181232
 10
243.6221850523248
 20
571.2891536181232
  0
ARC
  5
28D55
330
A
100
AcDbEntity
  8
BUHIN-3
  6
Continuous
100
AcDbCircle
 10
255.4270150523251
 20
623.8166456181233
 30
0.0
 40
32.0
100
AcDbArc
 50
182.4931329999981
 51
203.7603580000007
  0
ARC
  5
28D57
330
A
100
AcDbEntity
  8
BUHIN-3
  6
Continuous
100
AcDbCircle
 10
167.455591052325
 20
639.1012096181232
 30
0.0
 40
0.5
100
AcDbArc
 50
90.0
 51
159.9999999999984
  0
LINE
  5
28D58
330
A
100
AcDbEntity
  8
BUHIN-3
  6
Continuous
100
AcDbLine
 10
166.1465830523253
 20
636.9666396181233
 30
0.0
 11
166.9857450523251
 21
639.2722196181232
 31
0.0
  0
LINE
  5
28D59
330
A
100
AcDbEntity
  8
BUHIN-3
  6
Continuous
100
AcDbLine
 10
328.360511052325
 20
639.2722196181232
 30
0.0
 11
329.1996730523252
 21
636.9666396181233
 31
0.0
  0
ARC
  5
28D5A
330
A
100
AcDbEntity
  8
BUHIN-3
  6
Continuous
100
AcDbCircle
 10
327.890665052325
 20
639.1012096181232
 30
0.0
 40
0.5
100
AcDbArc
 50
20.00000000000153
 51
90.0
  0
LINE
  5
28D5B
330
A
100
AcDbEntity
  8
BUHIN-3
  6
Continuous
100
AcDbLine
 10
167.455591052325
 20
639.6012096181232
 30
0.0
 11
293.2414250523251
 21
639.6012096181232
 31
0.0
  0
LINE
  5
28D5C
330
A
100
AcDbEntity
  8
BUHIN-3
  6
Continuous
100
AcDbLine
 10
298.2414250523251
 20
639.6012096181232
 30
0.0
 11
327.890665052325
 21
639.6012096181232
 31
0.0
  0
LINE
  5
28D5D
330
A
100
AcDbEntity
  8
BUHIN-3
  6
HIDDEN
100
AcDbLine
 10
223.4270150523249
 20
639.6012096181232
 30
0.0
 11
223.4270150523249
 21
660.8166456181233
 31
0.0
  0
LINE
  5
28D5E
330
A
100
AcDbEntity
  8
BUHIN-3
  6
HIDDEN
100
AcDbLine
 10
271.9270150523251
 20
639.6012096181232
 30
0.0
 11
271.9270150523251
 21
660.8166456181233
 31
0.0
  0
LINE
  5
28D5F
330
A
100
AcDbEntity
  8
BUHIN-3
  6
Continuous
100
AcDbLine
 10
332.2369250523248
 20
628.5692256181232
 30
0.0
 11
332.6770150523249
 21
636.9666396181233
 31
0.0
  0
ARC
  5
28D60
330
A
100
AcDbEntity
  8
BUHIN-3
  6
Continuous
100
AcDbCircle
 10
329.7403510523251
 20
628.7000656181232
 30
0.0
 40
2.5
100
AcDbArc
 50
275.9062320000036
 51
357.0000000000011
  0
LINE
  5
28D61
330
A
100
AcDbEntity
  8
BUHIN-3
  6
Continuous
100
AcDbLine
 10
332.6770150523249
 20
635.9666396181232
 30
0.0
 11
332.6770150523249
 21
636.9666396181233
 31
0.0
  0
LINE
  5
28D62
330
A
100
AcDbEntity
  8
BUHIN-3
  6
Continuous
100
AcDbLine
 10
220.6101130523253
 20
622.4246576181233
 30
0.0
 11
274.743917052325
 21
622.4246576181233
 31
0.0
  0
ARC
  5
28D63
330
A
100
AcDbEntity
  8
BUHIN-3
  6
Continuous
100
AcDbCircle
 10
247.6770150523253
 20
1421.966639618123
 30
0.0
 40
800.0
100
AcDbArc
 50
264.0937679999964
 51
268.0611060000002
  0
LINE
  5
28D64
330
A
100
AcDbEntity
  8
BUHIN-3
  6
Continuous
100
AcDbLine
 10
162.6770150523249
 20
636.9666396181233
 30
0.0
 11
163.1171050523249
 21
628.5692256181232
 31
0.0
  0
ARC
  5
28D65
330
A
100
AcDbEntity
  8
BUHIN-3
  6
Continuous
100
AcDbCircle
 10
165.6136790523252
 20
628.7000656181232
 30
0.0
 40
2.5
100
AcDbArc
 50
182.9999999999989
 51
264.0937679999964
  0
LINE
  5
28D66
330
A
100
AcDbEntity
  8
BUHIN-3
  6
Continuous
100
AcDbLine
 10
162.6770150523249
 20
636.9666436181232
 30
0.0
 11
332.6770150523249
 21
636.9666436181232
 31
0.0
  0
LINE
  5
28D67
330
A
100
AcDbEntity
  8
BUHIN-3
  6
HIDDEN
100
AcDbLine
 10
293.2414250523251
 20
639.6012096181232
 30
0.0
 11
298.2414250523251
 21
639.6012096181232
 31
0.0
  0
LINE
  5
28D6A
330
A
100
AcDbEntity
  8
BUHIN-3
  6
DASHDOT
100
AcDbLine
 10
247.6770150523251
 20
557.6428076181232
 30
0.0
 11
247.6770150523251
 21
639.6012096181232
 31
0.0
  0
ARC
  5
28D6D
330
A
100
AcDbEntity
  8
BUHIN-3
  6
Continuous
100
AcDbCircle
 10
239.9270150523249
 20
623.8166456181233
 30
0.0
 40
32.0
100
AcDbArc
 50
336.2396419999993
 51
357.5068670000019
  0
ARC
  5
28D6E
330
A
100
AcDbEntity
  8
BUHIN-3
  6
Continuous
100
AcDbCircle
 10
247.6770150523253
 20
1421.966639618123
 30
0.0
 40
800.0
100
AcDbArc
 50
271.9388939999998
 51
275.9062320000036
  0
LINE
  5
28D6F
330
A
100
AcDbEntity
  8
BUHIN-3
  6
Continuous
100
AcDbLine
 10
222.4962110523253
 20
616.0166416181232
 30
0.0
 11
224.3921970523253
 21
616.0166416181232
 31
0.0
  0
LWPOLYLINE
  5
28D70
330
A
100
AcDbEntity
  8
BUHIN-3
  6
Continuous
100
AcDbPolyline
 90
        9
 70
     0
 43
0.0
 10
221.172933052325
 20
615.1132696181232
 10
221.1732470523253
 20
615.3022776181233
 10
221.2146330523252
 20
615.4636016181232
 10
221.2968590523252
 20
615.6017696181233
 10
221.4220930523248
 20
615.7198996181232
 10
221.5951410523249
 20
615.8199776181234
 10
221.8240710523252
 20
615.9029916181232
 10
222.1214390523251
 20
615.9689116181232
 10
222.5064630523253
 20
616.0165076181233
  0
LWPOLYLINE
  5
28D71
330
A
100
AcDbEntity
  8
BUHIN-3
  6
Continuous
100
AcDbPolyline
 90
        3
 70
     0
 43
0.0
 10
221.2385490523253
 20
614.8832896181233
 10
221.2272330523252
 20
614.7289436181234
 10
221.2522190523251
 20
614.5546996181233
  0
LWPOLYLINE
  5
28D72
330
A
100
AcDbEntity
  8
BUHIN-3
  6
Continuous
100
AcDbPolyline
 90
        4
 70
     0
 43
0.0
 10
241.3918250523253
 20
607.8066356181231
 10
243.881477052325
 20
607.6616276181233
 10
246.4077290523252
 20
607.5886836181232
 10
247.6770150523251
 20
607.5795556181233
  0
LWPOLYLINE
  5
28D73
330
A
100
AcDbEntity
  8
BUHIN-3
  6
Continuous
100
AcDbPolyline
 90
       21
 70
     0
 43
0.0
 10
221.2430970523252
 20
614.6106836181234
 10
221.614381052325
 20
614.0347456181232
 10
221.9407210523251
 20
613.6156556181234
 10
222.2896150523253
 20
613.2607436181233
 10
222.728561052325
 20
612.8773416181234
 10
223.2631470523252
 20
612.4755476181233
 10
223.898961052325
 20
612.0654616181232
 10
224.6234610523253
 20
611.6574556181233
 10
225.4241070523249
 20
611.2618976181233
 10
226.2987930523251
 20
610.8800976181233
 10
227.2454210523252
 20
610.5133636181233
 10
228.2612970523251
 20
610.1629736181232
 10
229.3437390523251
 20
609.8302116181232
 10
230.4894870523249
 20
609.5162936181234
 10
231.6952850523249
 20
609.2224396181234
 10
232.957325052325
 20
608.9497696181233
 10
234.271793052325
 20
608.6994096181233
 10
235.6343410523251
 20
608.4723516181234
 10
237.0406210523253
 20
608.2695856181232
 10
238.849891052325
 20
608.0581836181234
 10
241.4214130523252
 20
607.8052156181233
  0
LINE
  5
28D74
330
A
100
AcDbEntity
  8
BUHIN-3
  6
Continuous
100
AcDbLine
 10
251.7302110523252
 20
607.6853096181232
 30
0.0
 11
251.730359052325
 21
607.6853216181232
 31
0.0
  0
LINE
  5
28D75
330
A
100
AcDbEntity
  8
BUHIN-3
  6
Continuous
100
AcDbLine
 10
243.6236490523253
 20
607.6850476181232
 30
0.0
 11
243.6237950523251
 21
607.6850376181233
 31
0.0
  0
LINE
  5
28D76
330
A
100
AcDbEntity
  8
BUHIN-3
  6
Continuous
100
AcDbLine
 10
243.7434010523253
 20
608.4199556181233
 30
0.0
 11
243.7445550523249
 21
608.4197496181232
 31
0.0
  0
LINE
  5
28D77
330
A
100
AcDbEntity
  8
BUHIN-3
  6
Continuous
100
AcDbLine
 10
247.6770050523251
 20
612.1686796181234
 30
0.0
 11
247.6770090523251
 21
612.1666336181233
 31
0.0
  0
LINE
  5
28D78
330
A
100
AcDbEntity
  8
BUHIN-3
  6
Continuous
100
AcDbLine
 10
251.6094750523251
 20
608.4197496181232
 30
0.0
 11
251.6106290523249
 21
608.4199556181233
 31
0.0
  0
LINE
  5
28D79
330
A
100
AcDbEntity
  8
BUHIN-3
  6
Continuous
100
AcDbLine
 10
247.6770210523251
 20
612.1666336181233
 30
0.0
 11
247.6770250523251
 21
612.1686796181234
 31
0.0
  0
LWPOLYLINE
  5
28D7A
330
A
100
AcDbEntity
  8
BUHIN-3
  6
Continuous
100
AcDbPolyline
 90
        3
 70
     0
 43
0.0
 10
219.6557450523251
 20
614.6783936181232
 10
219.6621890523253
 20
614.8255196181232
 10
219.705991052325
 20
614.9753936181232
  0
LWPOLYLINE
  5
28D7B
330
A
100
AcDbEntity
  8
BUHIN-3
  6
Continuous
100
AcDbPolyline
 90
        3
 70
     0
 43
0.0
 10
275.6480510523251
 20
614.9753656181233
 10
275.691853052325
 20
614.8254416181232
 10
275.6982610523252
 20
614.6779656181234
  0
LINE
  5
28D7C
330
A
100
AcDbEntity
  8
BUHIN-3
  6
Continuous
100
AcDbLine
 10
275.6972510523252
 20
614.6780236181232
 30
0.0
 11
276.3356690523252
 21
575.4997936181232
 31
0.0
  0
LINE
  5
28D7D
330
A
100
AcDbEntity
  8
BUHIN-3
  6
Continuous
100
AcDbLine
 10
219.018361052325
 20
575.4997936181232
 30
0.0
 11
219.6559530523251
 21
614.6784056181234
 31
0.0
  0
LWPOLYLINE
  5
28D7E
330
A
100
AcDbEntity
  8
BUHIN-3
  6
Continuous
100
AcDbPolyline
 90
        3
 70
     0
 43
0.0
 10
274.101617052325
 20
614.5538836181233
 10
274.1267850523251
 20
614.7286476181232
 10
274.1155450523253
 20
614.8829716181232
  0
LINE
  5
28D7F
330
A
100
AcDbEntity
  8
BUHIN-3
  6
Continuous
100
AcDbLine
 10
247.6770110523251
 20
611.5593296181232
 30
0.0
 11
247.6770150523251
 21
611.5579276181233
 31
0.0
  0
LINE
  5
28D80
330
A
100
AcDbEntity
  8
BUHIN-3
  6
Continuous
100
AcDbLine
 10
251.6022550523249
 20
607.9922596181233
 30
0.0
 11
251.6024730523251
 21
607.9922996181233
 31
0.0
  0
LINE
  5
28D81
330
A
100
AcDbEntity
  8
BUHIN-3
  6
Continuous
100
AcDbLine
 10
247.6770150523251
 20
611.5579276181233
 30
0.0
 11
247.6770190523249
 21
611.5593556181234
 31
0.0
  0
LINE
  5
28D82
330
A
100
AcDbEntity
  8
BUHIN-3
  6
Continuous
100
AcDbLine
 10
272.8577630523251
 20
616.0166416181232
 30
0.0
 11
273.433181052325
 21
616.0166416181232
 31
0.0
  0
LINE
  5
28D83
330
A
100
AcDbEntity
  8
BUHIN-3
  6
Continuous
100
AcDbLine
 10
221.9207830523252
 20
616.0166416181232
 30
0.0
 11
222.4962110523253
 21
616.0166416181232
 31
0.0
  0
LWPOLYLINE
  5
28D84
330
A
100
AcDbEntity
  8
BUHIN-3
  6
Continuous
100
AcDbPolyline
 90
        4
 70
     0
 43
0.0
 10
220.673187052325
 20
615.8519236181232
 10
220.863951052325
 20
615.9120556181233
 10
221.334137052325
 20
615.9908936181231
 10
221.920773052325
 20
616.0166416181232
  0
LWPOLYLINE
  5
28D85
330
A
100
AcDbEntity
  8
BUHIN-3
  6
Continuous
100
AcDbPolyline
 90
        4
 70
     0
 43
0.0
 10
273.4331910523252
 20
616.0166416181232
 10
274.020189052325
 20
615.9908656181232
 10
274.4905830523252
 20
615.9119256181234
 10
274.681389052325
 20
615.8517156181233
  0
LWPOLYLINE
  5
28D86
330
A
100
AcDbEntity
  8
BUHIN-3
  6
Continuous
100
AcDbPolyline
 90
        4
 70
     0
 43
0.0
 10
247.6770150523251
 20
607.5795556181233
 10
250.212431052325
 20
607.6160676181232
 10
252.7233170523251
 20
607.7252056181232
 10
253.9620450523251
 20
607.8066256181232
  0
LWPOLYLINE
  5
28D87
330
A
100
AcDbEntity
  8
BUHIN-3
  6
Continuous
100
AcDbPolyline
 90
        9
 70
     0
 43
0.0
 10
275.3807090523252
 20
574.4827256181233
 10
275.5732830523251
 20
574.5062716181232
 10
275.760485052325
 20
574.5693416181234
 10
275.9333070523252
 20
574.6689056181232
 10
276.0834330523252
 20
574.8001716181233
 10
276.2036370523252
 20
574.9568196181233
 10
276.2881370523252
 20
575.1313136181233
 10
276.332865052325
 20
575.3152556181232
 10
276.3356690523252
 20
575.4997936181232
  0
LWPOLYLINE
  5
28D88
330
A
100
AcDbEntity
  8
BUHIN-3
  6
Continuous
100
AcDbPolyline
 90
        9
 70
     0
 43
0.0
 10
219.018361052325
 20
575.4997936181232
 10
219.0211650523252
 20
575.3152556181232
 10
219.0658930523251
 20
575.1313136181233
 10
219.150393052325
 20
574.9568196181233
 10
219.2705970523253
 20
574.8001716181233
 10
219.4207230523248
 20
574.6689056181232
 10
219.5935470523251
 20
574.5693416181234
 10
219.7807470523249
 20
574.5062716181232
 10
219.9733210523251
 20
574.4827256181233
  0
ARC
  5
28D89
330
A
100
AcDbEntity
  8
BUHIN-3
  6
Continuous
100
AcDbCircle
 10
247.6770150523253
 20
1574.097791618123
 30
0.0
 40
999.999758
100
AcDbArc
 50
270.0
 51
271.5875099999992
  0
LINE
  5
28D8A
330
A
100
AcDbEntity
  8
BUHIN-3
  6
Continuous
100
AcDbLine
 10
275.3807090523252
 20
574.4827256181233
 30
0.0
 11
275.3807330523251
 21
574.4818556181233
 31
0.0
  0
ARC
  5
28D8B
330
A
100
AcDbEntity
  8
BUHIN-3
  6
Continuous
100
AcDbCircle
 10
247.6770150523253
 20
1574.097791618123
 30
0.0
 40
999.999758
100
AcDbArc
 50
268.4124900000008
 51
270.0
  0
LINE
  5
28D8C
330
A
100
AcDbEntity
  8
BUHIN-3
  6
Continuous
100
AcDbLine
 10
219.9732970523252
 20
574.4818556181233
 30
0.0
 11
219.9733210523251
 21
574.4827256181233
 31
0.0
  0
LWPOLYLINE
  5
28D8D
330
A
100
AcDbEntity
  8
BUHIN-3
  6
Continuous
100
AcDbPolyline
 90
       22
 70
     0
 43
0.0
 10
220.2115750523249
 20
614.0375776181233
 10
220.6807610523252
 20
613.4835396181233
 10
220.9983170523252
 20
613.1798236181232
 10
221.507745052325
 20
612.7508456181232
 10
222.1636250523253
 20
612.2644876181232
 10
222.9205390523249
 20
611.7886336181234
 10
223.776571052325
 20
611.3256156181233
 10
224.7298070523253
 20
610.8777636181232
 10
225.7772510523251
 20
610.4471676181233
 10
226.915905052325
 20
610.0359136181232
 10
228.141781052325
 20
609.6459396181233
 10
229.4508930523249
 20
609.2791756181234
 10
230.8383150523251
 20
608.9373916181232
 10
232.2991210523252
 20
608.6223556181233
 10
233.8274890523249
 20
608.3356356181232
 10
235.4175930523248
 20
608.0787956181231
 10
237.0627390523251
 20
607.8531516181233
 10
238.7562330523252
 20
607.6600176181232
 10
240.490535052325
 20
607.5004016181233
 10
242.2581110523252
 20
607.3753116181233
 10
244.5049410523248
 20
607.2763436181233
 10
247.6770070523251
 20
607.1950956181233
  0
LWPOLYLINE
  5
28D8E
330
A
100
AcDbEntity
  8
BUHIN-3
  6
Continuous
100
AcDbPolyline
 90
       13
 70
     0
 43
0.0
 10
220.6734110523254
 20
615.8513456181233
 10
220.6786130523252
 20
615.8964056181233
 10
220.6511570523249
 20
615.9134896181233
 10
220.5927030523249
 20
615.9015636181232
 10
220.3986310523252
 20
615.7952816181232
 10
220.274763052325
 20
615.7073616181232
 10
220.0104170523251
 20
615.4882636181232
 10
219.7768150523253
 20
615.2563196181233
 10
219.6296870523252
 20
615.0668636181233
 10
219.600599052325
 20
615.0029116181233
 10
219.6041310523252
 20
614.9650896181233
 10
219.6400710523249
 20
614.9556896181231
 10
219.7062430523252
 20
614.9752816181233
  0
LWPOLYLINE
  5
28D8F
330
A
100
AcDbEntity
  8
BUHIN-3
  6
Continuous
100
AcDbPolyline
 90
       24
 70
     0
 43
0.0
 10
247.6770230523249
 20
607.1950956181233
 10
250.8490890523249
 20
607.2763436181233
 10
252.6209530523253
 20
607.3489096181234
 10
253.095919052325
 20
607.3753116181233
 10
254.8634950523252
 20
607.5004016181233
 10
256.5977990523253
 20
607.6600176181232
 10
258.2912910523252
 20
607.8531516181233
 10
259.936437052325
 20
608.0787956181231
 10
261.5265410523251
 20
608.3356356181232
 10
263.0549090523251
 20
608.6223556181233
 10
264.5157150523252
 20
608.9373916181232
 10
265.9031370523252
 20
609.2791756181234
 10
267.2122490523251
 20
609.6459396181233
 10
268.4381250523251
 20
610.0359136181232
 10
269.5767790523252
 20
610.4471676181233
 10
270.624223052325
 20
610.8777636181232
 10
271.577461052325
 20
611.3256156181233
 10
272.4334910523252
 20
611.7886336181234
 10
273.190405052325
 20
612.2644876181232
 10
273.8462850523252
 20
612.7508456181232
 10
274.3557130523251
 20
613.1798236181232
 10
274.6732690523251
 20
613.4835396181233
 10
275.0664690523251
 20
613.9403656181232
 10
275.125099052325
 20
614.0158196181232
  0
LWPOLYLINE
  5
28D90
330
A
100
AcDbEntity
  8
BUHIN-3
  6
Continuous
100
AcDbPolyline
 90
       13
 70
     0
 43
0.0
 10
275.6477870523251
 20
614.9752476181234
 10
275.7139950523253
 20
614.9555636181233
 10
275.7500070523253
 20
614.9648516181232
 10
275.7536470523252
 20
615.0025476181233
 10
275.6648930523251
 20
615.1524556181231
 10
275.5778750523251
 20
615.2555936181234
 10
275.3445710523252
 20
615.4873976181233
 10
275.0804130523251
 20
615.7065036181234
 10
274.8483990523251
 20
615.8606636181232
 10
274.7624210523251
 20
615.9010176181232
 10
274.7038530523251
 20
615.9131136181233
 10
274.6762370523253
 20
615.8962136181233
 10
274.6812450523251
 20
615.8513456181233
  0
LWPOLYLINE
  5
28D91
330
A
100
AcDbEntity
  8
BUHIN-3
  6
Continuous
100
AcDbPolyline
 90
        6
 70
     0
 43
0.0
 10
272.8475690523252
 20
616.0165396181232
 10
273.3670790523253
 20
615.9333696181233
 10
273.6693850523251
 20
615.8448956181232
 10
273.8291110523252
 20
615.7687536181233
 10
273.981125052325
 20
615.6471356181232
 10
274.1452570523253
 20
615.4493596181232
  0
LINE
  5
28D92
330
A
100
AcDbEntity
  8
BUHIN-3
  6
Continuous
100
AcDbLine
 10
273.7160130523252
 20
613.9571736181233
 30
0.0
 11
274.1109330523251
 21
614.6106836181234
 31
0.0
  0
LWPOLYLINE
  5
28D93
330
A
100
AcDbEntity
  8
BUHIN-3
  6
Continuous
100
AcDbPolyline
 90
       20
 70
     0
 43
0.0
 10
253.9385130523252
 20
607.8043136181234
 10
255.7269510523252
 20
607.9573456181233
 10
257.4766290523252
 20
608.1480416181232
 10
259.179035052325
 20
608.3754716181233
 10
260.8258810523249
 20
608.6385316181234
 10
262.4091530523252
 20
608.9359376181232
 10
263.9211430523252
 20
609.2662456181233
 10
265.3544950523252
 20
609.6278456181233
 10
266.7022310523249
 20
610.0189796181232
 10
267.957791052325
 20
610.4377416181232
 10
269.1150670523251
 20
610.8820956181232
 10
270.1684230523252
 20
611.3498776181233
 10
271.1127330523251
 20
611.8388116181233
 10
271.9434030523252
 20
612.3465176181232
 10
272.314835052325
 20
612.6066416181234
 10
272.6563870523252
 20
612.8705236181233
 10
272.9676410523251
 20
613.1378456181233
 10
273.248217052325
 20
613.4082816181233
 10
273.4977770523252
 20
613.6815016181233
 10
273.7160130523252
 20
613.9571736181233
  0
LINE
  5
28D94
330
A
100
AcDbEntity
  8
BUHIN-3
  6
Continuous
100
AcDbLine
 10
273.1094410523252
 20
613.2749896181232
 30
0.0
 11
273.1977270523249
 21
613.3475276181232
 31
0.0
  0
LWPOLYLINE
  5
28D95
330
A
100
AcDbEntity
  8
BUHIN-3
  6
Continuous
100
AcDbPolyline
 90
        5
 70
     0
 43
0.0
 10
251.5206770523251
 20
573.5701476181231
 10
251.6305050523252
 20
572.8785436181233
 10
251.7163150523253
 20
572.1083036181233
 10
251.7383550523251
 20
571.5192996181233
 10
251.7329550523251
 20
571.2891036181233
  0
LWPOLYLINE
  5
28D96
330
A
100
AcDbEntity
  8
BUHIN-3
  6
Continuous
100
AcDbPolyline
 90
       17
 70
     0
 43
0.0
 10
247.6959830523252
 20
566.6455556181233
 10
248.309085052325
 20
566.7098256181231
 10
248.7363790523251
 20
566.7872636181232
 10
249.0654210523249
 20
566.8848276181233
 10
249.3837610523252
 20
567.0094716181234
 10
249.6898550523252
 20
567.1613416181233
 10
249.982161052325
 20
567.3405776181232
 10
250.258645052325
 20
567.5471096181233
 10
250.5172730523251
 20
567.7808676181232
 10
250.755527052325
 20
568.0409536181232
 10
250.9708890523251
 20
568.3264636181234
 10
251.1603710523251
 20
568.6350636181232
 10
251.3859830523252
 20
569.1179836181233
 10
251.483981052325
 20
569.3832616181232
 10
251.6565090523251
 20
570.2375296181233
 10
251.722257052325
 20
571.1058596181232
 10
251.7318470523251
 20
571.2891536181232
  0
LINE
  5
28D97
330
A
100
AcDbEntity
  8
BUHIN-3
  6
Continuous
100
AcDbLine
 10
251.5191330523252
 20
573.5541916181232
 30
0.0
 11
251.5735590523251
 21
574.1160476181232
 31
0.0
  0
LINE
  5
28D99
330
A
100
AcDbEntity
  8
BUHIN-2
  6
HIDDEN
100
AcDbLine
 10
608.0412274777375
 20
362.5865430924733
 30
0.0
 11
618.0412274777376
 21
362.5865430924733
 31
0.0
  0
LINE
  5
28D9A
330
A
100
AcDbEntity
  8
BUHIN-2
  6
HIDDEN
100
AcDbLine
 10
608.4353454777377
 20
367.8865430924735
 30
0.0
 11
618.0412274777376
 21
367.8865430924735
 31
0.0
  0
LINE
  5
28D9B
330
A
100
AcDbEntity
  8
BUHIN-2
  6
HIDDEN
100
AcDbLine
 10
608.4353854777377
 20
286.9261170924734
 30
0.0
 11
618.0412274777376
 21
286.9261170924734
 31
0.0
  0
LINE
  5
28D9C
330
A
100
AcDbEntity
  8
BUHIN-2
  6
HIDDEN
100
AcDbLine
 10
608.0412274777375
 20
292.2261170924733
 30
0.0
 11
618.0412274777376
 21
292.2261170924733
 31
0.0
  0
LINE
  5
28DAB
330
A
100
AcDbEntity
  8
BUHIN-2
  6
HIDDEN
100
AcDbLine
 10
607.6956634777379
 20
363.8762970924734
 30
0.0
 11
607.7915214777375
 21
363.9880490924734
 31
0.0
  0
LINE
  5
28DAC
330
A
100
AcDbEntity
  8
BUHIN-2
  6
HIDDEN
100
AcDbLine
 10
606.7088474777378
 20
363.0929370924733
 30
0.0
 11
606.7298674777378
 21
363.0984650924734
 31
0.0
  0
ARC
  5
28DAD
330
A
100
AcDbEntity
  8
BUHIN-2
  6
Continuous
100
AcDbCircle
 10
528.8912294777377
 20
335.1563250924733
 30
0.0
 40
32.0
100
AcDbArc
 50
255.8920190000011
 51
267.5068669999955
  0
ARC
  5
28DAE
330
A
100
AcDbEntity
  8
BUHIN-2
  6
Continuous
100
AcDbCircle
 10
1327.041223477737
 20
327.4063250924733
 30
0.0
 40
800.0
100
AcDbArc
 50
174.0937680000029
 51
178.0611060000001
  0
ARC
  5
28DAF
330
A
100
AcDbEntity
  8
BUHIN-2
  6
Continuous
100
AcDbCircle
 10
528.8912294777377
 20
319.6563250924733
 30
0.0
 40
32.0
100
AcDbArc
 50
92.49313300000457
 51
114.4433349999997
  0
LINE
  5
28DB0
330
A
100
AcDbEntity
  8
BUHIN-2
  6
DASHDOT
100
AcDbLine
 10
475.0298834777376
 20
327.4063250924733
 30
0.0
 11
544.6757914777379
 21
327.4063250924734
 31
0.0
  0
LINE
  5
28DB1
330
A
100
AcDbEntity
  8
BUHIN-2
  6
HIDDEN
100
AcDbLine
 10
607.0382294777377
 20
365.2365430924734
 30
0.0
 11
609.5442254777379
 21
365.2365430924734
 31
0.0
  0
LINE
  5
28DB3
330
A
100
AcDbEntity
  8
BUHIN-2
  6
HIDDEN
100
AcDbLine
 10
588.3644454777376
 20
305.1324610924733
 30
0.0
 11
608.4858134777377
 21
305.1324610924733
 31
0.0
  0
LINE
  5
28DB4
330
A
100
AcDbEntity
  8
BUHIN-2
  6
HIDDEN
100
AcDbLine
 10
607.0382294777377
 20
289.5761170924735
 30
0.0
 11
609.5442254777379
 21
289.5761170924735
 31
0.0
  0
LWPOLYLINE
  5
28DB5
330
A
100
AcDbEntity
  8
BUHIN-2
  6
Continuous
100
AcDbPolyline
 90
        6
 70
     0
 43
0.0
 10
509.6495614777376
 20
299.2066110924735
 10
510.7405654777379
 20
299.3019250924734
 10
511.9271014777377
 20
299.3626690924732
 10
513.0518174777379
 20
299.3808130924734
 10
514.2731794777376
 20
299.3588970924735
 10
515.3408014777377
 20
299.3059510924734
  0
LWPOLYLINE
  5
28DB6
330
A
100
AcDbEntity
  8
BUHIN-2
  6
Continuous
100
AcDbPolyline
 90
        2
 70
     0
 43
0.0
 10
513.9218034777376
 20
299.3694990924733
 10
513.8760374777379
 20
299.3706250924734
  0
LWPOLYLINE
  5
28DB7
330
A
100
AcDbEntity
  8
BUHIN-2
  6
Continuous
100
AcDbPolyline
 90
        2
 70
     0
 43
0.0
 10
515.3408014777377
 20
299.3059510924734
 10
514.9672714777379
 20
299.3279430924734
  0
LWPOLYLINE
  5
28DB8
330
A
100
AcDbEntity
  8
BUHIN-2
  6
Continuous
100
AcDbPolyline
 90
        3
 70
     0
 43
0.0
 10
512.9353614777377
 20
299.3806710924733
 10
511.679125477738
 20
299.3536470924733
 10
510.7615154777375
 20
299.3033790924733
  0
LINE
  5
28DB9
330
A
100
AcDbEntity
  8
BUHIN-2
  6
Continuous
100
AcDbLine
 10
486.3958114777378
 20
298.8007150924732
 30
0.0
 11
509.6495614777376
 21
299.2066110924735
 31
0.0
  0
LINE
  5
28DBA
330
A
100
AcDbEntity
  8
BUHIN-2
  6
Continuous
100
AcDbLine
 10
515.3408014777377
 20
299.3059510924734
 30
0.0
 11
520.5999514777375
 21
299.3977510924734
 31
0.0
  0
LINE
  5
28DBB
330
A
100
AcDbEntity
  8
BUHIN-2
  6
Continuous
100
AcDbLine
 10
480.5743774777377
 20
356.1135490924733
 30
0.0
 11
511.9064614777379
 21
355.5666450924733
 31
0.0
  0
LWPOLYLINE
  5
28DBC
330
A
100
AcDbEntity
  8
BUHIN-2
  6
Continuous
100
AcDbPolyline
 90
        3
 70
     0
 43
0.0
 10
521.0406974777377
 20
320.2010830924733
 10
521.0831994777375
 20
318.7187670924732
 10
521.0912254777375
 20
317.7448150924734
  0
LWPOLYLINE
  5
28DBD
330
A
100
AcDbEntity
  8
BUHIN-2
  6
Continuous
100
AcDbPolyline
 90
        2
 70
     0
 43
0.0
 10
519.6114814777378
 20
330.9824690924734
 10
519.7483594777375
 20
330.3623870924733
  0
LWPOLYLINE
  5
28DBE
330
A
100
AcDbEntity
  8
BUHIN-2
  6
Continuous
100
AcDbPolyline
 90
        2
 70
     0
 43
0.0
 10
520.884195477738
 20
322.7195270924734
 10
520.9259494777378
 20
322.1899270924733
  0
LWPOLYLINE
  5
28DBF
330
A
100
AcDbEntity
  8
BUHIN-2
  6
Continuous
100
AcDbPolyline
 90
        2
 70
     0
 43
0.0
 10
520.2372034777376
 20
327.8264790924732
 10
520.4317474777379
 20
326.6105710924733
  0
LWPOLYLINE
  5
28DC0
330
A
100
AcDbEntity
  8
BUHIN-2
  6
Continuous
100
AcDbPolyline
 90
        4
 70
     0
 43
0.0
 10
512.3758874777376
 20
355.2129070924733
 10
518.4695114777376
 20
335.2815670924734
 10
518.8921774777376
 20
333.8341830924733
 10
519.1561034777377
 20
332.8544650924733
  0
LWPOLYLINE
  5
28DC1
330
A
100
AcDbEntity
  8
BUHIN-2
  6
Continuous
100
AcDbPolyline
 90
        2
 70
     0
 43
0.0
 10
519.2562954777375
 20
332.4642490924733
 10
519.6114834777375
 20
330.9824690924734
  0
LWPOLYLINE
  5
28DC2
330
A
100
AcDbEntity
  8
BUHIN-2
  6
Continuous
100
AcDbPolyline
 90
        6
 70
     0
 43
0.0
 10
519.7471694777376
 20
330.3621310924733
 10
520.0780014777377
 20
328.6795350924734
 10
520.3341034777375
 20
327.2184550924734
 10
520.5722874777378
 20
325.5795230924733
 10
520.8019314777378
 20
323.5710130924734
 10
520.8837194777378
 20
322.7194870924732
  0
LINE
  5
28DC3
330
A
100
AcDbEntity
  8
BUHIN-2
  6
Continuous
100
AcDbLine
 10
521.0217254777379
 20
320.6171470924733
 30
0.0
 11
521.0321114777379
 21
320.3743970924734
 31
0.0
  0
LINE
  5
28DC4
330
A
100
AcDbEntity
  8
BUHIN-2
  6
Continuous
100
AcDbLine
 10
521.0321114777379
 20
320.3743970924734
 30
0.0
 11
521.0395274777377
 21
320.2010350924734
 31
0.0
  0
LINE
  5
28DC5
330
A
100
AcDbEntity
  8
BUHIN-2
  6
Continuous
100
AcDbLine
 10
519.1555034777378
 20
332.8543090924735
 30
0.0
 11
519.2257014777377
 21
332.5789790924733
 31
0.0
  0
LINE
  5
28DC6
330
A
100
AcDbEntity
  8
BUHIN-2
  6
Continuous
100
AcDbLine
 10
519.2257014777377
 20
332.5789790924733
 30
0.0
 11
519.2580374777379
 21
332.4521570924733
 31
0.0
  0
LINE
  5
28DC7
330
A
100
AcDbEntity
  8
BUHIN-2
  6
Continuous
100
AcDbLine
 10
519.9688694777377
 20
329.2667970924734
 30
0.0
 11
520.2359574777378
 21
327.8262670924733
 31
0.0
  0
LINE
  5
28DC8
330
A
100
AcDbEntity
  8
BUHIN-2
  6
Continuous
100
AcDbLine
 10
521.0321114777379
 20
320.3743970924734
 30
0.0
 11
521.0397694777379
 21
320.2008870924733
 31
0.0
  0
LINE
  5
28DC9
330
A
100
AcDbEntity
  8
BUHIN-2
  6
Continuous
100
AcDbLine
 10
520.9259274777377
 20
322.1899250924733
 30
0.0
 11
521.0217254777379
 21
320.6171470924733
 31
0.0
  0
LINE
  5
28DCA
330
A
100
AcDbEntity
  8
BUHIN-2
  6
Continuous
100
AcDbLine
 10
519.2257014777377
 20
332.5789790924733
 30
0.0
 11
519.2582694777378
 21
332.4523350924733
 31
0.0
  0
LINE
  5
28DCB
330
A
100
AcDbEntity
  8
BUHIN-2
  6
Continuous
100
AcDbLine
 10
520.4392914777375
 20
326.5587550924734
 30
0.0
 11
520.6162474777378
 21
325.2702090924734
 31
0.0
  0
LINE
  5
28DCC
330
A
100
AcDbEntity
  8
BUHIN-2
  6
Continuous
100
AcDbLine
 10
521.0912254777375
 20
299.8976730924733
 30
0.0
 11
521.0912254777375
 21
317.7447930924732
 31
0.0
  0
LINE
  5
28DCD
330
A
100
AcDbEntity
  8
BUHIN-2
  6
Continuous
100
AcDbLine
 10
473.5015754777377
 20
283.5316910924733
 30
0.0
 11
479.0648594777379
 21
322.2084990924732
 31
0.0
  0
ARC
  5
28DCE
330
A
100
AcDbEntity
  8
BUHIN-2
  6
Continuous
100
AcDbCircle
 10
1287.384423477738
 20
283.7790310924734
 30
0.0
 40
801.1877919999999
100
AcDbArc
 50
180.0295299999998
 51
180.1483040000022
  0
LINE
  5
28DCF
330
A
100
AcDbEntity
  8
BUHIN-2
  6
Continuous
100
AcDbLine
 10
486.1993154777377
 20
294.4778810924734
 30
0.0
 11
486.1993154777377
 21
298.6007510924734
 31
0.0
  0
ARC
  5
28DD0
330
A
100
AcDbEntity
  8
BUHIN-2
  6
Continuous
100
AcDbCircle
 10
2360.293689477737
 20
284.3490570924733
 30
0.0
 40
1874.09721
100
AcDbArc
 50
179.9722719999988
 51
180.0300520000017
  0
LWPOLYLINE
  5
28DD1
330
A
100
AcDbEntity
  8
BUHIN-2
  6
Continuous
100
AcDbPolyline
 90
        2
 70
     0
 43
0.0
 10
486.1993154777377
 20
294.4778810924734
 10
486.196699477738
 20
285.2560250924733
  0
ARC
  5
28DD2
330
A
100
AcDbEntity
  8
BUHIN-2
  6
Continuous
100
AcDbCircle
 10
480.5569234777375
 20
355.1137010924734
 30
0.0
 40
1.0
100
AcDbArc
 50
88.99999999999824
 51
178.4106899999976
  0
ARC
  5
28DD3
330
A
100
AcDbEntity
  8
BUHIN-2
  6
Continuous
100
AcDbCircle
 10
1479.191181477737
 20
327.4063670924734
 30
0.0
 40
1000.018564
100
AcDbArc
 50
180.0000020000028
 51
180.2501130000017
  0
ARC
  5
28DD4
330
A
100
AcDbEntity
  8
BUHIN-2
  6
Continuous
100
AcDbCircle
 10
1479.172617477737
 20
327.4063250924733
 30
0.0
 40
1000.0
100
AcDbArc
 50
178.4106909999994
 51
180.0
  0
LWPOLYLINE
  5
28DD5
330
A
100
AcDbEntity
  8
BUHIN-2
  6
Continuous
100
AcDbPolyline
 90
        5
 70
     0
 43
0.0
 10
476.2037274777379
 20
230.9895430924733
 10
475.5833654777378
 20
232.3900630924734
 10
475.2940834777376
 20
233.0991070924734
 10
474.9286634777376
 20
234.0819590924732
 10
474.8976174777379
 20
234.1709930924734
  0
LWPOLYLINE
  5
28DD6
330
A
100
AcDbEntity
  8
BUHIN-2
  6
Continuous
100
AcDbPolyline
 90
        4
 70
     0
 43
0.0
 10
472.4021274777377
 20
245.3913350924734
 10
472.2035674777379
 20
247.1825450924733
 10
472.0463654777375
 20
248.9778410924733
 10
471.9256134777378
 20
250.7760370924732
  0
LWPOLYLINE
  5
28DD7
330
A
100
AcDbEntity
  8
BUHIN-2
  6
Continuous
100
AcDbPolyline
 90
        3
 70
     0
 43
0.0
 10
474.8976154777377
 20
234.1710010924733
 10
474.3855694777379
 20
235.7723490924732
 10
473.9315614777377
 20
237.3913350924734
  0
LWPOLYLINE
  5
28DD8
330
A
100
AcDbEntity
  8
BUHIN-2
  6
Continuous
100
AcDbPolyline
 90
       15
 70
     0
 43
0.0
 10
471.9256134777378
 20
250.7760390924732
 10
471.8087694777376
 20
253.2946470924733
 10
471.7593194777377
 20
254.9747950924732
 10
471.7272574777378
 20
256.8311990924733
 10
471.7172414777377
 20
258.6878470924733
 10
471.7282134777377
 20
260.5444990924732
 10
471.7594154777379
 20
262.4009330924733
 10
471.8807314777376
 20
266.1123050924733
 10
472.0794854777376
 20
269.8203350924733
 10
472.3559234777375
 20
273.5233790924734
 10
472.5387114777375
 20
275.5300750924733
 10
472.7447074777377
 20
277.5345210924734
 10
472.9738714777376
 20
279.5364510924733
 10
473.2261714777377
 20
281.5355970924734
 10
473.5015694777379
 20
283.5316930924733
  0
LWPOLYLINE
  5
28DD9
330
A
100
AcDbEntity
  8
BUHIN-2
  6
Continuous
100
AcDbPolyline
 90
        6
 70
     0
 43
0.0
 10
473.9315614777377
 20
237.3913350924734
 10
473.5033554777377
 20
239.1104010924733
 10
473.3095394777377
 20
239.9747530924734
 10
472.9523234777379
 20
241.7707630924734
 10
472.651139477738
 20
243.5770590924733
 10
472.4021274777377
 20
245.3913350924734
  0
LINE
  5
28DDA
330
A
100
AcDbEntity
  8
BUHIN-2
  6
Continuous
100
AcDbLine
 10
486.1993154777377
 20
254.9747950924732
 30
0.0
 11
486.1993154777377
 21
273.5233790924734
 31
0.0
  0
LINE
  5
28DDB
330
A
100
AcDbEntity
  8
BUHIN-2
  6
Continuous
100
AcDbLine
 10
486.1993154777377
 20
231.0126330924735
 30
0.0
 11
486.1993154777377
 21
239.9747530924734
 31
0.0
  0
LINE
  5
28DDC
330
A
100
AcDbEntity
  8
BUHIN-2
  6
Continuous
100
AcDbLine
 10
486.1993154777377
 20
239.9747550924733
 30
0.0
 11
486.1993154777377
 21
254.9747950924732
 31
0.0
  0
LINE
  5
28DDD
330
A
100
AcDbEntity
  8
BUHIN-2
  6
Continuous
100
AcDbLine
 10
486.1993154777377
 20
273.5233790924734
 30
0.0
 11
486.1993154777377
 21
281.7052450924732
 31
0.0
  0
LINE
  5
28DDE
330
A
100
AcDbEntity
  8
BUHIN-2
  6
Continuous
100
AcDbLine
 10
476.3454214777379
 20
230.6836730924734
 30
0.0
 11
476.3879774777377
 21
230.5899690924733
 31
0.0
  0
ARC
  5
28DDF
330
A
100
AcDbEntity
  8
BUHIN-2
  6
Continuous
100
AcDbCircle
 10
527.5701274777378
 20
230.9211370924734
 30
0.0
 40
41.37081199999999
100
AcDbArc
 50
180.0117830000026
 51
180.4272640000004
  0
LINE
  5
28DE0
330
A
100
AcDbEntity
  8
BUHIN-2
  6
Continuous
100
AcDbLine
 10
486.1993154777377
 20
230.9126290924733
 30
0.0
 11
486.1993154777377
 21
231.0126290924734
 31
0.0
  0
LWPOLYLINE
  5
28DE1
330
A
100
AcDbEntity
  8
BUHIN-2
  6
Continuous
100
AcDbPolyline
 90
        2
 70
     0
 43
0.0
 10
476.2037274777379
 20
230.9895430924733
 10
476.3454214777379
 20
230.6836730924734
  0
LWPOLYLINE
  5
28DE2
330
A
100
AcDbEntity
  8
BUHIN-2
  6
Continuous
100
AcDbPolyline
 90
       17
 70
     0
 43
0.0
 10
482.0526274777379
 20
225.0824270924734
 10
481.6604674777376
 20
225.1690870924734
 10
481.2768834777378
 20
225.2869870924733
 10
480.9029414777377
 20
225.4328170924733
 10
480.5395334777375
 20
225.6037070924734
 10
480.187405477738
 20
225.7971930924733
 10
479.8471794777377
 20
226.0111690924733
 10
479.519377477738
 20
226.2438430924734
 10
479.2044494777377
 20
226.4936970924733
 10
478.9027914777379
 20
226.7594470924733
 10
478.6147694777376
 20
227.0399930924733
 10
478.328097477738
 20
227.3486310924732
 10
478.0571014777377
 20
227.6711750924733
 10
477.5621714777379
 20
228.3528310924733
 10
477.1267674777376
 20
229.0743630924733
 10
476.7412594777377
 20
229.8243270924734
 10
476.3879794777375
 20
230.5899690924733
  0
LWPOLYLINE
  5
28DE3
330
A
100
AcDbEntity
  8
BUHIN-2
  6
Continuous
100
AcDbPolyline
 90
       16
 70
     0
 43
0.0
 10
486.2004654777377
 20
230.6126310924733
 10
486.2053534777377
 20
229.5269630924734
 10
486.1826434777375
 20
228.8756050924733
 10
486.1005594777378
 20
228.1199610924733
 10
486.0287754777377
 20
227.7469130924733
 10
485.9320114777378
 20
227.3798310924734
 10
485.7714034777376
 20
226.9353310924733
 10
485.5608174777379
 20
226.5127690924733
 10
485.2958974777378
 20
226.1229550924734
 10
484.9755214777377
 20
225.7783150924734
 10
484.6032794777378
 20
225.4908710924734
 10
484.2816974777377
 20
225.3119990924734
 10
483.9395794777377
 20
225.1756850924733
 10
483.5832494777377
 20
225.0814190924733
 10
483.2181894777376
 20
225.0272890924733
 10
482.8490514777375
 20
225.0099850924733
  0
LWPOLYLINE
  5
28DE4
330
A
100
AcDbEntity
  8
BUHIN-2
  6
Continuous
100
AcDbPolyline
 90
        3
 70
     0
 43
0.0
 10
482.8490514777375
 20
225.0099850924733
 10
482.3166114777376
 20
225.0430070924734
 10
482.0526274777379
 20
225.0824270924734
  0
ARC
  5
28DE5
330
A
100
AcDbEntity
  8
BUHIN-2
  6
Continuous
100
AcDbCircle
 10
520.5912314777378
 20
299.8976690924733
 30
0.0
 40
0.5
100
AcDbArc
 50
270.999418999994
 51
0.0005810000011622
  0
ARC
  5
28DE6
330
A
100
AcDbEntity
  8
BUHIN-2
  6
Continuous
100
AcDbCircle
 10
511.8977394777378
 20
355.0667270924733
 30
0.0
 40
0.5
100
AcDbArc
 50
16.99950600000093
 51
89.00049399999446
  0
LWPOLYLINE
  5
28DE7
330
A
100
AcDbEntity
  8
BUHIN-2
  6
Continuous
100
AcDbPolyline
 90
        5
 70
     0
 43
0.0
 10
486.3958114777378
 20
298.8007170924735
 10
486.3203554777377
 20
298.7845070924732
 10
486.2566554777376
 20
298.7409310924734
 10
486.2141974777377
 20
298.6764790924734
 10
486.1993034777377
 20
298.6007490924734
  0
LWPOLYLINE
  5
28DE8
330
A
100
AcDbEntity
  8
BUHIN-2
  6
Continuous
100
AcDbPolyline
 90
        4
 70
     0
 43
0.0
 10
480.5883454777375
 20
298.9695990924734
 10
481.7815494777376
 20
298.9700830924733
 10
483.5966074777378
 20
298.9119990924733
 10
485.3362974777377
 20
298.8328430924733
  0
LWPOLYLINE
  5
28DE9
330
A
100
AcDbEntity
  8
BUHIN-2
  6
Continuous
100
AcDbPolyline
 90
        5
 70
     0
 43
0.0
 10
479.5565834777379
 20
299.9714590924733
 10
479.3993654777376
 20
306.4513810924732
 10
479.2815934777376
 20
313.0038670924733
 10
479.2076614777378
 20
319.3167690924734
 10
479.2017794777378
 20
320.0127090924735
  0
LWPOLYLINE
  5
28DEA
330
A
100
AcDbEntity
  8
BUHIN-2
  6
Continuous
100
AcDbPolyline
 90
        2
 70
     0
 43
0.0
 10
479.1800974777378
 20
323.0116510924734
 10
479.1821454777376
 20
323.0409970924735
  0
LINE
  5
28DEB
330
A
100
AcDbEntity
  8
BUHIN-2
  6
Continuous
100
AcDbLine
 10
480.5745214777378
 20
298.9693910924735
 30
0.0
 11
480.5889374777378
 21
298.9696430924733
 31
0.0
  0
LINE
  5
28DEC
330
A
100
AcDbEntity
  8
BUHIN-2
  6
Continuous
100
AcDbLine
 10
479.5565834777379
 20
299.9714590924733
 30
0.0
 11
479.5690094777377
 21
299.8149110924733
 31
0.0
  0
ARC
  5
28DED
330
A
100
AcDbEntity
  8
BUHIN-2
  6
Continuous
100
AcDbCircle
 10
480.5565934777376
 20
299.9688050924734
 30
0.0
 40
0.999502
100
AcDbArc
 50
188.8571069999965
 51
271.0277230000027
  0
LINE
  5
28DEE
330
A
100
AcDbEntity
  8
BUHIN-2
  6
HIDDEN
100
AcDbLine
 10
568.8912274777379
 20
310.6547090924733
 30
0.0
 11
600.1634794777377
 21
310.7000130924733
 31
0.0
  0
LWPOLYLINE
  5
28DEF
330
A
100
AcDbEntity
  8
BUHIN-2
  6
HIDDEN
100
AcDbPolyline
 90
       12
 70
     0
 43
0.0
 10
588.0412274777376
 20
352.1814330924734
 10
582.6374274777379
 20
349.2317290924733
 10
581.0215674777376
 20
348.3603210924733
 10
579.4427614777377
 20
347.5323950924734
 10
577.8984374777377
 20
346.7556790924732
 10
576.3860214777377
 20
346.0378990924733
 10
574.9816034777376
 20
345.4119370924733
 10
573.761269477738
 20
344.9106730924733
 10
572.6408554777379
 20
344.4955650924733
 10
571.5361914777376
 20
344.1280730924733
 10
570.4779414777375
 20
343.8106710924734
 10
569.4967614777377
 20
343.5458270924733
  0
ARC
  5
28DF0
330
A
100
AcDbEntity
  8
BUHIN-2
  6
HIDDEN
100
AcDbCircle
 10
616.6061354777379
 20
313.7816750924733
 30
0.0
 40
19.30901
100
AcDbArc
 50
198.6340760000011
 51
242.1501990000022
  0
ARC
  5
28DF1
330
A
100
AcDbEntity
  8
BUHIN-2
  6
HIDDEN
100
AcDbCircle
 10
569.0420974777379
 20
345.4941730924734
 30
0.0
 40
2.001403999999999
100
AcDbArc
 50
265.6768490000026
 51
283.135404000005
  0
LINE
  5
28DF2
330
A
100
AcDbEntity
  8
BUHIN-2
  6
HIDDEN
100
AcDbLine
 10
569.4967614777377
 20
343.5458270924733
 30
0.0
 11
569.4969234777375
 21
343.5451350924732
 31
0.0
  0
LINE
  5
28DF3
330
A
100
AcDbEntity
  8
BUHIN-2
  6
HIDDEN
100
AcDbLine
 10
608.5412274777375
 20
368.7594990924734
 30
0.0
 11
608.5412274777375
 21
368.7846330924734
 31
0.0
  0
LINE
  5
28DF4
330
A
100
AcDbEntity
  8
BUHIN-2
  6
HIDDEN
100
AcDbLine
 10
608.5412274777375
 20
368.7846330924734
 30
0.0
 11
608.5412274777375
 21
368.9401910924733
 31
0.0
  0
LINE
  5
28DF5
330
A
100
AcDbEntity
  8
BUHIN-2
  6
HIDDEN
100
AcDbLine
 10
608.5412274777375
 20
368.5949090924733
 30
0.0
 11
608.5412274777375
 21
368.7594990924734
 31
0.0
  0
LINE
  5
28DF6
330
A
100
AcDbEntity
  8
BUHIN-2
  6
HIDDEN
100
AcDbLine
 10
608.0412274777375
 20
361.8224830924733
 30
0.0
 11
608.0412274777375
 21
365.2365430924734
 31
0.0
  0
LINE
  5
28DF7
330
A
100
AcDbEntity
  8
BUHIN-2
  6
HIDDEN
100
AcDbLine
 10
608.0412274777375
 20
365.2365430924734
 30
0.0
 11
608.0412274777375
 21
368.8894830924733
 31
0.0
  0
LWPOLYLINE
  5
28DF8
330
A
100
AcDbEntity
  8
BUHIN-2
  6
HIDDEN
100
AcDbPolyline
 90
        2
 70
     0
 43
0.0
 10
608.0525974777377
 20
362.3299710924733
 10
608.0412274777375
 20
361.8224850924733
  0
LWPOLYLINE
  5
28DF9
330
A
100
AcDbEntity
  8
BUHIN-2
  6
HIDDEN
100
AcDbPolyline
 90
        3
 70
     0
 43
0.0
 10
608.1996034777379
 20
365.2365430924734
 10
608.1071974777377
 20
363.7112690924733
 10
608.0525814777378
 20
362.3299730924733
  0
LWPOLYLINE
  5
28DFA
330
A
100
AcDbEntity
  8
BUHIN-2
  6
HIDDEN
100
AcDbPolyline
 90
        4
 70
     0
 43
0.0
 10
608.5412274777375
 20
368.5945950924734
 10
608.4692634777378
 20
368.1734270924733
 10
608.314675477738
 20
366.6849690924733
 10
608.1996034777379
 20
365.2365430924734
  0
LWPOLYLINE
  5
28DFB
330
A
100
AcDbEntity
  8
BUHIN-2
  6
HIDDEN
100
AcDbPolyline
 90
        8
 70
     0
 43
0.0
 10
608.5412274777375
 20
368.9410610924734
 10
608.3503414777377
 20
369.8887290924734
 10
608.2640434777375
 20
370.1630670924733
 10
608.2206834777379
 20
370.2279710924734
 10
608.1810394777379
 20
370.2291490924734
 10
608.1455034777376
 20
370.1665690924734
 10
608.088361477738
 20
369.8538570924735
 10
608.0525854777378
 20
369.3049430924735
  0
LWPOLYLINE
  5
28DFC
330
A
100
AcDbEntity
  8
BUHIN-2
  6
HIDDEN
100
AcDbPolyline
 90
        2
 70
     0
 43
0.0
 10
608.0412274777375
 20
368.8894830924733
 10
608.052599477738
 20
369.3049250924733
  0
LINE
  5
28DFD
330
A
100
AcDbEntity
  8
BUHIN-2
  6
HIDDEN
100
AcDbLine
 10
588.0412274777376
 20
324.3221570924735
 30
0.0
 11
588.0412274777376
 21
343.5533530924734
 31
0.0
  0
LINE
  5
28DFE
330
A
100
AcDbEntity
  8
BUHIN-2
  6
HIDDEN
100
AcDbLine
 10
588.0412274777376
 20
343.5533530924734
 30
0.0
 11
588.0412274777376
 21
361.0971490924733
 31
0.0
  0
LINE
  5
28DFF
330
A
100
AcDbEntity
  8
BUHIN-2
  6
HIDDEN
100
AcDbLine
 10
590.0412274777376
 20
363.0827310924733
 30
0.0
 11
597.289529477738
 21
363.0871690924733
 31
0.0
  0
LINE
  5
28E00
330
A
100
AcDbEntity
  8
BUHIN-2
  6
HIDDEN
100
AcDbLine
 10
597.289529477738
 20
363.0871690924733
 30
0.0
 11
606.7088474777378
 21
363.0929370924733
 31
0.0
  0
LINE
  5
28E01
330
A
100
AcDbEntity
  8
BUHIN-2
  6
HIDDEN
100
AcDbLine
 10
590.0412274777376
 20
363.0951350924734
 30
0.0
 11
597.289529477738
 21
363.0871690924733
 31
0.0
  0
LINE
  5
28E02
330
A
100
AcDbEntity
  8
BUHIN-2
  6
HIDDEN
100
AcDbLine
 10
588.0412274777376
 20
300.5905450924734
 30
0.0
 11
588.0412274777376
 21
310.4387810924732
 31
0.0
  0
LINE
  5
28E03
330
A
100
AcDbEntity
  8
BUHIN-2
  6
HIDDEN
100
AcDbLine
 10
588.0412274777376
 20
293.7267510924733
 30
0.0
 11
588.0412274777376
 21
300.5905450924734
 31
0.0
  0
LWPOLYLINE
  5
28E04
330
A
100
AcDbEntity
  8
BUHIN-2
  6
HIDDEN
100
AcDbPolyline
 90
       14
 70
     0
 43
0.0
 10
599.0476754777376
 20
314.5158270924733
 10
598.4727874777376
 20
314.5279230924733
 10
597.9030794777376
 20
314.5895950924733
 10
597.4837814777377
 20
314.6700470924735
 10
596.9406394777378
 20
314.8214070924733
 10
596.4197494777375
 20
315.0195450924733
 10
595.8718334777375
 20
315.2905110924733
 10
595.4672354777379
 20
315.5297130924733
 10
595.0802554777377
 20
315.7934830924733
 10
594.5311254777378
 20
316.2307590924734
 10
594.0177054777376
 20
316.7128430924734
 10
593.5383514777376
 20
317.2348730924733
 10
593.1557234777377
 20
317.7091550924734
 10
592.8160714777376
 20
318.1734870924734
  0
LWPOLYLINE
  5
28E05
330
A
100
AcDbEntity
  8
BUHIN-2
  6
HIDDEN
100
AcDbPolyline
 90
        9
 70
     0
 43
0.0
 10
597.7279274777377
 20
309.3362310924734
 10
597.6102134777378
 20
309.6183650924734
 10
597.4483454777376
 20
309.8802630924734
 10
597.2466574777375
 20
310.1149110924733
 10
597.0105514777377
 20
310.3160270924732
 10
596.7463474777376
 20
310.4782270924734
 10
596.4611194777379
 20
310.5971670924733
 10
596.1625034777378
 20
310.6696650924733
 10
595.8584974777376
 20
310.6937770924734
  0
LINE
  5
28E06
330
A
100
AcDbEntity
  8
BUHIN-2
  6
HIDDEN
100
AcDbLine
 10
588.0409894777379
 20
361.0971490924733
 30
0.0
 11
588.0412274777376
 21
361.0971490924733
 31
0.0
  0
ARC
  5
28E07
330
A
100
AcDbEntity
  8
BUHIN-2
  6
HIDDEN
100
AcDbCircle
 10
590.0413574777379
 20
361.0971350924734
 30
0.0
 40
2.000367999999999
100
AcDbArc
 50
90.00374599999666
 51
179.9995849999973
  0
LINE
  5
28E08
330
A
100
AcDbEntity
  8
BUHIN-2
  6
HIDDEN
100
AcDbLine
 10
590.0412274777376
 20
363.0975030924734
 30
0.0
 11
590.0412274777376
 21
363.0951350924734
 31
0.0
  0
LINE
  5
28E09
330
A
100
AcDbEntity
  8
BUHIN-2
  6
HIDDEN
100
AcDbLine
 10
590.0412274777376
 20
291.7285910924734
 30
0.0
 11
590.0412274777376
 21
291.7266490924733
 31
0.0
  0
ARC
  5
28E0A
330
A
100
AcDbEntity
  8
BUHIN-2
  6
HIDDEN
100
AcDbCircle
 10
590.0402014777377
 20
293.7260910924734
 30
0.0
 40
1.999441999999999
100
AcDbArc
 50
179.9811090000024
 51
270.0294370000003
  0
LINE
  5
28E0B
330
A
100
AcDbEntity
  8
BUHIN-2
  6
HIDDEN
100
AcDbLine
 10
588.0407574777376
 20
293.7267510924733
 30
0.0
 11
588.0412274777376
 21
293.7267510924733
 31
0.0
  0
ARC
  5
28E0C
330
A
100
AcDbEntity
  8
BUHIN-2
  6
HIDDEN
100
AcDbCircle
 10
587.7912294777378
 20
310.4387850924732
 30
0.0
 40
0.25
100
AcDbArc
 50
359.9994390000008
 51
86.28803200000355
  0
LWPOLYLINE
  5
28E0D
330
A
100
AcDbEntity
  8
BUHIN-2
  6
HIDDEN
100
AcDbPolyline
 90
       30
 70
     0
 43
0.0
 10
592.7775574777378
 20
318.3859150924732
 10
592.5739614777379
 20
319.2612770924735
 10
592.4487914777377
 20
319.9612970924732
 10
592.4089134777376
 20
320.3305670924734
 10
592.3909074777379
 20
320.9911770924733
 10
592.4266894777377
 20
321.6517850924734
 10
592.5137754777377
 20
322.3096070924733
 10
592.6496774777377
 20
322.9618590924734
 10
592.832041477738
 20
323.6064270924733
 10
593.0585154777376
 20
324.2411870924735
 10
593.3268794777376
 20
324.8645650924733
 10
593.6349114777375
 20
325.4749810924732
 10
593.9805294777378
 20
326.0712750924734
 10
594.3616494777378
 20
326.6522850924733
 10
594.7763254777377
 20
327.2171390924733
 10
595.2226154777376
 20
327.7649650924733
 10
595.6987274777378
 20
328.2950530924734
 10
596.2028654777376
 20
328.8066910924734
 10
596.7333934777379
 20
329.2991950924734
 10
597.5608674777376
 20
329.9913650924732
 10
598.2378254777375
 20
330.5069970924733
 10
599.0166074777379
 20
331.0353310924734
 10
599.8255494777375
 20
331.5308650924734
 10
600.6618954777376
 20
331.9934570924734
 10
601.5230494777378
 20
332.4230590924734
 10
602.4065654777376
 20
332.8196970924733
 10
603.3101434777376
 20
333.1834710924734
 10
604.2316094777378
 20
333.5145290924734
 10
605.1689214777378
 20
333.8130730924734
 10
606.3611274777375
 20
334.1422810924733
  0
LINE
  5
28E0E
330
A
100
AcDbEntity
  8
BUHIN-2
  6
HIDDEN
100
AcDbLine
 10
588.0059734777376
 20
320.8829110924733
 30
0.0
 11
588.0062694777378
 21
320.8829950924733
 31
0.0
  0
LINE
  5
28E0F
330
A
100
AcDbEntity
  8
BUHIN-2
  6
HIDDEN
100
AcDbLine
 10
587.7862394777379
 20
323.1241070924733
 30
0.0
 11
587.8385434777377
 21
323.4603450924733
 31
0.0
  0
LWPOLYLINE
  5
28E10
330
A
100
AcDbEntity
  8
BUHIN-2
  6
HIDDEN
100
AcDbPolyline
 90
        5
 70
     0
 43
0.0
 10
587.7862394777379
 20
323.1241070924733
 10
587.7547054777377
 20
322.5990210924734
 10
587.7809254777379
 20
322.0489690924733
 10
587.8647934777376
 20
321.4761650924734
 10
588.0059734777376
 20
320.8829110924733
  0
LWPOLYLINE
  5
28E11
330
A
100
AcDbEntity
  8
BUHIN-2
  6
HIDDEN
100
AcDbPolyline
 90
       11
 70
     0
 43
0.0
 10
590.0408374777379
 20
318.0250110924733
 10
589.8585094777375
 20
318.0488530924734
 10
589.6860454777378
 20
318.1132330924734
 10
589.4790334777379
 20
318.2537470924734
 10
589.2438274777377
 20
318.4658490924733
 10
589.0374874777379
 20
318.7084550924733
 10
588.7678314777375
 20
319.1065330924733
 10
588.5342094777378
 20
319.5286230924733
 10
588.3305574777376
 20
319.9674210924734
 10
588.1258474777377
 20
320.5068650924732
 10
588.0064274777376
 20
320.8826250924734
  0
LINE
  5
28E12
330
A
100
AcDbEntity
  8
BUHIN-2
  6
HIDDEN
100
AcDbLine
 10
590.0408374777379
 20
318.0250110924733
 30
0.0
 11
592.0155374777376
 21
318.0230570924733
 31
0.0
  0
LINE
  5
28E13
330
A
100
AcDbEntity
  8
BUHIN-2
  6
HIDDEN
100
AcDbLine
 10
601.9763694777378
 20
310.5978190924735
 30
0.0
 11
602.4404554777378
 21
310.5884310924733
 31
0.0
  0
LINE
  5
28E14
330
A
100
AcDbEntity
  8
BUHIN-2
  6
HIDDEN
100
AcDbLine
 10
605.7355294777379
 20
310.6180910924734
 30
0.0
 11
605.8865194777375
 21
310.6200890924734
 31
0.0
  0
LWPOLYLINE
  5
28E15
330
A
100
AcDbEntity
  8
BUHIN-2
  6
HIDDEN
100
AcDbPolyline
 90
        3
 70
     0
 43
0.0
 10
605.7355294777379
 20
310.6180910924734
 10
603.3359914777378
 20
310.5854430924733
 10
602.4404554777378
 20
310.5884310924733
  0
LINE
  5
28E16
330
A
100
AcDbEntity
  8
BUHIN-2
  6
HIDDEN
100
AcDbLine
 10
600.4594614777378
 20
310.6833950924734
 30
0.0
 11
600.6569614777376
 21
310.6681690924734
 31
0.0
  0
ARC
  5
28E17
330
A
100
AcDbEntity
  8
BUHIN-2
  6
HIDDEN
100
AcDbCircle
 10
602.7060334777378
 20
336.6864710924734
 30
0.0
 40
26.098866
100
AcDbArc
 50
265.4969649999947
 51
268.3976570000028
  0
LINE
  5
28E19
330
A
100
AcDbEntity
  8
BUHIN-2
  6
HIDDEN
100
AcDbLine
 10
608.0412274777375
 20
309.7123250924734
 30
0.0
 11
608.0412274777375
 21
339.0922750924734
 31
0.0
  0
LINE
  5
28E1A
330
A
100
AcDbEntity
  8
BUHIN-2
  6
HIDDEN
100
AcDbLine
 10
608.0412274777375
 20
355.2836370924734
 30
0.0
 11
608.0412274777375
 21
355.3503270924732
 31
0.0
  0
LINE
  5
28E1B
330
A
100
AcDbEntity
  8
BUHIN-2
  6
HIDDEN
100
AcDbLine
 10
608.0412274777375
 20
292.9902090924734
 30
0.0
 11
608.0412274777375
 21
299.4623250924734
 31
0.0
  0
LINE
  5
28E1C
330
A
100
AcDbEntity
  8
BUHIN-2
  6
HIDDEN
100
AcDbLine
 10
608.0412274777375
 20
355.3503270924732
 30
0.0
 11
608.0412274777375
 21
361.8224830924733
 31
0.0
  0
LINE
  5
28E1D
330
A
100
AcDbEntity
  8
BUHIN-2
  6
HIDDEN
100
AcDbLine
 10
608.0412274777375
 20
299.4623250924734
 30
0.0
 11
608.0412274777375
 21
309.7123250924734
 31
0.0
  0
LINE
  5
28E1E
330
A
100
AcDbEntity
  8
BUHIN-2
  6
HIDDEN
100
AcDbLine
 10
618.0412274777376
 20
362.1329850924734
 30
0.0
 11
618.0412274777376
 21
370.3739450924734
 31
0.0
  0
LINE
  5
28E1F
330
A
100
AcDbEntity
  8
BUHIN-2
  6
HIDDEN
100
AcDbLine
 10
618.0412274777376
 20
355.1003270924733
 30
0.0
 11
618.0412274777376
 21
362.1329850924734
 31
0.0
  0
LINE
  5
28E20
330
A
100
AcDbEntity
  8
BUHIN-2
  6
HIDDEN
100
AcDbLine
 10
618.0412274777376
 20
345.1003270924733
 30
0.0
 11
618.0412274777376
 21
355.1003270924733
 31
0.0
  0
LINE
  5
28E21
330
A
100
AcDbEntity
  8
BUHIN-2
  6
HIDDEN
100
AcDbLine
 10
618.0412274777376
 20
309.7123250924734
 30
0.0
 11
618.0412274777376
 21
345.1003270924733
 31
0.0
  0
LINE
  5
28E22
330
A
100
AcDbEntity
  8
BUHIN-2
  6
HIDDEN
100
AcDbLine
 10
618.0412274777376
 20
299.7123250924733
 30
0.0
 11
618.0412274777376
 21
309.7123250924734
 31
0.0
  0
LINE
  5
28E23
330
A
100
AcDbEntity
  8
BUHIN-2
  6
HIDDEN
100
AcDbLine
 10
618.0412274777376
 20
292.6796650924733
 30
0.0
 11
618.0412274777376
 21
299.7123250924733
 31
0.0
  0
LINE
  5
28E24
330
A
100
AcDbEntity
  8
BUHIN-2
  6
HIDDEN
100
AcDbLine
 10
618.0412274777376
 20
284.4375370924734
 30
0.0
 11
618.0412274777376
 21
292.6796650924733
 31
0.0
  0
LINE
  5
28E25
330
A
100
AcDbEntity
  8
BUHIN-2
  6
HIDDEN
100
AcDbLine
 10
608.5412274777375
 20
286.0280490924734
 30
0.0
 11
608.5412274777375
 21
286.0531810924734
 31
0.0
  0
LINE
  5
28E26
330
A
100
AcDbEntity
  8
BUHIN-2
  6
HIDDEN
100
AcDbLine
 10
608.5412274777375
 20
285.8716950924734
 30
0.0
 11
608.5412274777375
 21
286.0280490924734
 31
0.0
  0
LINE
  5
28E27
330
A
100
AcDbEntity
  8
BUHIN-2
  6
HIDDEN
100
AcDbLine
 10
608.5412274777375
 20
286.0531810924734
 30
0.0
 11
608.5412274777375
 21
286.2169010924734
 31
0.0
  0
LINE
  5
28E28
330
A
100
AcDbEntity
  8
BUHIN-2
  6
HIDDEN
100
AcDbLine
 10
618.0412274777376
 20
370.3739450924734
 30
0.0
 11
618.0412274777376
 21
370.3751130924735
 31
0.0
  0
LWPOLYLINE
  5
28E29
330
A
100
AcDbEntity
  8
BUHIN-2
  6
HIDDEN
100
AcDbPolyline
 90
        5
 70
     0
 43
0.0
 10
608.0412274777375
 20
295.9616930924734
 10
608.0096474777377
 20
296.1895530924733
 10
607.9171774777377
 20
296.4017230924733
 10
607.7717454777379
 20
296.5800090924734
 10
607.5858254777375
 20
296.7091210924733
  0
LWPOLYLINE
  5
28E2A
330
A
100
AcDbEntity
  8
BUHIN-2
  6
HIDDEN
100
AcDbPolyline
 90
        3
 70
     0
 43
0.0
 10
607.9640374777376
 20
290.3341250924732
 10
608.0288454777377
 20
289.9543710924734
 10
608.0412274777375
 20
289.6981630924734
  0
LWPOLYLINE
  5
28E2B
330
A
100
AcDbEntity
  8
BUHIN-2
  6
HIDDEN
100
AcDbPolyline
 90
        3
 70
     0
 43
0.0
 10
608.0412274777375
 20
291.9265050924733
 10
608.0263294777377
 20
292.0148630924733
 10
608.0412274777375
 20
292.0533190924733
  0
LINE
  5
28E2C
330
A
100
AcDbEntity
  8
BUHIN-2
  6
HIDDEN
100
AcDbLine
 10
607.1126254777376
 20
291.7047270924734
 30
0.0
 11
607.3409474777376
 21
291.6930390924734
 31
0.0
  0
LINE
  5
28E2D
330
A
100
AcDbEntity
  8
BUHIN-2
  6
HIDDEN
100
AcDbLine
 10
608.0412274777375
 20
291.8335290924734
 30
0.0
 11
608.0432394777379
 21
291.8327290924734
 31
0.0
  0
LWPOLYLINE
  5
28E2E
330
A
100
AcDbEntity
  8
BUHIN-2
  6
HIDDEN
100
AcDbPolyline
 90
        5
 70
     0
 43
0.0
 10
607.3409474777376
 20
291.6930390924734
 10
607.6093374777378
 20
291.6924670924732
 10
607.8231334777377
 20
291.7163090924733
 10
607.9702394777377
 20
291.7632150924733
 10
608.0423314777379
 20
291.8305350924734
  0
LWPOLYLINE
  5
28E2F
330
A
100
AcDbEntity
  8
BUHIN-2
  6
HIDDEN
100
AcDbPolyline
 90
        7
 70
     0
 43
0.0
 10
606.754343477738
 20
291.7136990924733
 10
606.9565934777378
 20
291.6232130924732
 10
607.202173477738
 20
291.4653890924734
 10
607.4429214777377
 20
291.2186950924734
 10
607.6513634777378
 20
290.9422150924734
 10
607.8575074777376
 20
290.5675070924734
 10
607.9640374777376
 20
290.3341250924732
  0
LINE
  5
28E30
330
A
100
AcDbEntity
  8
BUHIN-2
  6
HIDDEN
100
AcDbLine
 10
606.7884894777379
 20
291.7136670924734
 30
0.0
 11
607.1223414777376
 21
291.6939390924734
 31
0.0
  0
LWPOLYLINE
  5
28E31
330
A
100
AcDbEntity
  8
BUHIN-2
  6
HIDDEN
100
AcDbPolyline
 90
        2
 70
     0
 43
0.0
 10
608.0412274777375
 20
285.9231390924734
 10
608.0525974777377
 20
285.5077190924733
  0
LWPOLYLINE
  5
28E32
330
A
100
AcDbEntity
  8
BUHIN-2
  6
HIDDEN
100
AcDbPolyline
 90
        6
 70
     0
 43
0.0
 10
608.5412274777375
 20
286.2180570924735
 10
608.4787494777377
 20
286.5637970924734
 10
608.3423054777376
 20
287.8282190924734
 10
608.1735914777376
 20
289.9605950924734
 10
608.0793874777376
 20
291.7016930924734
 10
608.0525854777378
 20
292.4826850924733
  0
LWPOLYLINE
  5
28E33
330
A
100
AcDbEntity
  8
BUHIN-2
  6
HIDDEN
100
AcDbPolyline
 90
        5
 70
     0
 43
0.0
 10
608.1996034777379
 20
284.5761170924735
 10
608.1734334777378
 20
284.5911010924734
 10
608.1270974777379
 20
284.7106030924734
 10
608.0746174777376
 20
285.1073050924734
 10
608.0525814777378
 20
285.5077170924733
  0
LWPOLYLINE
  5
28E34
330
A
100
AcDbEntity
  8
BUHIN-2
  6
HIDDEN
100
AcDbPolyline
 90
        5
 70
     0
 43
0.0
 10
608.5412274777375
 20
285.8715910924735
 10
608.3702134777375
 20
285.0094890924734
 10
608.2838134777379
 20
284.6971110924733
 10
608.226161477738
 20
284.5895570924734
 10
608.1996034777379
 20
284.5761170924735
  0
LINE
  5
28E35
330
A
100
AcDbEntity
  8
BUHIN-2
  6
HIDDEN
100
AcDbLine
 10
608.2912274777376
 20
284.5176390924733
 30
0.0
 11
608.5412274777375
 21
284.4358950924735
 31
0.0
  0
LINE
  5
28E36
330
A
100
AcDbEntity
  8
BUHIN-2
  6
HIDDEN
100
AcDbLine
 10
608.1996034777379
 20
284.5761170924735
 30
0.0
 11
608.2912274777376
 21
284.5176390924733
 31
0.0
  0
LWPOLYLINE
  5
28E37
330
A
100
AcDbEntity
  8
BUHIN-2
  6
HIDDEN
100
AcDbPolyline
 90
        2
 70
     0
 43
0.0
 10
608.0412274777375
 20
292.9902090924734
 10
608.052599477738
 20
292.4827250924732
  0
LINE
  5
28E38
330
A
100
AcDbEntity
  8
BUHIN-2
  6
HIDDEN
100
AcDbLine
 10
608.2912294777378
 20
370.2950110924733
 30
0.0
 11
608.5412274777375
 21
370.3767550924734
 31
0.0
  0
LINE
  5
28E39
330
A
100
AcDbEntity
  8
BUHIN-2
  6
HIDDEN
100
AcDbLine
 10
608.1997934777376
 20
370.2365410924734
 30
0.0
 11
608.2912294777378
 21
370.2950110924733
 31
0.0
  0
LINE
  5
28E3A
330
A
100
AcDbEntity
  8
BUHIN-2
  6
HIDDEN
100
AcDbLine
 10
606.8833614777376
 20
363.1388250924734
 30
0.0
 11
607.3104554777377
 21
363.4272190924733
 31
0.0
  0
LINE
  5
28E3B
330
A
100
AcDbEntity
  8
BUHIN-2
  6
HIDDEN
100
AcDbLine
 10
606.7298674777378
 20
363.0984650924734
 30
0.0
 11
606.8833614777376
 21
363.1388250924734
 31
0.0
  0
LINE
  5
28E3C
330
A
100
AcDbEntity
  8
BUHIN-2
  6
HIDDEN
100
AcDbLine
 10
608.1996134777376
 20
289.5761170924735
 30
0.0
 11
608.5412274777375
 21
289.5761170924735
 31
0.0
  0
LWPOLYLINE
  5
28E3D
330
A
100
AcDbEntity
  8
BUHIN-2
  6
HIDDEN
100
AcDbPolyline
 90
       16
 70
     0
 43
0.0
 10
607.8662474777378
 20
354.7783210924734
 10
607.6390454777378
 20
354.2953170924735
 10
607.5001554777376
 20
353.9193010924733
 10
607.397617477738
 20
353.4935990924733
 10
607.3269914777378
 20
353.0125430924734
 10
607.3043354777377
 20
352.5341730924734
 10
607.3196314777377
 20
352.0580830924733
 10
607.3974074777378
 20
351.3491330924733
 10
607.5226054777375
 20
350.6465510924734
 10
607.8806334777376
 20
349.0412930924734
 10
607.9781014777376
 20
348.4974310924734
 10
608.0183694777377
 20
348.1039950924733
 10
608.0232894777376
 20
347.7086610924733
 10
607.9921514777378
 20
347.3157990924733
 10
607.9062254777376
 20
346.8015570924734
 10
607.6038914777377
 20
345.5264830924733
  0
LINE
  5
28E3E
330
A
100
AcDbEntity
  8
BUHIN-2
  6
HIDDEN
100
AcDbLine
 10
607.2855154777379
 20
342.0615670924734
 30
0.0
 11
607.3560974777377
 21
341.6576030924733
 31
0.0
  0
LINE
  5
28E3F
330
A
100
AcDbEntity
  8
BUHIN-2
  6
HIDDEN
100
AcDbLine
 10
607.6029134777376
 20
345.5267430924733
 30
0.0
 11
607.6038874777376
 21
345.5264870924735
 31
0.0
  0
LWPOLYLINE
  5
28E40
330
A
100
AcDbEntity
  8
BUHIN-2
  6
HIDDEN
100
AcDbPolyline
 90
        8
 70
     0
 43
0.0
 10
607.6029134777376
 20
345.5267430924733
 10
607.3874774777376
 20
344.5648550924734
 10
607.3136654777376
 20
344.1068910924733
 10
607.2625434777377
 20
343.6647550924734
 10
607.234151477738
 20
343.2388130924733
 10
607.2285174777379
 20
342.8294110924733
 10
607.2456434777376
 20
342.4368870924732
 10
607.2855154777379
 20
342.0615670924734
  0
LWPOLYLINE
  5
28E41
330
A
100
AcDbEntity
  8
BUHIN-2
  6
HIDDEN
100
AcDbPolyline
 90
        3
 70
     0
 43
0.0
 10
607.356115477738
 20
341.6575890924733
 10
607.4943094777376
 20
341.0703490924732
 10
607.9371534777378
 20
339.6513570924733
  0
LINE
  5
28E42
330
A
100
AcDbEntity
  8
BUHIN-2
  6
Continuous
100
AcDbLine
 10
479.0648594777379
 20
322.2084990924732
 30
0.0
 11
479.1800974777378
 21
323.0116510924734
 31
0.0
  0
LINE
  5
28E43
330
A
100
AcDbEntity
  8
BUHIN-2
  6
HIDDEN
100
AcDbLine
 10
597.7279274777377
 20
309.3362310924734
 30
0.0
 11
598.3093334777375
 21
307.6120050924733
 31
0.0
  0
LINE
  5
28E44
330
A
100
AcDbEntity
  8
BUHIN-2
  6
HIDDEN
100
AcDbLine
 10
587.9712954777377
 20
310.6074370924733
 30
0.0
 11
588.0412274777376
 21
310.4328070924733
 31
0.0
  0
LINE
  5
28E45
330
A
100
AcDbEntity
  8
BUHIN-2
  6
HIDDEN
100
AcDbLine
 10
590.0412274777376
 20
291.7285910924734
 30
0.0
 11
606.8090334777378
 21
291.7136490924734
 31
0.0
  0
LINE
  5
28E46
330
A
100
AcDbEntity
  8
BUHIN-2
  6
HIDDEN
100
AcDbLine
 10
608.5412274777375
 20
370.3767550924734
 30
0.0
 11
618.0412274777376
 21
370.3751130924735
 31
0.0
  0
LINE
  5
28E47
330
A
100
AcDbEntity
  8
BUHIN-2
  6
HIDDEN
100
AcDbLine
 10
608.5412274777375
 20
284.4358950924735
 30
0.0
 11
618.0412274777376
 21
284.4375370924734
 31
0.0
  0
LINE
  5
28E48
330
A
100
AcDbEntity
  8
BUHIN-2
  6
HIDDEN
100
AcDbLine
 10
608.5412274777375
 20
370.3767550924734
 30
0.0
 11
618.0412274777376
 21
370.3739450924734
 31
0.0
  0
LINE
  5
28E52
330
A
100
AcDbEntity
  8
BUHIN-2
  6
HIDDEN
100
AcDbLine
 10
544.6757914777379
 20
372.9707350924733
 30
0.0
 11
544.6757914777379
 21
377.9707350924732
 31
0.0
  0
LINE
  5
28E54
330
A
100
AcDbEntity
  8
BUHIN-2
100
AcDbLine
 10
542.0412254777378
 20
242.4063249876578
 30
0.0
 11
542.0412254777378
 21
412.4063251972887
 31
0.0
  0
LWPOLYLINE
  5
28E59
330
A
100
AcDbEntity
  8
BUHIN-2
  6
Continuous
100
AcDbPolyline
 90
        6
 70
     0
 43
0.0
 10
509.6495614777376
 20
299.2066110924735
 10
510.7405654777379
 20
299.3019250924734
 10
511.9271014777377
 20
299.3626690924732
 10
513.0518174777379
 20
299.3808130924734
 10
514.2731794777376
 20
299.3588970924735
 10
515.3408014777377
 20
299.3059510924734
  0
LWPOLYLINE
  5
28E5A
330
A
100
AcDbEntity
  8
BUHIN-2
  6
Continuous
100
AcDbPolyline
 90
        2
 70
     0
 43
0.0
 10
513.9218034777376
 20
299.3694990924733
 10
513.8760374777379
 20
299.3706250924734
  0
LWPOLYLINE
  5
28E5B
330
A
100
AcDbEntity
  8
BUHIN-2
  6
Continuous
100
AcDbPolyline
 90
        2
 70
     0
 43
0.0
 10
515.3408014777377
 20
299.3059510924734
 10
514.9672714777379
 20
299.3279430924734
  0
LWPOLYLINE
  5
28E5C
330
A
100
AcDbEntity
  8
BUHIN-2
  6
Continuous
100
AcDbPolyline
 90
        3
 70
     0
 43
0.0
 10
512.9353614777377
 20
299.3806710924733
 10
511.679125477738
 20
299.3536470924733
 10
510.7615154777375
 20
299.3033790924733
  0
LINE
  5
28E5D
330
A
100
AcDbEntity
  8
BUHIN-2
  6
Continuous
100
AcDbLine
 10
486.3958114777378
 20
298.8007150924732
 30
0.0
 11
509.6495614777376
 21
299.2066110924735
 31
0.0
  0
LINE
  5
28E5E
330
A
100
AcDbEntity
  8
BUHIN-2
  6
Continuous
100
AcDbLine
 10
515.3408014777377
 20
299.3059510924734
 30
0.0
 11
520.5999514777375
 21
299.3977510924734
 31
0.0
  0
LINE
  5
28E5F
330
A
100
AcDbEntity
  8
BUHIN-2
  6
Continuous
100
AcDbLine
 10
480.5743774777377
 20
356.1135490924733
 30
0.0
 11
511.9064614777379
 21
355.5666450924733
 31
0.0
  0
LWPOLYLINE
  5
28E60
330
A
100
AcDbEntity
  8
BUHIN-2
  6
Continuous
100
AcDbPolyline
 90
        3
 70
     0
 43
0.0
 10
521.0406974777377
 20
320.2010830924733
 10
521.0831994777375
 20
318.7187670924732
 10
521.0912254777375
 20
317.7448150924734
  0
LWPOLYLINE
  5
28E61
330
A
100
AcDbEntity
  8
BUHIN-2
  6
Continuous
100
AcDbPolyline
 90
        2
 70
     0
 43
0.0
 10
519.6114814777378
 20
330.9824690924734
 10
519.7483594777375
 20
330.3623870924733
  0
LWPOLYLINE
  5
28E62
330
A
100
AcDbEntity
  8
BUHIN-2
  6
Continuous
100
AcDbPolyline
 90
        2
 70
     0
 43
0.0
 10
520.884195477738
 20
322.7195270924734
 10
520.9259494777378
 20
322.1899270924733
  0
LWPOLYLINE
  5
28E63
330
A
100
AcDbEntity
  8
BUHIN-2
  6
Continuous
100
AcDbPolyline
 90
        2
 70
     0
 43
0.0
 10
520.2372034777376
 20
327.8264790924732
 10
520.4317474777379
 20
326.6105710924733
  0
LWPOLYLINE
  5
28E64
330
A
100
AcDbEntity
  8
BUHIN-2
  6
Continuous
100
AcDbPolyline
 90
        4
 70
     0
 43
0.0
 10
512.3758874777376
 20
355.2129070924733
 10
518.4695114777376
 20
335.2815670924734
 10
518.8921774777376
 20
333.8341830924733
 10
519.1561034777377
 20
332.8544650924733
  0
LWPOLYLINE
  5
28E65
330
A
100
AcDbEntity
  8
BUHIN-2
  6
Continuous
100
AcDbPolyline
 90
        2
 70
     0
 43
0.0
 10
519.2562954777375
 20
332.4642490924733
 10
519.6114834777375
 20
330.9824690924734
  0
LWPOLYLINE
  5
28E66
330
A
100
AcDbEntity
  8
BUHIN-2
  6
Continuous
100
AcDbPolyline
 90
        6
 70
     0
 43
0.0
 10
519.7471694777376
 20
330.3621310924733
 10
520.0780014777377
 20
328.6795350924734
 10
520.3341034777375
 20
327.2184550924734
 10
520.5722874777378
 20
325.5795230924733
 10
520.8019314777378
 20
323.5710130924734
 10
520.8837194777378
 20
322.7194870924732
  0
LINE
  5
28E67
330
A
100
AcDbEntity
  8
BUHIN-2
  6
Continuous
100
AcDbLine
 10
521.0217254777379
 20
320.6171470924733
 30
0.0
 11
521.0321114777379
 21
320.3743970924734
 31
0.0
  0
LINE
  5
28E68
330
A
100
AcDbEntity
  8
BUHIN-2
  6
Continuous
100
AcDbLine
 10
521.0321114777379
 20
320.3743970924734
 30
0.0
 11
521.0395274777377
 21
320.2010350924734
 31
0.0
  0
LINE
  5
28E69
330
A
100
AcDbEntity
  8
BUHIN-2
  6
Continuous
100
AcDbLine
 10
519.1555034777378
 20
332.8543090924735
 30
0.0
 11
519.2257014777377
 21
332.5789790924733
 31
0.0
  0
LINE
  5
28E6A
330
A
100
AcDbEntity
  8
BUHIN-2
  6
Continuous
100
AcDbLine
 10
519.2257014777377
 20
332.5789790924733
 30
0.0
 11
519.2580374777379
 21
332.4521570924733
 31
0.0
  0
LINE
  5
28E6B
330
A
100
AcDbEntity
  8
BUHIN-2
  6
Continuous
100
AcDbLine
 10
519.9688694777377
 20
329.2667970924734
 30
0.0
 11
520.2359574777378
 21
327.8262670924733
 31
0.0
  0
LINE
  5
28E6C
330
A
100
AcDbEntity
  8
BUHIN-2
  6
Continuous
100
AcDbLine
 10
521.0321114777379
 20
320.3743970924734
 30
0.0
 11
521.0397694777379
 21
320.2008870924733
 31
0.0
  0
LINE
  5
28E6D
330
A
100
AcDbEntity
  8
BUHIN-2
  6
Continuous
100
AcDbLine
 10
520.9259274777377
 20
322.1899250924733
 30
0.0
 11
521.0217254777379
 21
320.6171470924733
 31
0.0
  0
LINE
  5
28E6E
330
A
100
AcDbEntity
  8
BUHIN-2
  6
Continuous
100
AcDbLine
 10
519.2257014777377
 20
332.5789790924733
 30
0.0
 11
519.2582694777378
 21
332.4523350924733
 31
0.0
  0
LINE
  5
28E6F
330
A
100
AcDbEntity
  8
BUHIN-2
  6
Continuous
100
AcDbLine
 10
520.4392914777375
 20
326.5587550924734
 30
0.0
 11
520.6162474777378
 21
325.2702090924734
 31
0.0
  0
LINE
  5
28E70
330
A
100
AcDbEntity
  8
BUHIN-2
  6
Continuous
100
AcDbLine
 10
521.0912254777375
 20
299.8976730924733
 30
0.0
 11
521.0912254777375
 21
317.7447930924732
 31
0.0
  0
LINE
  5
28E71
330
A
100
AcDbEntity
  8
BUHIN-2
  6
Continuous
100
AcDbLine
 10
473.5015754777377
 20
283.5316910924733
 30
0.0
 11
479.0648594777379
 21
322.2084990924732
 31
0.0
  0
ARC
  5
28E72
330
A
100
AcDbEntity
  8
BUHIN-2
  6
Continuous
100
AcDbCircle
 10
1287.384423477738
 20
283.7790310924734
 30
0.0
 40
801.1877919999999
100
AcDbArc
 50
180.0295299999998
 51
180.1483040000022
  0
LINE
  5
28E73
330
A
100
AcDbEntity
  8
BUHIN-2
  6
Continuous
100
AcDbLine
 10
486.1993154777377
 20
294.4778810924734
 30
0.0
 11
486.1993154777377
 21
298.6007510924734
 31
0.0
  0
ARC
  5
28E74
330
A
100
AcDbEntity
  8
BUHIN-2
  6
Continuous
100
AcDbCircle
 10
2360.293689477737
 20
284.3490570924733
 30
0.0
 40
1874.09721
100
AcDbArc
 50
179.9722719999988
 51
180.0300520000017
  0
LWPOLYLINE
  5
28E75
330
A
100
AcDbEntity
  8
BUHIN-2
  6
Continuous
100
AcDbPolyline
 90
        2
 70
     0
 43
0.0
 10
486.1993154777377
 20
294.4778810924734
 10
486.196699477738
 20
285.2560250924733
  0
ARC
  5
28E76
330
A
100
AcDbEntity
  8
BUHIN-2
  6
Continuous
100
AcDbCircle
 10
480.5569234777375
 20
355.1137010924734
 30
0.0
 40
1.0
100
AcDbArc
 50
88.99999999999824
 51
178.4106899999976
  0
ARC
  5
28E77
330
A
100
AcDbEntity
  8
BUHIN-2
  6
Continuous
100
AcDbCircle
 10
1479.191181477737
 20
327.4063670924734
 30
0.0
 40
1000.018564
100
AcDbArc
 50
180.0000020000028
 51
180.2501130000017
  0
ARC
  5
28E78
330
A
100
AcDbEntity
  8
BUHIN-2
  6
Continuous
100
AcDbCircle
 10
1479.172617477737
 20
327.4063250924733
 30
0.0
 40
1000.0
100
AcDbArc
 50
178.4106909999994
 51
180.0
  0
LWPOLYLINE
  5
28E79
330
A
100
AcDbEntity
  8
BUHIN-2
  6
Continuous
100
AcDbPolyline
 90
        5
 70
     0
 43
0.0
 10
476.2037274777379
 20
230.9895430924733
 10
475.5833654777378
 20
232.3900630924734
 10
475.2940834777376
 20
233.0991070924734
 10
474.9286634777376
 20
234.0819590924732
 10
474.8976174777379
 20
234.1709930924734
  0
LWPOLYLINE
  5
28E7A
330
A
100
AcDbEntity
  8
BUHIN-2
  6
Continuous
100
AcDbPolyline
 90
        4
 70
     0
 43
0.0
 10
472.4021274777377
 20
245.3913350924734
 10
472.2035674777379
 20
247.1825450924733
 10
472.0463654777375
 20
248.9778410924733
 10
471.9256134777378
 20
250.7760370924732
  0
LWPOLYLINE
  5
28E7B
330
A
100
AcDbEntity
  8
BUHIN-2
  6
Continuous
100
AcDbPolyline
 90
        3
 70
     0
 43
0.0
 10
474.8976154777377
 20
234.1710010924733
 10
474.3855694777379
 20
235.7723490924732
 10
473.9315614777377
 20
237.3913350924734
  0
LWPOLYLINE
  5
28E7C
330
A
100
AcDbEntity
  8
BUHIN-2
  6
Continuous
100
AcDbPolyline
 90
       15
 70
     0
 43
0.0
 10
471.9256134777378
 20
250.7760390924732
 10
471.8087694777376
 20
253.2946470924733
 10
471.7593194777377
 20
254.9747950924732
 10
471.7272574777378
 20
256.8311990924733
 10
471.7172414777377
 20
258.6878470924733
 10
471.7282134777377
 20
260.5444990924732
 10
471.7594154777379
 20
262.4009330924733
 10
471.8807314777376
 20
266.1123050924733
 10
472.0794854777376
 20
269.8203350924733
 10
472.3559234777375
 20
273.5233790924734
 10
472.5387114777375
 20
275.5300750924733
 10
472.7447074777377
 20
277.5345210924734
 10
472.9738714777376
 20
279.5364510924733
 10
473.2261714777377
 20
281.5355970924734
 10
473.5015694777379
 20
283.5316930924733
  0
LWPOLYLINE
  5
28E7D
330
A
100
AcDbEntity
  8
BUHIN-2
  6
Continuous
100
AcDbPolyline
 90
        6
 70
     0
 43
0.0
 10
473.9315614777377
 20
237.3913350924734
 10
473.5033554777377
 20
239.1104010924733
 10
473.3095394777377
 20
239.9747530924734
 10
472.9523234777379
 20
241.7707630924734
 10
472.651139477738
 20
243.5770590924733
 10
472.4021274777377
 20
245.3913350924734
  0
LINE
  5
28E7E
330
A
100
AcDbEntity
  8
BUHIN-2
  6
Continuous
100
AcDbLine
 10
486.1993154777377
 20
254.9747950924732
 30
0.0
 11
486.1993154777377
 21
273.5233790924734
 31
0.0
  0
LINE
  5
28E7F
330
A
100
AcDbEntity
  8
BUHIN-2
  6
Continuous
100
AcDbLine
 10
486.1993154777377
 20
231.0126330924735
 30
0.0
 11
486.1993154777377
 21
239.9747530924734
 31
0.0
  0
LINE
  5
28E80
330
A
100
AcDbEntity
  8
BUHIN-2
  6
Continuous
100
AcDbLine
 10
486.1993154777377
 20
239.9747550924733
 30
0.0
 11
486.1993154777377
 21
254.9747950924732
 31
0.0
  0
LINE
  5
28E81
330
A
100
AcDbEntity
  8
BUHIN-2
  6
Continuous
100
AcDbLine
 10
486.1993154777377
 20
273.5233790924734
 30
0.0
 11
486.1993154777377
 21
281.7052450924732
 31
0.0
  0
LINE
  5
28E82
330
A
100
AcDbEntity
  8
BUHIN-2
  6
Continuous
100
AcDbLine
 10
476.3454214777379
 20
230.6836730924734
 30
0.0
 11
476.3879774777377
 21
230.5899690924733
 31
0.0
  0
ARC
  5
28E83
330
A
100
AcDbEntity
  8
BUHIN-2
  6
Continuous
100
AcDbCircle
 10
527.5701274777378
 20
230.9211370924734
 30
0.0
 40
41.37081199999999
100
AcDbArc
 50
180.0117830000026
 51
180.4272640000004
  0
LINE
  5
28E84
330
A
100
AcDbEntity
  8
BUHIN-2
  6
Continuous
100
AcDbLine
 10
486.1993154777377
 20
230.9126290924733
 30
0.0
 11
486.1993154777377
 21
231.0126290924734
 31
0.0
  0
LWPOLYLINE
  5
28E85
330
A
100
AcDbEntity
  8
BUHIN-2
  6
Continuous
100
AcDbPolyline
 90
        2
 70
     0
 43
0.0
 10
476.2037274777379
 20
230.9895430924733
 10
476.3454214777379
 20
230.6836730924734
  0
LWPOLYLINE
  5
28E86
330
A
100
AcDbEntity
  8
BUHIN-2
  6
Continuous
100
AcDbPolyline
 90
       17
 70
     0
 43
0.0
 10
482.0526274777379
 20
225.0824270924734
 10
481.6604674777376
 20
225.1690870924734
 10
481.2768834777378
 20
225.2869870924733
 10
480.9029414777377
 20
225.4328170924733
 10
480.5395334777375
 20
225.6037070924734
 10
480.187405477738
 20
225.7971930924733
 10
479.8471794777377
 20
226.0111690924733
 10
479.519377477738
 20
226.2438430924734
 10
479.2044494777377
 20
226.4936970924733
 10
478.9027914777379
 20
226.7594470924733
 10
478.6147694777376
 20
227.0399930924733
 10
478.328097477738
 20
227.3486310924732
 10
478.0571014777377
 20
227.6711750924733
 10
477.5621714777379
 20
228.3528310924733
 10
477.1267674777376
 20
229.0743630924733
 10
476.7412594777377
 20
229.8243270924734
 10
476.3879794777375
 20
230.5899690924733
  0
LWPOLYLINE
  5
28E87
330
A
100
AcDbEntity
  8
BUHIN-2
  6
Continuous
100
AcDbPolyline
 90
       16
 70
     0
 43
0.0
 10
486.2004654777377
 20
230.6126310924733
 10
486.2053534777377
 20
229.5269630924734
 10
486.1826434777375
 20
228.8756050924733
 10
486.1005594777378
 20
228.1199610924733
 10
486.0287754777377
 20
227.7469130924733
 10
485.9320114777378
 20
227.3798310924734
 10
485.7714034777376
 20
226.9353310924733
 10
485.5608174777379
 20
226.5127690924733
 10
485.2958974777378
 20
226.1229550924734
 10
484.9755214777377
 20
225.7783150924734
 10
484.6032794777378
 20
225.4908710924734
 10
484.2816974777377
 20
225.3119990924734
 10
483.9395794777377
 20
225.1756850924733
 10
483.5832494777377
 20
225.0814190924733
 10
483.2181894777376
 20
225.0272890924733
 10
482.8490514777375
 20
225.0099850924733
  0
LWPOLYLINE
  5
28E88
330
A
100
AcDbEntity
  8
BUHIN-2
  6
Continuous
100
AcDbPolyline
 90
        3
 70
     0
 43
0.0
 10
482.8490514777375
 20
225.0099850924733
 10
482.3166114777376
 20
225.0430070924734
 10
482.0526274777379
 20
225.0824270924734
  0
ARC
  5
28E89
330
A
100
AcDbEntity
  8
BUHIN-2
  6
Continuous
100
AcDbCircle
 10
520.5912314777378
 20
299.8976690924733
 30
0.0
 40
0.5
100
AcDbArc
 50
270.999418999994
 51
0.0005810000011622
  0
ARC
  5
28E8A
330
A
100
AcDbEntity
  8
BUHIN-2
  6
Continuous
100
AcDbCircle
 10
511.8977394777378
 20
355.0667270924733
 30
0.0
 40
0.5
100
AcDbArc
 50
16.99950600000093
 51
89.00049399999446
  0
LWPOLYLINE
  5
28E8B
330
A
100
AcDbEntity
  8
BUHIN-2
  6
Continuous
100
AcDbPolyline
 90
        5
 70
     0
 43
0.0
 10
486.3958114777378
 20
298.8007170924735
 10
486.3203554777377
 20
298.7845070924732
 10
486.2566554777376
 20
298.7409310924734
 10
486.2141974777377
 20
298.6764790924734
 10
486.1993034777377
 20
298.6007490924734
  0
LWPOLYLINE
  5
28E8C
330
A
100
AcDbEntity
  8
BUHIN-2
  6
Continuous
100
AcDbPolyline
 90
        4
 70
     0
 43
0.0
 10
480.5883454777375
 20
298.9695990924734
 10
481.7815494777376
 20
298.9700830924733
 10
483.5966074777378
 20
298.9119990924733
 10
485.3362974777377
 20
298.8328430924733
  0
LWPOLYLINE
  5
28E8D
330
A
100
AcDbEntity
  8
BUHIN-2
  6
Continuous
100
AcDbPolyline
 90
        5
 70
     0
 43
0.0
 10
479.5565834777379
 20
299.9714590924733
 10
479.3993654777376
 20
306.4513810924732
 10
479.2815934777376
 20
313.0038670924733
 10
479.2076614777378
 20
319.3167690924734
 10
479.2017794777378
 20
320.0127090924735
  0
LWPOLYLINE
  5
28E8E
330
A
100
AcDbEntity
  8
BUHIN-2
  6
Continuous
100
AcDbPolyline
 90
        2
 70
     0
 43
0.0
 10
479.1800974777378
 20
323.0116510924734
 10
479.1821454777376
 20
323.0409970924735
  0
LINE
  5
28E8F
330
A
100
AcDbEntity
  8
BUHIN-2
  6
Continuous
100
AcDbLine
 10
480.5745214777378
 20
298.9693910924735
 30
0.0
 11
480.5889374777378
 21
298.9696430924733
 31
0.0
  0
LINE
  5
28E90
330
A
100
AcDbEntity
  8
BUHIN-2
  6
Continuous
100
AcDbLine
 10
479.5565834777379
 20
299.9714590924733
 30
0.0
 11
479.5690094777377
 21
299.8149110924733
 31
0.0
  0
ARC
  5
28E91
330
A
100
AcDbEntity
  8
BUHIN-2
  6
Continuous
100
AcDbCircle
 10
480.5565934777376
 20
299.9688050924734
 30
0.0
 40
0.999502
100
AcDbArc
 50
188.8571069999965
 51
271.0277230000027
  0
LWPOLYLINE
  5
28E92
330
A
100
AcDbEntity
  8
BUHIN-2
  6
HIDDEN
100
AcDbPolyline
 90
       12
 70
     0
 43
0.0
 10
588.0412274777376
 20
352.1814330924734
 10
582.6374274777379
 20
349.2317290924733
 10
581.0215674777376
 20
348.3603210924733
 10
579.4427614777377
 20
347.5323950924734
 10
577.8984374777377
 20
346.7556790924732
 10
576.3860214777377
 20
346.0378990924733
 10
574.9816034777376
 20
345.4119370924733
 10
573.761269477738
 20
344.9106730924733
 10
572.6408554777379
 20
344.4955650924733
 10
571.5361914777376
 20
344.1280730924733
 10
570.4779414777375
 20
343.8106710924734
 10
569.4967614777377
 20
343.5458270924733
  0
ARC
  5
28E93
330
A
100
AcDbEntity
  8
BUHIN-2
  6
HIDDEN
100
AcDbCircle
 10
616.6061354777379
 20
313.7816750924733
 30
0.0
 40
19.30901
100
AcDbArc
 50
198.6340760000011
 51
242.1501990000022
  0
LINE
  5
28E94
330
A
100
AcDbEntity
  8
BUHIN-2
  6
HIDDEN
100
AcDbLine
 10
569.4967614777377
 20
343.5458270924733
 30
0.0
 11
569.4969234777375
 21
343.5451350924732
 31
0.0
  0
LINE
  5
28E95
330
A
100
AcDbEntity
  8
BUHIN-2
  6
HIDDEN
100
AcDbLine
 10
608.5412274777375
 20
368.7594990924734
 30
0.0
 11
608.5412274777375
 21
368.7846330924734
 31
0.0
  0
LINE
  5
28E96
330
A
100
AcDbEntity
  8
BUHIN-2
  6
HIDDEN
100
AcDbLine
 10
608.5412274777375
 20
368.7846330924734
 30
0.0
 11
608.5412274777375
 21
368.9401910924733
 31
0.0
  0
LINE
  5
28E97
330
A
100
AcDbEntity
  8
BUHIN-2
  6
HIDDEN
100
AcDbLine
 10
608.5412274777375
 20
368.5949090924733
 30
0.0
 11
608.5412274777375
 21
368.7594990924734
 31
0.0
  0
LINE
  5
28E98
330
A
100
AcDbEntity
  8
BUHIN-2
  6
HIDDEN
100
AcDbLine
 10
608.0412274777375
 20
361.8224830924733
 30
0.0
 11
608.0412274777375
 21
365.2365430924734
 31
0.0
  0
LINE
  5
28E99
330
A
100
AcDbEntity
  8
BUHIN-2
  6
HIDDEN
100
AcDbLine
 10
608.0412274777375
 20
365.2365430924734
 30
0.0
 11
608.0412274777375
 21
368.8894830924733
 31
0.0
  0
LWPOLYLINE
  5
28E9A
330
A
100
AcDbEntity
  8
BUHIN-2
  6
HIDDEN
100
AcDbPolyline
 90
        2
 70
     0
 43
0.0
 10
608.0525974777377
 20
362.3299710924733
 10
608.0412274777375
 20
361.8224850924733
  0
LWPOLYLINE
  5
28E9B
330
A
100
AcDbEntity
  8
BUHIN-2
  6
HIDDEN
100
AcDbPolyline
 90
        3
 70
     0
 43
0.0
 10
608.1996034777379
 20
365.2365430924734
 10
608.1071974777377
 20
363.7112690924733
 10
608.0525814777378
 20
362.3299730924733
  0
LWPOLYLINE
  5
28E9C
330
A
100
AcDbEntity
  8
BUHIN-2
  6
HIDDEN
100
AcDbPolyline
 90
        4
 70
     0
 43
0.0
 10
608.5412274777375
 20
368.5945950924734
 10
608.4692634777378
 20
368.1734270924733
 10
608.314675477738
 20
366.6849690924733
 10
608.1996034777379
 20
365.2365430924734
  0
LWPOLYLINE
  5
28E9D
330
A
100
AcDbEntity
  8
BUHIN-2
  6
HIDDEN
100
AcDbPolyline
 90
        8
 70
     0
 43
0.0
 10
608.5412274777375
 20
368.9410610924734
 10
608.3503414777377
 20
369.8887290924734
 10
608.2640434777375
 20
370.1630670924733
 10
608.2206834777379
 20
370.2279710924734
 10
608.1810394777379
 20
370.2291490924734
 10
608.1455034777376
 20
370.1665690924734
 10
608.088361477738
 20
369.8538570924735
 10
608.0525854777378
 20
369.3049430924735
  0
LWPOLYLINE
  5
28E9E
330
A
100
AcDbEntity
  8
BUHIN-2
  6
HIDDEN
100
AcDbPolyline
 90
        2
 70
     0
 43
0.0
 10
608.0412274777375
 20
368.8894830924733
 10
608.052599477738
 20
369.3049250924733
  0
LINE
  5
28E9F
330
A
100
AcDbEntity
  8
BUHIN-2
  6
HIDDEN
100
AcDbLine
 10
588.0412274777376
 20
324.3221570924735
 30
0.0
 11
588.0412274777376
 21
343.5533530924734
 31
0.0
  0
LINE
  5
28EA0
330
A
100
AcDbEntity
  8
BUHIN-2
  6
HIDDEN
100
AcDbLine
 10
588.0412274777376
 20
343.5533530924734
 30
0.0
 11
588.0412274777376
 21
361.0971490924733
 31
0.0
  0
LINE
  5
28EA1
330
A
100
AcDbEntity
  8
BUHIN-2
  6
HIDDEN
100
AcDbLine
 10
590.0412274777376
 20
363.0827310924733
 30
0.0
 11
597.289529477738
 21
363.0871690924733
 31
0.0
  0
LINE
  5
28EA2
330
A
100
AcDbEntity
  8
BUHIN-2
  6
HIDDEN
100
AcDbLine
 10
597.289529477738
 20
363.0871690924733
 30
0.0
 11
606.6369294777376
 21
363.0928930924734
 31
0.0
  0
LINE
  5
28EA3
330
A
100
AcDbEntity
  8
BUHIN-2
  6
HIDDEN
100
AcDbLine
 10
590.0412274777376
 20
363.0951350924734
 30
0.0
 11
597.289529477738
 21
363.0871690924733
 31
0.0
  0
LINE
  5
28EA4
330
A
100
AcDbEntity
  8
BUHIN-2
  6
HIDDEN
100
AcDbLine
 10
588.0412274777376
 20
300.5905450924734
 30
0.0
 11
588.0412274777376
 21
310.4387810924732
 31
0.0
  0
LINE
  5
28EA5
330
A
100
AcDbEntity
  8
BUHIN-2
  6
HIDDEN
100
AcDbLine
 10
588.0412274777376
 20
293.7267510924733
 30
0.0
 11
588.0412274777376
 21
300.5905450924734
 31
0.0
  0
LWPOLYLINE
  5
28EA6
330
A
100
AcDbEntity
  8
BUHIN-2
  6
HIDDEN
100
AcDbPolyline
 90
       14
 70
     0
 43
0.0
 10
599.0476754777376
 20
314.5158270924733
 10
598.4727874777376
 20
314.5279230924733
 10
597.9030794777376
 20
314.5895950924733
 10
597.4837814777377
 20
314.6700470924735
 10
596.9406394777378
 20
314.8214070924733
 10
596.4197494777375
 20
315.0195450924733
 10
595.8718334777375
 20
315.2905110924733
 10
595.4672354777379
 20
315.5297130924733
 10
595.0802554777377
 20
315.7934830924733
 10
594.5311254777378
 20
316.2307590924734
 10
594.0177054777376
 20
316.7128430924734
 10
593.5383514777376
 20
317.2348730924733
 10
593.1557234777377
 20
317.7091550924734
 10
592.8160714777376
 20
318.1734870924734
  0
LWPOLYLINE
  5
28EA7
330
A
100
AcDbEntity
  8
BUHIN-2
  6
HIDDEN
100
AcDbPolyline
 90
        9
 70
     0
 43
0.0
 10
597.7279274777377
 20
309.3362310924734
 10
597.6102134777378
 20
309.6183650924734
 10
597.4483454777376
 20
309.8802630924734
 10
597.2466574777375
 20
310.1149110924733
 10
597.0105514777377
 20
310.3160270924732
 10
596.7463474777376
 20
310.4782270924734
 10
596.4611194777379
 20
310.5971670924733
 10
596.1625034777378
 20
310.6696650924733
 10
595.8584974777376
 20
310.6937770924734
  0
LINE
  5
28EA8
330
A
100
AcDbEntity
  8
BUHIN-2
  6
HIDDEN
100
AcDbLine
 10
588.0409894777379
 20
361.0971490924733
 30
0.0
 11
588.0412274777376
 21
361.0971490924733
 31
0.0
  0
ARC
  5
28EA9
330
A
100
AcDbEntity
  8
BUHIN-2
  6
HIDDEN
100
AcDbCircle
 10
590.0413574777379
 20
361.0971350924734
 30
0.0
 40
2.000367999999999
100
AcDbArc
 50
90.00374599999666
 51
179.9995849999973
  0
LINE
  5
28EAA
330
A
100
AcDbEntity
  8
BUHIN-2
  6
HIDDEN
100
AcDbLine
 10
590.0412274777376
 20
363.0975030924734
 30
0.0
 11
590.0412274777376
 21
363.0951350924734
 31
0.0
  0
LINE
  5
28EAB
330
A
100
AcDbEntity
  8
BUHIN-2
  6
HIDDEN
100
AcDbLine
 10
590.0412274777376
 20
291.7285910924734
 30
0.0
 11
590.0412274777376
 21
291.7266490924733
 31
0.0
  0
ARC
  5
28EAC
330
A
100
AcDbEntity
  8
BUHIN-2
  6
HIDDEN
100
AcDbCircle
 10
590.0402014777377
 20
293.7260910924734
 30
0.0
 40
1.999441999999999
100
AcDbArc
 50
179.9811090000024
 51
270.0294370000003
  0
LINE
  5
28EAD
330
A
100
AcDbEntity
  8
BUHIN-2
  6
HIDDEN
100
AcDbLine
 10
588.0407574777376
 20
293.7267510924733
 30
0.0
 11
588.0412274777376
 21
293.7267510924733
 31
0.0
  0
ARC
  5
28EAE
330
A
100
AcDbEntity
  8
BUHIN-2
  6
HIDDEN
100
AcDbCircle
 10
587.7912294777378
 20
310.4387850924732
 30
0.0
 40
0.25
100
AcDbArc
 50
359.9994390000008
 51
86.28803200000355
  0
LWPOLYLINE
  5
28EAF
330
A
100
AcDbEntity
  8
BUHIN-2
  6
HIDDEN
100
AcDbPolyline
 90
       30
 70
     0
 43
0.0
 10
592.7775574777378
 20
318.3859150924732
 10
592.5739614777379
 20
319.2612770924735
 10
592.4487914777377
 20
319.9612970924732
 10
592.4089134777376
 20
320.3305670924734
 10
592.3909074777379
 20
320.9911770924733
 10
592.4266894777377
 20
321.6517850924734
 10
592.5137754777377
 20
322.3096070924733
 10
592.6496774777377
 20
322.9618590924734
 10
592.832041477738
 20
323.6064270924733
 10
593.0585154777376
 20
324.2411870924735
 10
593.3268794777376
 20
324.8645650924733
 10
593.6349114777375
 20
325.4749810924732
 10
593.9805294777378
 20
326.0712750924734
 10
594.3616494777378
 20
326.6522850924733
 10
594.7763254777377
 20
327.2171390924733
 10
595.2226154777376
 20
327.7649650924733
 10
595.6987274777378
 20
328.2950530924734
 10
596.2028654777376
 20
328.8066910924734
 10
596.7333934777379
 20
329.2991950924734
 10
597.5608674777376
 20
329.9913650924732
 10
598.2378254777375
 20
330.5069970924733
 10
599.0166074777379
 20
331.0353310924734
 10
599.8255494777375
 20
331.5308650924734
 10
600.6618954777376
 20
331.9934570924734
 10
601.5230494777378
 20
332.4230590924734
 10
602.4065654777376
 20
332.8196970924733
 10
603.3101434777376
 20
333.1834710924734
 10
604.2316094777378
 20
333.5145290924734
 10
605.1689214777378
 20
333.8130730924734
 10
606.3611274777375
 20
334.1422810924733
  0
LINE
  5
28EB0
330
A
100
AcDbEntity
  8
BUHIN-2
  6
HIDDEN
100
AcDbLine
 10
599.0476754777376
 20
314.5158250924733
 30
0.0
 11
605.4248814777378
 21
314.5116810924733
 31
0.0
  0
LINE
  5
28EB1
330
A
100
AcDbEntity
  8
BUHIN-2
  6
HIDDEN
100
AcDbLine
 10
588.0059734777376
 20
320.8829110924733
 30
0.0
 11
588.0062694777378
 21
320.8829950924733
 31
0.0
  0
LINE
  5
28EB2
330
A
100
AcDbEntity
  8
BUHIN-2
  6
HIDDEN
100
AcDbLine
 10
587.7862394777379
 20
323.1241070924733
 30
0.0
 11
587.8385434777377
 21
323.4603450924733
 31
0.0
  0
LWPOLYLINE
  5
28EB3
330
A
100
AcDbEntity
  8
BUHIN-2
  6
HIDDEN
100
AcDbPolyline
 90
        5
 70
     0
 43
0.0
 10
587.7862394777379
 20
323.1241070924733
 10
587.7547054777377
 20
322.5990210924734
 10
587.7809254777379
 20
322.0489690924733
 10
587.8647934777376
 20
321.4761650924734
 10
588.0059734777376
 20
320.8829110924733
  0
LWPOLYLINE
  5
28EB4
330
A
100
AcDbEntity
  8
BUHIN-2
  6
HIDDEN
100
AcDbPolyline
 90
       11
 70
     0
 43
0.0
 10
590.0408374777379
 20
318.0250110924733
 10
589.8585094777375
 20
318.0488530924734
 10
589.6860454777378
 20
318.1132330924734
 10
589.4790334777379
 20
318.2537470924734
 10
589.2438274777377
 20
318.4658490924733
 10
589.0374874777379
 20
318.7084550924733
 10
588.7678314777375
 20
319.1065330924733
 10
588.5342094777378
 20
319.5286230924733
 10
588.3305574777376
 20
319.9674210924734
 10
588.1258474777377
 20
320.5068650924732
 10
588.0064274777376
 20
320.8826250924734
  0
LINE
  5
28EB5
330
A
100
AcDbEntity
  8
BUHIN-2
  6
HIDDEN
100
AcDbLine
 10
590.0408374777379
 20
318.0250110924733
 30
0.0
 11
592.0155374777376
 21
318.0230570924733
 31
0.0
  0
LINE
  5
28EB6
330
A
100
AcDbEntity
  8
BUHIN-2
  6
HIDDEN
100
AcDbLine
 10
601.9763694777378
 20
310.5978190924735
 30
0.0
 11
602.4404554777378
 21
310.5884310924733
 31
0.0
  0
LINE
  5
28EB7
330
A
100
AcDbEntity
  8
BUHIN-2
  6
HIDDEN
100
AcDbLine
 10
605.7355294777379
 20
310.6180910924734
 30
0.0
 11
605.8865194777375
 21
310.6200890924734
 31
0.0
  0
LWPOLYLINE
  5
28EB8
330
A
100
AcDbEntity
  8
BUHIN-2
  6
HIDDEN
100
AcDbPolyline
 90
        3
 70
     0
 43
0.0
 10
605.7355294777379
 20
310.6180910924734
 10
603.3359914777378
 20
310.5854430924733
 10
602.4404554777378
 20
310.5884310924733
  0
LINE
  5
28EB9
330
A
100
AcDbEntity
  8
BUHIN-2
  6
HIDDEN
100
AcDbLine
 10
600.4594614777378
 20
310.6833950924734
 30
0.0
 11
600.6569614777376
 21
310.6681690924734
 31
0.0
  0
ARC
  5
28EBA
330
A
100
AcDbEntity
  8
BUHIN-2
  6
HIDDEN
100
AcDbCircle
 10
602.7060334777378
 20
336.6864710924734
 30
0.0
 40
26.098866
100
AcDbArc
 50
265.4969649999947
 51
268.3976570000028
  0
LINE
  5
28EBB
330
A
100
AcDbEntity
  8
BUHIN-2
  6
HIDDEN
100
AcDbLine
 10
608.0412274777375
 20
309.7123250924734
 30
0.0
 11
608.0412274777375
 21
339.0922750924734
 31
0.0
  0
LINE
  5
28EBC
330
A
100
AcDbEntity
  8
BUHIN-2
  6
HIDDEN
100
AcDbLine
 10
608.0412274777375
 20
355.2836370924734
 30
0.0
 11
608.0412274777375
 21
355.3503270924732
 31
0.0
  0
LINE
  5
28EBD
330
A
100
AcDbEntity
  8
BUHIN-2
  6
HIDDEN
100
AcDbLine
 10
608.0412274777375
 20
292.9902090924734
 30
0.0
 11
608.0412274777375
 21
299.4623250924734
 31
0.0
  0
LINE
  5
28EBE
330
A
100
AcDbEntity
  8
BUHIN-2
  6
HIDDEN
100
AcDbLine
 10
608.0412274777375
 20
355.3503270924732
 30
0.0
 11
608.0412274777375
 21
361.8224830924733
 31
0.0
  0
LINE
  5
28EBF
330
A
100
AcDbEntity
  8
BUHIN-2
  6
HIDDEN
100
AcDbLine
 10
608.0412274777375
 20
285.9231430924733
 30
0.0
 11
608.0412274777375
 21
292.9902090924734
 31
0.0
  0
LINE
  5
28EC0
330
A
100
AcDbEntity
  8
BUHIN-2
  6
HIDDEN
100
AcDbLine
 10
608.0412274777375
 20
299.4623250924734
 30
0.0
 11
608.0412274777375
 21
309.7123250924734
 31
0.0
  0
LINE
  5
28EC1
330
A
100
AcDbEntity
  8
BUHIN-2
  6
HIDDEN
100
AcDbLine
 10
618.0412274777376
 20
362.1329850924734
 30
0.0
 11
618.0412274777376
 21
370.3739450924734
 31
0.0
  0
LINE
  5
28EC2
330
A
100
AcDbEntity
  8
BUHIN-2
  6
HIDDEN
100
AcDbLine
 10
618.0412274777376
 20
355.1003270924733
 30
0.0
 11
618.0412274777376
 21
362.1329850924734
 31
0.0
  0
LINE
  5
28EC3
330
A
100
AcDbEntity
  8
BUHIN-2
  6
HIDDEN
100
AcDbLine
 10
618.0412274777376
 20
345.1003270924733
 30
0.0
 11
618.0412274777376
 21
355.1003270924733
 31
0.0
  0
LINE
  5
28EC4
330
A
100
AcDbEntity
  8
BUHIN-2
  6
HIDDEN
100
AcDbLine
 10
618.0412274777376
 20
309.7123250924734
 30
0.0
 11
618.0412274777376
 21
345.1003270924733
 31
0.0
  0
LINE
  5
28EC5
330
A
100
AcDbEntity
  8
BUHIN-2
  6
HIDDEN
100
AcDbLine
 10
618.0412274777376
 20
299.7123250924733
 30
0.0
 11
618.0412274777376
 21
309.7123250924734
 31
0.0
  0
LINE
  5
28EC6
330
A
100
AcDbEntity
  8
BUHIN-2
  6
HIDDEN
100
AcDbLine
 10
618.0412274777376
 20
292.6796650924733
 30
0.0
 11
618.0412274777376
 21
299.7123250924733
 31
0.0
  0
LINE
  5
28EC7
330
A
100
AcDbEntity
  8
BUHIN-2
  6
HIDDEN
100
AcDbLine
 10
618.0412274777376
 20
284.4375370924734
 30
0.0
 11
618.0412274777376
 21
292.6796650924733
 31
0.0
  0
LINE
  5
28EC8
330
A
100
AcDbEntity
  8
BUHIN-2
  6
HIDDEN
100
AcDbLine
 10
608.5412274777375
 20
286.0280490924734
 30
0.0
 11
608.5412274777375
 21
286.0531810924734
 31
0.0
  0
LINE
  5
28EC9
330
A
100
AcDbEntity
  8
BUHIN-2
  6
HIDDEN
100
AcDbLine
 10
608.5412274777375
 20
285.8716950924734
 30
0.0
 11
608.5412274777375
 21
286.0280490924734
 31
0.0
  0
LINE
  5
28ECA
330
A
100
AcDbEntity
  8
BUHIN-2
  6
HIDDEN
100
AcDbLine
 10
608.5412274777375
 20
286.0531810924734
 30
0.0
 11
608.5412274777375
 21
286.2169010924734
 31
0.0
  0
LINE
  5
28ECB
330
A
100
AcDbEntity
  8
BUHIN-2
  6
HIDDEN
100
AcDbLine
 10
618.0412274777376
 20
370.3739450924734
 30
0.0
 11
618.0412274777376
 21
370.3751130924735
 31
0.0
  0
LWPOLYLINE
  5
28ECC
330
A
100
AcDbEntity
  8
BUHIN-2
  6
HIDDEN
100
AcDbPolyline
 90
        5
 70
     0
 43
0.0
 10
608.0412274777375
 20
295.9616930924734
 10
608.0096474777377
 20
296.1895530924733
 10
607.9171774777377
 20
296.4017230924733
 10
607.7717454777379
 20
296.5800090924734
 10
607.5858254777375
 20
296.7091210924733
  0
LWPOLYLINE
  5
28ECD
330
A
100
AcDbEntity
  8
BUHIN-2
  6
HIDDEN
100
AcDbPolyline
 90
        3
 70
     0
 43
0.0
 10
608.0412274777375
 20
291.9265050924733
 10
608.0263294777377
 20
292.0148630924733
 10
608.0412274777375
 20
292.0533190924733
  0
LINE
  5
28ECE
330
A
100
AcDbEntity
  8
BUHIN-2
  6
HIDDEN
100
AcDbLine
 10
607.1126254777376
 20
291.7047270924734
 30
0.0
 11
607.3409474777376
 21
291.6930390924734
 31
0.0
  0
LINE
  5
28ECF
330
A
100
AcDbEntity
  8
BUHIN-2
  6
HIDDEN
100
AcDbLine
 10
608.0412274777375
 20
291.8335290924734
 30
0.0
 11
608.0432394777379
 21
291.8327290924734
 31
0.0
  0
LWPOLYLINE
  5
28ED0
330
A
100
AcDbEntity
  8
BUHIN-2
  6
HIDDEN
100
AcDbPolyline
 90
        5
 70
     0
 43
0.0
 10
607.3409474777376
 20
291.6930390924734
 10
607.6093374777378
 20
291.6924670924732
 10
607.8231334777377
 20
291.7163090924733
 10
607.9702394777377
 20
291.7632150924733
 10
608.0423314777379
 20
291.8305350924734
  0
LINE
  5
28ED1
330
A
100
AcDbEntity
  8
BUHIN-2
  6
HIDDEN
100
AcDbLine
 10
606.7884894777379
 20
291.7136670924734
 30
0.0
 11
607.1223414777376
 21
291.6939390924734
 31
0.0
  0
LWPOLYLINE
  5
28ED2
330
A
100
AcDbEntity
  8
BUHIN-2
  6
HIDDEN
100
AcDbPolyline
 90
        2
 70
     0
 43
0.0
 10
608.0412274777375
 20
285.9231390924734
 10
608.0525974777377
 20
285.5077190924733
  0
LWPOLYLINE
  5
28ED3
330
A
100
AcDbEntity
  8
BUHIN-2
  6
HIDDEN
100
AcDbPolyline
 90
        6
 70
     0
 43
0.0
 10
608.5412274777375
 20
286.2180570924735
 10
608.4787494777377
 20
286.5637970924734
 10
608.3423054777376
 20
287.8282190924734
 10
608.1735914777376
 20
289.9605950924734
 10
608.0793874777376
 20
291.7016930924734
 10
608.0525854777378
 20
292.4826850924733
  0
LWPOLYLINE
  5
28ED4
330
A
100
AcDbEntity
  8
BUHIN-2
  6
HIDDEN
100
AcDbPolyline
 90
        5
 70
     0
 43
0.0
 10
608.1996034777379
 20
284.5761170924735
 10
608.1734334777378
 20
284.5911010924734
 10
608.1270974777379
 20
284.7106030924734
 10
608.0746174777376
 20
285.1073050924734
 10
608.0525814777378
 20
285.5077170924733
  0
LWPOLYLINE
  5
28ED5
330
A
100
AcDbEntity
  8
BUHIN-2
  6
HIDDEN
100
AcDbPolyline
 90
        5
 70
     0
 43
0.0
 10
608.5412274777375
 20
285.8715910924735
 10
608.3702134777375
 20
285.0094890924734
 10
608.2838134777379
 20
284.6971110924733
 10
608.226161477738
 20
284.5895570924734
 10
608.1996034777379
 20
284.5761170924735
  0
LINE
  5
28ED6
330
A
100
AcDbEntity
  8
BUHIN-2
  6
HIDDEN
100
AcDbLine
 10
608.2912274777376
 20
284.5176390924733
 30
0.0
 11
608.5412274777375
 21
284.4358950924735
 31
0.0
  0
LINE
  5
28ED7
330
A
100
AcDbEntity
  8
BUHIN-2
  6
HIDDEN
100
AcDbLine
 10
608.1996034777379
 20
284.5761170924735
 30
0.0
 11
608.2912274777376
 21
284.5176390924733
 31
0.0
  0
LWPOLYLINE
  5
28ED8
330
A
100
AcDbEntity
  8
BUHIN-2
  6
HIDDEN
100
AcDbPolyline
 90
        2
 70
     0
 43
0.0
 10
608.0412274777375
 20
292.9902090924734
 10
608.052599477738
 20
292.4827250924732
  0
LINE
  5
28ED9
330
A
100
AcDbEntity
  8
BUHIN-2
  6
HIDDEN
100
AcDbLine
 10
608.2912294777378
 20
370.2950110924733
 30
0.0
 11
608.5412274777375
 21
370.3767550924734
 31
0.0
  0
LINE
  5
28EDA
330
A
100
AcDbEntity
  8
BUHIN-2
  6
HIDDEN
100
AcDbLine
 10
608.1997934777376
 20
370.2365410924734
 30
0.0
 11
608.2912294777378
 21
370.2950110924733
 31
0.0
  0
LWPOLYLINE
  5
28EDB
330
A
100
AcDbEntity
  8
BUHIN-2
  6
HIDDEN
100
AcDbPolyline
 90
        5
 70
     0
 43
0.0
 10
607.7915214777375
 20
363.9880490924734
 10
607.8999054777376
 20
364.2590750924733
 10
607.9781514777376
 20
364.5391170924734
 10
608.0254334777377
 20
364.8252250924735
 10
608.041255477738
 20
365.1143830924732
  0
LINE
  5
28EDC
330
A
100
AcDbEntity
  8
BUHIN-2
  6
HIDDEN
100
AcDbLine
 10
606.8833614777376
 20
363.1388250924734
 30
0.0
 11
607.3104554777377
 21
363.4272190924733
 31
0.0
  0
LINE
  5
28EDD
330
A
100
AcDbEntity
  8
BUHIN-2
  6
HIDDEN
100
AcDbLine
 10
606.7298674777378
 20
363.0984650924734
 30
0.0
 11
606.8833614777376
 21
363.1388250924734
 31
0.0
  0
LINE
  5
28EDE
330
A
100
AcDbEntity
  8
BUHIN-2
  6
HIDDEN
100
AcDbLine
 10
607.3104554777377
 20
363.4272190924733
 30
0.0
 11
607.6956634777379
 21
363.8762970924734
 31
0.0
  0
LINE
  5
28EDF
330
A
100
AcDbEntity
  8
BUHIN-2
  6
HIDDEN
100
AcDbLine
 10
608.1996134777376
 20
289.5761170924735
 30
0.0
 11
608.5412274777375
 21
289.5761170924735
 31
0.0
  0
LWPOLYLINE
  5
28EE0
330
A
100
AcDbEntity
  8
BUHIN-2
  6
HIDDEN
100
AcDbPolyline
 90
       16
 70
     0
 43
0.0
 10
607.8662474777378
 20
354.7783210924734
 10
607.6390454777378
 20
354.2953170924735
 10
607.5001554777376
 20
353.9193010924733
 10
607.397617477738
 20
353.4935990924733
 10
607.3269914777378
 20
353.0125430924734
 10
607.3043354777377
 20
352.5341730924734
 10
607.3196314777377
 20
352.0580830924733
 10
607.3974074777378
 20
351.3491330924733
 10
607.5226054777375
 20
350.6465510924734
 10
607.8806334777376
 20
349.0412930924734
 10
607.9781014777376
 20
348.4974310924734
 10
608.0183694777377
 20
348.1039950924733
 10
608.0232894777376
 20
347.7086610924733
 10
607.9921514777378
 20
347.3157990924733
 10
607.9062254777376
 20
346.8015570924734
 10
607.6038914777377
 20
345.5264830924733
  0
LINE
  5
28EE1
330
A
100
AcDbEntity
  8
BUHIN-2
  6
HIDDEN
100
AcDbLine
 10
607.2855154777379
 20
342.0615670924734
 30
0.0
 11
607.3560974777377
 21
341.6576030924733
 31
0.0
  0
LINE
  5
28EE2
330
A
100
AcDbEntity
  8
BUHIN-2
  6
HIDDEN
100
AcDbLine
 10
607.6029134777376
 20
345.5267430924733
 30
0.0
 11
607.6038874777376
 21
345.5264870924735
 31
0.0
  0
LWPOLYLINE
  5
28EE3
330
A
100
AcDbEntity
  8
BUHIN-2
  6
HIDDEN
100
AcDbPolyline
 90
        8
 70
     0
 43
0.0
 10
607.6029134777376
 20
345.5267430924733
 10
607.3874774777376
 20
344.5648550924734
 10
607.3136654777376
 20
344.1068910924733
 10
607.2625434777377
 20
343.6647550924734
 10
607.234151477738
 20
343.2388130924733
 10
607.2285174777379
 20
342.8294110924733
 10
607.2456434777376
 20
342.4368870924732
 10
607.2855154777379
 20
342.0615670924734
  0
LWPOLYLINE
  5
28EE4
330
A
100
AcDbEntity
  8
BUHIN-2
  6
HIDDEN
100
AcDbPolyline
 90
        3
 70
     0
 43
0.0
 10
607.356115477738
 20
341.6575890924733
 10
607.4943094777376
 20
341.0703490924732
 10
607.9371534777378
 20
339.6513570924733
  0
LINE
  5
28EE5
330
A
100
AcDbEntity
  8
BUHIN-2
  6
Continuous
100
AcDbLine
 10
479.0648594777379
 20
322.2084990924732
 30
0.0
 11
479.1800974777378
 21
323.0116510924734
 31
0.0
  0
LINE
  5
28EE6
330
A
100
AcDbEntity
  8
BUHIN-2
  6
HIDDEN
100
AcDbLine
 10
597.7279274777377
 20
309.3362310924734
 30
0.0
 11
598.3093334777375
 21
307.6120050924733
 31
0.0
  0
LINE
  5
28EE7
330
A
100
AcDbEntity
  8
BUHIN-2
  6
HIDDEN
100
AcDbLine
 10
587.9712954777377
 20
310.6074370924733
 30
0.0
 11
588.0412274777376
 21
310.4328070924733
 31
0.0
  0
LINE
  5
28EE8
330
A
100
AcDbEntity
  8
BUHIN-2
  6
HIDDEN
100
AcDbLine
 10
590.0412274777376
 20
291.7285910924734
 30
0.0
 11
606.8090334777378
 21
291.7136490924734
 31
0.0
  0
LINE
  5
28EE9
330
A
100
AcDbEntity
  8
BUHIN-2
  6
HIDDEN
100
AcDbLine
 10
608.5412274777375
 20
370.3767550924734
 30
0.0
 11
618.0412274777376
 21
370.3751130924735
 31
0.0
  0
LINE
  5
28EEA
330
A
100
AcDbEntity
  8
BUHIN-2
  6
HIDDEN
100
AcDbLine
 10
608.5412274777375
 20
284.4358950924735
 30
0.0
 11
618.0412274777376
 21
284.4375370924734
 31
0.0
  0
LINE
  5
28EEB
330
A
100
AcDbEntity
  8
BUHIN-2
  6
HIDDEN
100
AcDbLine
 10
608.5412274777375
 20
370.3767550924734
 30
0.0
 11
618.0412274777376
 21
370.3739450924734
 31
0.0
  0
LINE
  5
28EEC
330
A
100
AcDbEntity
  8
BUHIN-2
  6
HIDDEN
100
AcDbLine
 10
565.8912274777379
 20
303.1563250924733
 30
0.0
 11
568.8912274777379
 21
303.1563250924733
 31
0.0
  0
LINE
  5
28EED
330
A
100
AcDbEntity
  8
BUHIN-2
  6
HIDDEN
100
AcDbLine
 10
565.8912274777379
 20
351.6563250924733
 30
0.0
 11
568.8912274777379
 21
351.6563250924733
 31
0.0
  0
LINE
  5
28EEE
330
A
100
AcDbEntity
  8
BUHIN-2
  6
HIDDEN
100
AcDbLine
 10
565.8912274777379
 20
303.1563250924733
 30
0.0
 11
565.8912274777379
 21
303.7563250924732
 31
0.0
  0
LINE
  5
28EEF
330
A
100
AcDbEntity
  8
BUHIN-2
  6
HIDDEN
100
AcDbLine
 10
565.8912274777379
 20
351.0563250924734
 30
0.0
 11
565.8912274777379
 21
351.6563250924733
 31
0.0
  0
LINE
  5
28EF0
330
A
100
AcDbEntity
  8
BUHIN-2
  6
HIDDEN
100
AcDbLine
 10
568.8912274777379
 20
327.4063250924733
 30
0.0
 11
568.8912274777379
 21
351.6563250924733
 31
0.0
  0
LINE
  5
28EF1
330
A
100
AcDbEntity
  8
BUHIN-2
  6
HIDDEN
100
AcDbLine
 10
568.8912274777379
 20
303.1563250924733
 30
0.0
 11
568.8912274777379
 21
327.4063250924733
 31
0.0
  0
ARC
  5
28EF2
330
A
100
AcDbEntity
  8
BUHIN-2
  6
Continuous
100
AcDbCircle
 10
533.7746474777376
 20
245.3429890924734
 30
0.0
 40
2.5
100
AcDbArc
 50
185.9062319999971
 51
266.9999999999946
  0
LINE
  5
28EF3
330
A
100
AcDbEntity
  8
BUHIN-2
  6
Continuous
100
AcDbLine
 10
533.6438074777378
 20
242.8464150924733
 30
0.0
 11
542.0412254777378
 21
242.4063249876578
 31
0.0
  0
ARC
  5
28EF4
330
A
100
AcDbEntity
  8
BUHIN-2
  6
Continuous
100
AcDbCircle
 10
1327.041223477737
 20
327.4063250924733
 30
0.0
 40
800.0
100
AcDbArc
 50
181.9388939999998
 51
185.9062319999971
  0
LINE
  5
28EF5
330
A
100
AcDbEntity
  8
BUHIN-2
  6
Continuous
100
AcDbLine
 10
527.4992394777377
 20
300.3394230924733
 30
0.0
 11
527.4992394777377
 21
354.4732270924733
 31
0.0
  0
ARC
  5
28EF7
330
A
100
AcDbEntity
  8
BUHIN-2
  6
Continuous
100
AcDbCircle
 10
533.7746474777376
 20
409.4696610924734
 30
0.0
 40
2.5
100
AcDbArc
 50
93.00000000000542
 51
174.0937680000029
  0
LINE
  5
28EF8
330
A
100
AcDbEntity
  8
BUHIN-2
  6
Continuous
100
AcDbLine
 10
533.6438074777378
 20
411.9662350924732
 30
0.0
 11
542.0412254777378
 21
412.4063251972887
 31
0.0
  0
LINE
  5
28EF9
330
A
100
AcDbEntity
  8
BUHIN-2
  6
HIDDEN
100
AcDbLine
 10
565.8912294777377
 20
303.1563250924733
 30
0.0
 11
565.8912294777377
 21
327.4063250924733
 31
0.0
  0
LINE
  5
28EFA
330
A
100
AcDbEntity
  8
BUHIN-2
  6
HIDDEN
100
AcDbLine
 10
544.6757914777379
 20
351.6563250924733
 30
0.0
 11
565.8912294777377
 21
351.6563250924733
 31
0.0
  0
LINE
  5
28EFB
330
A
100
AcDbEntity
  8
BUHIN-2
  6
HIDDEN
100
AcDbLine
 10
544.6757914777379
 20
303.1563250924733
 30
0.0
 11
565.8912294777377
 21
303.1563250924733
 31
0.0
  0
ARC
  5
28EFC
330
A
100
AcDbEntity
  8
BUHIN-2
  6
Continuous
100
AcDbCircle
 10
516.8912294777377
 20
346.0570830924733
 30
0.0
 40
3.0
100
AcDbArc
 50
114.4433349999997
 51
140.1645780000013
  0
LINE
  5
28EFD
330
A
100
AcDbEntity
  8
BUHIN-2
  6
HIDDEN
100
AcDbLine
 10
565.8912294777377
 20
327.4063250924733
 30
0.0
 11
565.8912294777377
 21
351.6563250924733
 31
0.0
  0
LINE
  5
28F06
330
A
100
AcDbEntity
  8
BUHIN-2
  6
Continuous
100
AcDbLine
 10
544.6757914777379
 20
377.9707350924732
 30
0.0
 11
544.6757914777379
 21
407.6199750924734
 31
0.0
  0
LINE
  5
28F07
330
A
100
AcDbEntity
  8
BUHIN-2
  6
Continuous
100
AcDbLine
 10
544.6757914777379
 20
247.1849010924732
 30
0.0
 11
544.6757914777379
 21
372.9707350924733
 31
0.0
  0
ARC
  5
28F08
330
A
100
AcDbEntity
  8
BUHIN-2
  6
Continuous
100
AcDbCircle
 10
544.175791477738
 20
407.6199750924734
 30
0.0
 40
0.5
100
AcDbArc
 50
0.0
 51
69.99999999999629
  0
LINE
  5
28F09
330
A
100
AcDbEntity
  8
BUHIN-2
  6
Continuous
100
AcDbLine
 10
542.0412234777375
 20
408.9289830924734
 30
0.0
 11
544.3468014777375
 21
408.0898210924734
 31
0.0
  0
LINE
  5
28F0A
330
A
100
AcDbEntity
  8
BUHIN-2
  6
Continuous
100
AcDbLine
 10
542.0412234777375
 20
245.8758930924733
 30
0.0
 11
544.3468014777375
 21
246.7150550924733
 31
0.0
  0
ARC
  5
28F0B
330
A
100
AcDbEntity
  8
BUHIN-2
  6
Continuous
100
AcDbCircle
 10
544.175791477738
 20
247.1849010924732
 30
0.0
 40
0.5
100
AcDbArc
 50
290.0000000000037
 51
0.0
  0
ARC
  5
28F13
330
A
100
AcDbEntity
  8
BUHIN
  6
Continuous
100
AcDbCircle
 10
247.6770150523251
 20
327.4063290924733
 30
0.0
 40
85.0
100
AcDbArc
 50
272.7104950000028
 51
267.3166670000012
  0
ARC
  5
28F14
330
A
100
AcDbEntity
  8
BUHIN
  6
Continuous
100
AcDbCircle
 10
247.6770150523251
 20
327.4063250924732
 30
0.0
 40
28.707222
100
AcDbArc
 50
278.2979589999949
 51
90.00005899999811
  0
ARC
  5
28F15
330
A
100
AcDbEntity
  8
BUHIN
  6
Continuous
100
AcDbCircle
 10
247.6769550523253
 20
327.4063250924732
 30
0.0
 40
28.707222
100
AcDbArc
 50
89.99994100000188
 51
261.7816050000018
  0
LWPOLYLINE
  5
28F16
330
A
100
AcDbEntity
  8
BUHIN
  6
Continuous
100
AcDbPolyline
 90
        4
 70
     0
 43
0.0
 10
243.7635750523253
 20
295.4063850924733
 10
243.7385050523252
 20
290.4656710924733
 10
243.6716710523255
 20
285.4812070924733
 10
243.6509350523253
 20
282.9696470924732
  0
LWPOLYLINE
  5
28F17
330
A
100
AcDbEntity
  8
BUHIN
  6
Continuous
100
AcDbPolyline
 90
        6
 70
     0
 43
0.0
 10
243.6600910523254
 20
245.9591850924732
 10
243.6694810523253
 20
251.3588170924734
 10
243.7173510523252
 20
258.6861510924732
 10
243.7181370523252
 20
266.1117930924734
 10
243.6565610523252
 20
277.3060030924733
 10
243.6511170523253
 20
282.9696470924732
  0
LWPOLYLINE
  5
28F18
330
A
100
AcDbEntity
  8
BUHIN
  6
Continuous
100
AcDbPolyline
 90
        5
 70
     0
 43
0.0
 10
244.2227390523252
 20
231.0002230924733
 10
243.9863710523253
 20
234.9510690924733
 10
243.8376150523253
 20
237.9510450924733
 10
243.7459650523252
 20
240.5706030924732
 10
243.6921270523252
 20
242.9636690924733
  0
LINE
  5
28F19
330
A
100
AcDbEntity
  8
BUHIN
  6
Continuous
100
AcDbLine
 10
243.6600930523253
 20
245.9591850924732
 30
0.0
 11
243.6682990523253
 21
244.9600250924732
 31
0.0
  0
LINE
  5
28F1A
330
A
100
AcDbEntity
  8
BUHIN
  6
Continuous
100
AcDbLine
 10
243.6682990523253
 20
244.9600250924732
 30
0.0
 11
243.6921250523254
 21
242.9636690924733
 31
0.0
  0
ARC
  5
28F1B
330
A
100
AcDbEntity
  8
BUHIN
  6
Continuous
100
AcDbCircle
 10
253.9993550523253
 20
230.6346610924734
 30
0.0
 40
9.692747999999999
100
AcDbArc
 50
192.2675530000002
 51
194.0313689999998
  0
ARC
  5
28F1C
330
A
100
AcDbEntity
  8
BUHIN
  6
Continuous
100
AcDbCircle
 10
255.6831330523254
 20
230.9932810924733
 30
0.0
 40
11.41428
100
AcDbArc
 50
189.3428549999979
 51
192.2307400000033
  0
LWPOLYLINE
  5
28F1D
330
A
100
AcDbEntity
  8
BUHIN
  6
Continuous
100
AcDbPolyline
 90
        3
 70
     0
 43
0.0
 10
244.4202710523253
 20
229.1402650924733
 10
244.3242630523254
 20
229.8296470924733
 10
244.2884110523254
 20
230.1748190924732
  0
LINE
  5
28F1E
330
A
100
AcDbEntity
  8
BUHIN
  6
Continuous
100
AcDbLine
 10
247.6967170523252
 20
225.0016030924733
 30
0.0
 11
247.6969310523253
 21
225.0099890924732
 31
0.0
  0
LINE
  5
28F1F
330
A
100
AcDbEntity
  8
BUHIN
  6
DASHDOT
100
AcDbLine
 10
247.6770150523251
 20
223.1059850924733
 30
0.0
 11
247.6770150523251
 21
417.5420250924733
 31
0.0
  0
LINE
  5
28F20
330
A
100
AcDbEntity
  8
BUHIN
  6
DASHDOT
100
AcDbLine
 10
159.8993010523253
 20
327.4063290924733
 30
0.0
 11
334.9394750523255
 21
327.4063290924733
 31
0.0
  0
LINE
  5
28F21
330
A
100
AcDbEntity
  8
BUHIN
  6
Continuous
100
AcDbLine
 10
251.6353690523255
 20
296.9575630924733
 30
0.0
 11
251.6489450523253
 21
298.8037950924731
 31
0.0
  0
LINE
  5
28F22
330
A
100
AcDbEntity
  8
BUHIN
  6
Continuous
100
AcDbLine
 10
243.7447510523254
 20
298.7980350924734
 30
0.0
 11
243.7603870523252
 21
295.4063810924733
 31
0.0
  0
LINE
  5
28F23
330
A
100
AcDbEntity
  8
BUHIN
  6
Continuous
100
AcDbLine
 10
244.2229870523255
 20
231.0002370924733
 30
0.0
 11
244.2491690523253
 21
230.6004410924734
 31
0.0
  0
LINE
  5
28F24
330
A
100
AcDbEntity
  8
BUHIN
  6
Continuous
100
AcDbLine
 10
251.1448470523254
 20
230.6004610924733
 30
0.0
 11
251.1710330523255
 21
231.0002550924732
 31
0.0
  0
LINE
  5
28F25
330
A
100
AcDbEntity
  8
BUHIN
  6
Continuous
100
AcDbLine
 10
244.2491690523253
 20
230.6004410924734
 30
0.0
 11
244.2883710523255
 21
230.1748150924732
 31
0.0
  0
LINE
  5
28F26
330
A
100
AcDbEntity
  8
BUHIN
  6
Continuous
100
AcDbLine
 10
251.1042350523252
 20
230.1748310924734
 30
0.0
 11
251.1448470523254
 21
230.6004610924733
 31
0.0
  0
LINE
  5
28F27
330
A
100
AcDbEntity
  8
BUHIN
  6
Continuous
100
AcDbLine
 10
251.7344190523253
 20
298.9018830924733
 30
0.0
 11
251.8200710523255
 21
298.9996210924733
 31
0.0
  0
LINE
  5
28F28
330
A
100
AcDbEntity
  8
BUHIN
  6
Continuous
100
AcDbLine
 10
251.6489450523253
 20
298.8037950924731
 30
0.0
 11
251.7344190523253
 21
298.9018830924733
 31
0.0
  0
LINE
  5
28F29
330
A
100
AcDbEntity
  8
BUHIN
  6
Continuous
100
AcDbLine
 10
251.6089190523252
 20
299.9731930924734
 30
0.0
 11
251.6105930523253
 21
299.7980070924732
 31
0.0
  0
LINE
  5
28F2A
330
A
100
AcDbEntity
  8
BUHIN
  6
Continuous
100
AcDbLine
 10
251.6560830523252
 20
298.9127710924734
 30
0.0
 11
251.6565090523253
 21
298.8679450924733
 31
0.0
  0
LWPOLYLINE
  5
28F2B
330
A
100
AcDbEntity
  8
BUHIN
  6
Continuous
100
AcDbPolyline
 90
        2
 70
     0
 43
0.0
 10
243.7835490523254
 20
299.8571670924732
 10
243.7847610523253
 20
299.9672710924733
  0
LWPOLYLINE
  5
28F2C
330
A
100
AcDbEntity
  8
BUHIN
  6
Continuous
100
AcDbPolyline
 90
        5
 70
     0
 43
0.0
 10
243.7447530523253
 20
298.7980350924734
 10
243.7316190523253
 20
298.8672730924731
 10
243.6952770523252
 20
298.9276570924733
 10
243.6402430523252
 20
298.9716870924733
 10
243.5733510523254
 20
298.9938970924732
  0
LWPOLYLINE
  5
28F2D
330
A
100
AcDbEntity
  8
BUHIN
  6
Continuous
100
AcDbPolyline
 90
       22
 70
     0
 43
0.0
 10
247.6955750523254
 20
323.0242230924732
 10
247.9213210523252
 20
323.0028590924733
 10
248.0627310523254
 20
322.9495290924733
 10
248.2538490523253
 20
322.8260130924732
 10
248.4193830523253
 20
322.6689410924732
 10
248.6090410523253
 20
322.4309610924734
 10
248.7737790523255
 20
322.1747390924734
 10
249.0070570523252
 20
321.7189690924734
 10
249.2612350523253
 20
321.1167830924733
 10
249.5437590523253
 20
320.2919070924731
 10
249.7833450523252
 20
319.4535930924733
 10
250.0396970523253
 20
318.3940750924733
 10
250.2773770523253
 20
317.2093370924733
 10
250.5427210523252
 20
315.6876090924734
 10
250.7654350523252
 20
314.1591130924733
 10
250.9550930523254
 20
312.6260390924733
 10
251.189585052325
 20
310.3208230924733
 10
251.3709130523256
 20
308.0110770924732
 10
251.5005590523255
 20
305.6980190924733
 10
251.5803930523251
 20
303.3827350924732
 10
251.6048370523253
 20
301.6879130924733
 10
251.6089190523252
 20
299.9731930924734
  0
LINE
  5
28F2E
330
A
100
AcDbEntity
  8
BUHIN
  6
Continuous
100
AcDbLine
 10
247.6759250523254
 20
323.0262530924733
 30
0.0
 11
247.6980490523255
 21
323.0242230924732
 31
0.0
  0
LWPOLYLINE
  5
28F2F
330
A
100
AcDbEntity
  8
BUHIN
  6
Continuous
100
AcDbPolyline
 90
       22
 70
     0
 43
0.0
 10
243.7847610523253
 20
299.9672710924733
 10
243.7930450523253
 20
302.4793910924732
 10
243.8554550523253
 20
304.8017310924734
 10
243.9573070523255
 20
306.9903810924734
 10
244.1064270523253
 20
309.1764870924733
 10
244.3014810523254
 20
311.3591910924733
 10
244.5404510523252
 20
313.5032370924732
 10
244.7672150523252
 20
315.1675690924733
 10
245.0338030523252
 20
316.7914450924732
 10
245.2706230523253
 20
318.0025590924734
 10
245.5483950523252
 20
319.2051310924733
 10
245.7646650523253
 20
319.9989110924732
 10
246.0157970523254
 20
320.7820110924733
 10
246.3217730523253
 20
321.5819290924733
 10
246.5389090523252
 20
322.0291470924733
 10
246.7577330523253
 20
322.3917650924732
 10
246.9525810523254
 20
322.6433630924733
 10
247.1035930523252
 20
322.7928410924733
 10
247.2746510523253
 20
322.9163130924733
 10
247.3680790523252
 20
322.9636250924732
 10
247.4930790523252
 20
323.0003690924732
 10
247.6759250523254
 20
323.0262530924733
  0
LWPOLYLINE
  5
28F30
330
A
100
AcDbEntity
  8
BUHIN
  6
Continuous
100
AcDbPolyline
 90
        3
 70
     0
 43
0.0
 10
250.9943570523254
 20
229.2705870924733
 10
251.1015990523254
 20
230.1384330924732
 10
251.1065070523254
 20
230.1986350924733
  0
LWPOLYLINE
  5
28F31
330
A
100
AcDbEntity
  8
BUHIN
  6
Continuous
100
AcDbPolyline
 90
       13
 70
     0
 43
0.0
 10
247.6969310523253
 20
225.0099890924732
 10
248.2949350523253
 20
225.1155310924732
 10
248.5247090523252
 20
225.1769950924733
 10
248.7083310523252
 20
225.2442550924734
 10
249.0192430523253
 20
225.4060010924732
 10
249.3097950523255
 20
225.6106070924732
 10
249.5779830523253
 20
225.8543670924733
 10
249.8218070523252
 20
226.1335710924732
 10
250.0877390523255
 20
226.5035790924733
 10
250.3220070523254
 20
226.9420130924732
 10
250.4980650523251
 20
227.3408490924733
 10
250.6650490523254
 20
227.8179070924732
 10
250.7981450523254
 20
228.2846430924733
  0
ARC
  5
28F32
330
A
100
AcDbEntity
  8
BUHIN
  6
Continuous
100
AcDbCircle
 10
241.3943690523252
 20
230.6348010924732
 30
0.0
 40
9.692999999999999
100
AcDbArc
 50
345.9682640000031
 51
347.7320389999997
  0
ARC
  5
28F33
330
A
100
AcDbEntity
  8
BUHIN
  6
Continuous
100
AcDbCircle
 10
239.7104810523252
 20
230.9934570924734
 30
0.0
 40
11.414646
100
AcDbArc
 50
347.768853000002
 51
351.3188879999977
  0
LINE
  5
28F34
330
A
100
AcDbEntity
  8
BUHIN
  6
Continuous
100
AcDbLine
 10
251.7021350523254
 20
242.9636930924733
 30
0.0
 11
251.725969052325
 21
244.9600490924733
 31
0.0
  0
LINE
  5
28F35
330
A
100
AcDbEntity
  8
BUHIN
  6
Continuous
100
AcDbLine
 10
251.725969052325
 20
244.9600490924733
 30
0.0
 11
251.7341950523254
 21
245.9592090924732
 31
0.0
  0
LWPOLYLINE
  5
28F36
330
A
100
AcDbEntity
  8
BUHIN
  6
Continuous
100
AcDbPolyline
 90
        6
 70
     0
 43
0.0
 10
251.7341970523252
 20
245.9592090924732
 10
251.7248330523251
 20
251.3588410924733
 10
251.6769550523253
 20
258.6861730924734
 10
251.6761150523251
 20
266.1118150924733
 10
251.7375470523256
 20
277.3060270924732
 10
251.7429010523255
 20
282.9696710924732
  0
LWPOLYLINE
  5
28F37
330
A
100
AcDbEntity
  8
BUHIN
  6
Continuous
100
AcDbPolyline
 90
        5
 70
     0
 43
0.0
 10
251.1712810523253
 20
231.0002430924733
 10
251.4077610523253
 20
234.9510910924732
 10
251.5565770523252
 20
237.9510690924733
 10
251.6482670523254
 20
240.5706270924734
 10
251.7021330523252
 20
242.9636930924733
  0
LWPOLYLINE
  5
28F38
330
A
100
AcDbEntity
  8
BUHIN
  6
Continuous
100
AcDbPolyline
 90
        4
 70
     0
 43
0.0
 10
251.6353690523255
 20
296.9575630924733
 10
251.6304470523254
 20
294.1866910924732
 10
251.6787970523254
 20
288.6081710924732
 10
251.7430830523252
 20
282.9696710924732
  0
LWPOLYLINE
  5
28F39
330
A
100
AcDbEntity
  8
BUHIN
  6
Continuous
100
AcDbPolyline
 90
       15
 70
     0
 43
0.0
 10
244.7046710523253
 20
227.8865470924734
 10
244.9319330523252
 20
227.2345050924732
 10
245.2039910523252
 20
226.6615910924734
 10
245.3564510523253
 20
226.4056110924733
 10
245.5196450523252
 20
226.1703310924734
 10
245.6933910523252
 20
225.9560130924733
 10
245.8774990523253
 20
225.7628930924732
 10
246.0717650523253
 20
225.5911830924733
 10
246.2759750523254
 20
225.4410730924733
 10
246.4899050523253
 20
225.3127290924733
 10
246.7133190523254
 20
225.2062930924733
 10
246.9459670523253
 20
225.1218810924734
 10
247.1875950523253
 20
225.0595870924733
 10
247.4379370523253
 20
225.0194810924734
 10
247.6967170523252
 20
225.0016030924733
  0
LINE
  5
28F3A
330
A
100
AcDbEntity
  8
BUHIN
  6
Continuous
100
AcDbLine
 10
244.5958070523253
 20
228.2846250924734
 30
0.0
 11
244.7046710523253
 21
227.8865470924734
 31
0.0
  0
LINE
  5
28F3C
330
A
100
AcDbEntity
  8
BUHIN-3
  6
HIDDEN
100
AcDbLine
 10
212.4967990523252
 20
702.9666436181233
 30
0.0
 11
212.4967990523252
 21
712.9666436181232
 31
0.0
  0
LINE
  5
28F3D
330
A
100
AcDbEntity
  8
BUHIN-3
  6
HIDDEN
100
AcDbLine
 10
207.1967990523249
 20
703.3608036181233
 30
0.0
 11
207.1967990523249
 21
712.9666436181232
 31
0.0
  0
LINE
  5
28F3E
330
A
100
AcDbEntity
  8
BUHIN-3
  6
HIDDEN
100
AcDbLine
 10
288.1572230523251
 20
703.3608076181232
 30
0.0
 11
288.1572230523251
 21
712.9666436181232
 31
0.0
  0
LINE
  5
28F3F
330
A
100
AcDbEntity
  8
BUHIN-3
  6
HIDDEN
100
AcDbLine
 10
282.8572230523251
 20
702.9666436181233
 30
0.0
 11
282.8572230523251
 21
712.9666436181232
 31
0.0
  0
LINE
  5
28F49
330
A
100
AcDbEntity
  8
BUHIN-3
  6
HIDDEN
100
AcDbLine
 10
223.4270150523249
 20
660.8166456181233
 30
0.0
 11
271.9270150523251
 21
660.8166456181232
 31
0.0
  0
LINE
  5
28F4A
330
A
100
AcDbEntity
  8
BUHIN-3
  6
HIDDEN
100
AcDbLine
 10
223.4270150523249
 20
663.8166456181234
 30
0.0
 11
271.9270150523251
 21
663.8166456181234
 31
0.0
  0
LINE
  5
28F4C
330
A
100
AcDbEntity
  8
BUHIN-3
  6
HIDDEN
100
AcDbLine
 10
223.4270150523249
 20
660.8166456181233
 30
0.0
 11
224.0270150523253
 21
660.8166456181233
 31
0.0
  0
LINE
  5
28F4D
330
A
100
AcDbEntity
  8
BUHIN-3
  6
HIDDEN
100
AcDbLine
 10
271.9270150523251
 20
660.8166456181233
 30
0.0
 11
271.9270150523251
 21
663.8166456181234
 31
0.0
  0
LINE
  5
28F4E
330
A
100
AcDbEntity
  8
BUHIN-3
  6
HIDDEN
100
AcDbLine
 10
223.4270150523249
 20
660.8166456181233
 30
0.0
 11
223.4270150523249
 21
663.8166456181234
 31
0.0
  0
LINE
  5
28F54
330
A
100
AcDbEntity
  8
BUHIN-3
  6
HIDDEN
100
AcDbLine
 10
225.4031510523251
 20
683.2942716181232
 30
0.0
 11
225.4031510523251
 21
703.3627396181234
 31
0.0
  0
LINE
  5
28F55
330
A
100
AcDbEntity
  8
BUHIN-3
  6
HIDDEN
100
AcDbLine
 10
269.9508790523251
 20
683.2738576181234
 30
0.0
 11
269.9508790523251
 21
703.5872976181233
 31
0.0
  0
LINE
  5
28F56
330
A
100
AcDbEntity
  8
BUHIN-3
  6
HIDDEN
100
AcDbLine
 10
285.5072230523252
 20
701.9636456181233
 30
0.0
 11
285.5072230523252
 21
704.4696416181234
 31
0.0
  0
LINE
  5
28F57
330
A
100
AcDbEntity
  8
BUHIN-3
  6
HIDDEN
100
AcDbLine
 10
209.846799052325
 20
701.9636456181233
 30
0.0
 11
209.846799052325
 21
704.4696416181234
 31
0.0
  0
LINE
  5
28F58
330
A
100
AcDbEntity
  8
BUHIN-3
  6
HIDDEN
100
AcDbLine
 10
229.3270050523252
 20
681.9161596181234
 30
0.0
 11
229.3270170523252
 21
663.8166456181234
 31
0.0
  0
LINE
  5
28F59
330
A
100
AcDbEntity
  8
BUHIN-3
  6
HIDDEN
100
AcDbLine
 10
266.0270030523253
 20
682.7166436181232
 30
0.0
 11
266.0270150523253
 21
663.8166456181234
 31
0.0
  0
LINE
  5
28F5A
330
A
100
AcDbEntity
  8
BUHIN-3
  6
HIDDEN
100
AcDbLine
 10
238.1770150523249
 20
663.8166456181234
 30
0.0
 11
238.1770150523249
 21
680.9666456181233
 31
0.0
  0
LINE
  5
28F5B
330
A
100
AcDbEntity
  8
BUHIN-3
  6
HIDDEN
100
AcDbLine
 10
257.1770150523251
 20
663.8166456181234
 30
0.0
 11
257.1770150523251
 21
699.9666436181232
 31
0.0
  0
LWPOLYLINE
  5
28F5C
330
A
100
AcDbEntity
  8
BUHIN-3
  6
HIDDEN
100
AcDbPolyline
 90
       19
 70
     0
 43
0.0
 10
268.1696630523251
 20
686.9934656181233
 10
268.8975570523252
 20
687.4621716181234
 10
270.287579052325
 20
688.4810596181232
 10
270.8054450523251
 20
688.8934616181233
 10
271.5271450523252
 20
689.5144556181232
 10
272.2746250523252
 20
690.1900336181234
 10
272.9950490523253
 20
690.8988876181233
 10
273.6871670523252
 20
691.6397356181232
 10
274.3497290523252
 20
692.4112956181232
 10
274.9815890523251
 20
693.2121716181234
 10
275.5815990523252
 20
694.0409736181234
 10
276.1487290523252
 20
694.8962116181233
 10
276.6819430523252
 20
695.7763936181233
 10
277.180329052325
 20
696.6799416181234
 10
277.6429730523251
 20
697.6052756181232
 10
278.069091052325
 20
698.5507376181232
 10
278.4578910523252
 20
699.5146756181232
 10
278.878621052325
 20
700.6527636181233
 10
278.9590930523251
 20
700.8891616181233
  0
LINE
  5
28F5D
330
A
100
AcDbEntity
  8
BUHIN-3
  6
HIDDEN
100
AcDbLine
 10
206.298739052325
 20
703.4666436181232
 30
0.0
 11
206.3238710523252
 21
703.4666436181232
 31
0.0
  0
LINE
  5
28F5E
330
A
100
AcDbEntity
  8
BUHIN-3
  6
HIDDEN
100
AcDbLine
 10
206.1423850523252
 20
703.4666436181232
 30
0.0
 11
206.298739052325
 21
703.4666436181232
 31
0.0
  0
LINE
  5
28F5F
330
A
100
AcDbEntity
  8
BUHIN-3
  6
HIDDEN
100
AcDbLine
 10
206.3238710523252
 20
703.4666436181232
 30
0.0
 11
206.4875910523252
 21
703.4666436181232
 31
0.0
  0
LINE
  5
28F60
330
A
100
AcDbEntity
  8
BUHIN-3
  6
HIDDEN
100
AcDbLine
 10
206.193833052325
 20
702.9666436181233
 30
0.0
 11
213.2609010523252
 21
702.9666436181233
 31
0.0
  0
LWPOLYLINE
  5
28F61
330
A
100
AcDbEntity
  8
BUHIN-3
  6
HIDDEN
100
AcDbPolyline
 90
        2
 70
     0
 43
0.0
 10
205.7784070523249
 20
702.9780156181234
 10
206.1938290523249
 20
702.9666436181233
  0
LWPOLYLINE
  5
28F62
330
A
100
AcDbEntity
  8
BUHIN-3
  6
HIDDEN
100
AcDbPolyline
 90
        6
 70
     0
 43
0.0
 10
206.4887450523253
 20
703.4666436181232
 10
206.8344870523252
 20
703.4041656181232
 10
208.0989090523249
 20
703.2677216181232
 10
210.231285052325
 20
703.0990096181233
 10
211.9723830523249
 20
703.0048036181233
 10
212.7533730523251
 20
702.9780016181232
  0
LWPOLYLINE
  5
28F63
330
A
100
AcDbEntity
  8
BUHIN-3
  6
HIDDEN
100
AcDbPolyline
 90
        5
 70
     0
 43
0.0
 10
204.846807052325
 20
703.1250196181233
 10
204.8617910523249
 20
703.0988496181232
 10
204.981293052325
 20
703.0525156181234
 10
205.3779950523249
 20
703.0000336181233
 10
205.7784070523249
 20
702.9779996181233
  0
LWPOLYLINE
  5
28F64
330
A
100
AcDbEntity
  8
BUHIN-3
  6
HIDDEN
100
AcDbPolyline
 90
        5
 70
     0
 43
0.0
 10
206.1422810523251
 20
703.4666436181232
 10
205.280179052325
 20
703.2956316181232
 10
204.9678010523249
 20
703.2092296181233
 10
204.8602470523252
 20
703.1515796181233
 10
204.846807052325
 20
703.1250196181233
  0
LWPOLYLINE
  5
28F65
330
A
100
AcDbEntity
  8
BUHIN-3
  6
HIDDEN
100
AcDbPolyline
 90
        2
 70
     0
 43
0.0
 10
213.2609010523252
 20
702.9666436181233
 10
212.7533970523251
 20
702.9780156181234
  0
LINE
  5
28F66
330
A
100
AcDbEntity
  8
BUHIN-3
  6
HIDDEN
100
AcDbLine
 10
236.5338870523252
 20
682.9666436181232
 30
0.0
 11
237.7583110523252
 21
682.9666436181232
 31
0.0
  0
LINE
  5
28F67
330
A
100
AcDbEntity
  8
BUHIN-3
  6
HIDDEN
100
AcDbLine
 10
214.0044950523253
 20
682.9666436181232
 30
0.0
 11
236.5338870523252
 21
682.9666436181232
 31
0.0
  0
LINE
  5
28F68
330
A
100
AcDbEntity
  8
BUHIN-3
  6
HIDDEN
100
AcDbLine
 10
266.1423410523251
 20
682.9666436181232
 30
0.0
 11
276.693293052325
 21
682.9666436181232
 31
0.0
  0
LINE
  5
28F69
330
A
100
AcDbEntity
  8
BUHIN-3
  6
HIDDEN
100
AcDbLine
 10
276.693293052325
 20
682.9666436181232
 30
0.0
 11
281.3536270523251
 21
682.9666436181232
 31
0.0
  0
ARC
  5
28F6A
330
A
100
AcDbEntity
  8
BUHIN-3
  6
HIDDEN
100
AcDbCircle
 10
265.111775052325
 20
684.4420376181233
 30
0.0
 40
0.5266340000000001
100
AcDbArc
 50
172.7669440000025
 51
182.7432600000008
  0
LWPOLYLINE
  5
28F6B
330
A
100
AcDbEntity
  8
BUHIN-3
  6
HIDDEN
100
AcDbPolyline
 90
        3
 70
     0
 43
0.0
 10
228.7136510523251
 20
682.8145336181233
 10
228.3598050523252
 20
682.9282636181233
 10
227.991827052325
 20
682.9666616181232
  0
ARC
  5
28F6C
330
A
100
AcDbEntity
  8
BUHIN-3
  6
HIDDEN
100
AcDbCircle
 10
236.1770350523253
 20
680.9666636181232
 30
0.0
 40
2.0
100
AcDbArc
 50
359.999477999997
 51
90.00056099999918
  0
LWPOLYLINE
  5
28F6D
330
A
100
AcDbEntity
  8
BUHIN-3
  6
HIDDEN
100
AcDbPolyline
 90
        7
 70
     0
 43
0.0
 10
258.8376770523252
 20
686.9828736181232
 10
260.1995270523249
 20
686.4358376181233
 10
261.2529270523252
 20
686.0551816181232
 10
262.2560150523251
 20
685.7426856181232
 10
262.888341052325
 20
685.5788596181232
 10
263.4856450523251
 20
685.4551376181232
 10
263.8640910523251
 20
685.3966556181233
  0
LWPOLYLINE
  5
28F6E
330
A
100
AcDbEntity
  8
BUHIN-3
  6
HIDDEN
100
AcDbPolyline
 90
        8
 70
     0
 43
0.0
 10
265.347641052325
 20
685.9025036181233
 10
265.350863052325
 20
685.8879736181234
 10
265.1932750523252
 20
685.7769196181232
 10
265.042157052325
 20
685.6184616181232
 10
264.908235052325
 20
685.4325196181232
 10
264.7629790523252
 20
685.1544956181233
 10
264.6553450523253
 20
684.8434756181234
 10
264.5893550523252
 20
684.5083436181233
  0
LWPOLYLINE
  5
28F6F
330
A
100
AcDbEntity
  8
BUHIN-3
  6
HIDDEN
100
AcDbPolyline
 90
        3
 70
     0
 43
0.0
 10
264.6417710523252
 20
684.0961036181234
 10
264.592949052325
 20
684.3244416181232
 10
264.585601052325
 20
684.4167616181232
  0
LINE
  5
28F70
330
A
100
AcDbEntity
  8
BUHIN-3
  6
HIDDEN
100
AcDbLine
 10
238.342945052325
 20
682.9672796181232
 30
0.0
 11
238.3439510523249
 21
682.9616896181232
 31
0.0
  0
LINE
  5
28F71
330
A
100
AcDbEntity
  8
BUHIN-3
  6
HIDDEN
100
AcDbLine
 10
239.3253370523249
 20
685.4950756181233
 30
0.0
 11
239.3321130523251
 21
685.4970676181233
 31
0.0
  0
LWPOLYLINE
  5
28F72
330
A
100
AcDbEntity
  8
BUHIN-3
  6
HIDDEN
100
AcDbPolyline
 90
       12
 70
     0
 43
0.0
 10
238.3439510523249
 20
682.9616896181232
 10
238.4956390523249
 20
683.0007496181233
 10
238.6410430523252
 20
683.0620356181232
 10
238.7785370523248
 20
683.1448696181232
 10
238.9065890523248
 20
683.2483216181233
 10
239.0237670523253
 20
683.3712396181233
 10
239.1287670523248
 20
683.5122516181233
 10
239.2976850523251
 20
683.8420796181233
 10
239.4058250523249
 20
684.2231176181233
 10
239.4483730523249
 20
684.6384036181232
 10
239.4234310523248
 20
685.0694516181233
 10
239.3321130523251
 20
685.4970676181233
  0
LWPOLYLINE
  5
28F73
330
A
100
AcDbEntity
  8
BUHIN-3
  6
HIDDEN
100
AcDbPolyline
 90
        5
 70
     0
 43
0.0
 10
238.6177510523249
 20
700.2076076181233
 10
238.817925052325
 20
696.1198276181232
 10
239.0781010523252
 20
691.2346636181232
 10
239.1881530523252
 20
688.5283036181233
 10
239.2329370523254
 20
686.5152316181234
  0
LINE
  5
28F74
330
A
100
AcDbEntity
  8
BUHIN-3
  6
HIDDEN
100
AcDbLine
 10
214.0044950523253
 20
682.9666436181232
 30
0.0
 11
214.0044950523253
 21
682.9660216181232
 31
0.0
  0
ARC
  5
28F75
330
A
100
AcDbEntity
  8
BUHIN-3
  6
HIDDEN
100
AcDbCircle
 10
214.0041350523248
 20
684.9652996181232
 30
0.0
 40
1.999277999999999
100
AcDbArc
 50
197.9661459999985
 51
270.0103149999995
  0
LINE
  5
28F76
330
A
100
AcDbEntity
  8
BUHIN-3
  6
HIDDEN
100
AcDbLine
 10
212.0006090523253
 20
684.9666436181232
 30
0.0
 11
212.1023430523251
 21
684.3486116181233
 31
0.0
  0
LINE
  5
28F77
330
A
100
AcDbEntity
  8
BUHIN-3
  6
HIDDEN
100
AcDbLine
 10
283.350697052325
 20
684.9666436181232
 30
0.0
 11
283.352661052325
 21
684.9666456181232
 31
0.0
  0
ARC
  5
28F78
330
A
100
AcDbEntity
  8
BUHIN-3
  6
HIDDEN
100
AcDbCircle
 10
281.3535310523249
 20
684.9652236181232
 30
0.0
 40
1.999129999999999
100
AcDbArc
 50
270.0027559999996
 51
0.0407630000022419
  0
LINE
  5
28F79
330
A
100
AcDbEntity
  8
BUHIN-3
  6
HIDDEN
100
AcDbLine
 10
281.3536270523251
 20
682.9666436181232
 30
0.0
 11
281.3536270523251
 21
682.9660936181233
 31
0.0
  0
LWPOLYLINE
  5
28F7A
330
A
100
AcDbEntity
  8
BUHIN-3
  6
HIDDEN
100
AcDbPolyline
 90
        3
 70
     0
 43
0.0
 10
268.3468970523251
 20
687.0824216181233
 10
267.843971052325
 20
686.7269396181234
 10
267.4373930523251
 20
686.4667256181233
  0
LWPOLYLINE
  5
28F7B
330
A
100
AcDbEntity
  8
BUHIN-3
  6
HIDDEN
100
AcDbPolyline
 90
        5
 70
     0
 43
0.0
 10
265.921105052325
 20
685.7712696181233
 10
266.316215052325
 20
685.9171596181234
 10
266.702293052325
 20
686.0824096181233
 10
267.0768290523252
 20
686.2659436181232
 10
267.4373850523251
 20
686.4665636181232
  0
ARC
  5
28F7C
330
A
100
AcDbEntity
  8
BUHIN-3
  6
HIDDEN
100
AcDbCircle
 10
266.2770010523251
 20
682.7166456181232
 30
0.0
 40
0.25
100
AcDbArc
 50
89.99944100000362
 51
180.000587000003
  0
LWPOLYLINE
  5
28F7D
330
A
100
AcDbEntity
  8
BUHIN-3
  6
HIDDEN
100
AcDbPolyline
 90
        5
 70
     0
 43
0.0
 10
265.190029052325
 20
683.4517856181232
 10
265.454559052325
 20
683.1907396181234
 10
265.645831052325
 20
683.0376656181234
 10
265.7860990523251
 20
682.9585096181233
 10
265.8583730523252
 20
682.9315116181232
  0
LWPOLYLINE
  5
28F7E
330
A
100
AcDbEntity
  8
BUHIN-3
  6
HIDDEN
100
AcDbPolyline
 90
        4
 70
     0
 43
0.0
 10
290.498045052325
 20
703.1043876181233
 10
290.407821052325
 20
703.0615976181231
 10
290.0958090523251
 20
703.0107656181233
 10
289.5838690523252
 20
702.9783036181234
  0
LWPOLYLINE
  5
28F7F
330
A
100
AcDbEntity
  8
BUHIN-3
  6
HIDDEN
100
AcDbPolyline
 90
        7
 70
     0
 43
0.0
 10
229.382593052325
 20
681.4663416181233
 10
229.3111330523253
 20
681.9228876181232
 10
229.232631052325
 20
682.1930136181233
 10
229.1108130523249
 20
682.3793376181233
 10
228.9094150523252
 20
682.5844796181233
 10
228.6934010523251
 20
682.7590716181232
 10
228.5277390523253
 20
682.8537536181234
  0
LINE
  5
28F80
330
A
100
AcDbEntity
  8
BUHIN-3
  6
HIDDEN
100
AcDbLine
 10
229.1610930523253
 20
682.3605996181234
 30
0.0
 11
229.469843052325
 21
681.7739156181232
 31
0.0
  0
LINE
  5
28F81
330
A
100
AcDbEntity
  8
BUHIN-3
  6
HIDDEN
100
AcDbLine
 10
238.0306590523252
 20
680.9676416181233
 30
0.0
 11
238.071861052325
 21
680.9675436181232
 31
0.0
  0
LINE
  5
28F82
330
A
100
AcDbEntity
  8
BUHIN-3
  6
HIDDEN
100
AcDbLine
 10
238.071861052325
 20
680.9675436181232
 30
0.0
 11
238.1769030523252
 21
680.9672076181234
 31
0.0
  0
LINE
  5
28F83
330
A
100
AcDbEntity
  8
BUHIN-3
  6
HIDDEN
100
AcDbLine
 10
237.9034270523249
 20
680.9679476181234
 30
0.0
 11
238.071861052325
 21
680.9675436181232
 31
0.0
  0
LINE
  5
28F84
330
A
100
AcDbEntity
  8
BUHIN-3
  6
HIDDEN
100
AcDbLine
 10
239.2329450523253
 20
686.5151716181233
 30
0.0
 11
239.325301052325
 21
685.4950876181232
 31
0.0
  0
LINE
  5
28F85
330
A
100
AcDbEntity
  8
BUHIN-3
  6
HIDDEN
100
AcDbLine
 10
235.7791490523251
 20
702.9666436181233
 30
0.0
 11
265.3710170523251
 21
702.9666436181233
 31
0.0
  0
LINE
  5
28F86
330
A
100
AcDbEntity
  8
BUHIN-3
  6
HIDDEN
100
AcDbLine
 10
219.7330150523249
 20
702.9666436181233
 30
0.0
 11
219.7997110523253
 21
702.9666436181233
 31
0.0
  0
LINE
  5
28F87
330
A
100
AcDbEntity
  8
BUHIN-3
  6
HIDDEN
100
AcDbLine
 10
265.3710170523251
 20
702.9666436181233
 30
0.0
 11
275.6210170523251
 21
702.9666436181233
 31
0.0
  0
LINE
  5
28F88
330
A
100
AcDbEntity
  8
BUHIN-3
  6
HIDDEN
100
AcDbLine
 10
275.6210170523251
 20
702.9666436181233
 30
0.0
 11
282.093129052325
 21
702.9666436181233
 31
0.0
  0
LINE
  5
28F89
330
A
100
AcDbEntity
  8
BUHIN-3
  6
HIDDEN
100
AcDbLine
 10
282.093129052325
 20
702.9666436181233
 30
0.0
 11
289.1601970523251
 21
702.9666436181233
 31
0.0
  0
LINE
  5
28F8A
330
A
100
AcDbEntity
  8
BUHIN-3
  6
HIDDEN
100
AcDbLine
 10
213.2609010523252
 20
702.9666436181233
 30
0.0
 11
219.7330150523249
 21
702.9666436181233
 31
0.0
  0
LINE
  5
28F8B
330
A
100
AcDbEntity
  8
BUHIN-3
  6
HIDDEN
100
AcDbLine
 10
229.9830150523249
 20
712.9666436181232
 30
0.0
 11
265.3710170523251
 21
712.9666436181232
 31
0.0
  0
LINE
  5
28F8C
330
A
100
AcDbEntity
  8
BUHIN-3
  6
HIDDEN
100
AcDbLine
 10
219.9830150523249
 20
712.9666436181232
 30
0.0
 11
229.9830150523249
 21
712.9666436181232
 31
0.0
  0
LINE
  5
28F8D
330
A
100
AcDbEntity
  8
BUHIN-3
  6
HIDDEN
100
AcDbLine
 10
212.9503550523251
 20
712.9666436181232
 30
0.0
 11
219.9830150523249
 21
712.9666436181232
 31
0.0
  0
LINE
  5
28F8E
330
A
100
AcDbEntity
  8
BUHIN-3
  6
HIDDEN
100
AcDbLine
 10
204.7082270523252
 20
712.9666436181232
 30
0.0
 11
212.9503550523251
 21
712.9666436181232
 31
0.0
  0
LINE
  5
28F8F
330
A
100
AcDbEntity
  8
BUHIN-3
  6
HIDDEN
100
AcDbLine
 10
290.644635052325
 20
712.9666436181232
 30
0.0
 11
290.645803052325
 21
712.9666436181232
 31
0.0
  0
LINE
  5
28F90
330
A
100
AcDbEntity
  8
BUHIN-3
  6
HIDDEN
100
AcDbLine
 10
282.4036750523252
 20
712.9666436181232
 30
0.0
 11
290.644635052325
 21
712.9666436181232
 31
0.0
  0
LINE
  5
28F91
330
A
100
AcDbEntity
  8
BUHIN-3
  6
HIDDEN
100
AcDbLine
 10
288.8655350523251
 20
703.4666436181232
 30
0.0
 11
289.2108030523251
 21
703.4666436181232
 31
0.0
  0
LINE
  5
28F92
330
A
100
AcDbEntity
  8
BUHIN-3
  6
HIDDEN
100
AcDbLine
 10
275.3710170523251
 20
712.9666436181232
 30
0.0
 11
282.4036750523252
 21
712.9666436181232
 31
0.0
  0
LINE
  5
28F93
330
A
100
AcDbEntity
  8
BUHIN-3
  6
HIDDEN
100
AcDbLine
 10
265.3710170523251
 20
712.9666436181232
 30
0.0
 11
275.3710170523251
 21
712.9666436181232
 31
0.0
  0
LWPOLYLINE
  5
28F94
330
A
100
AcDbEntity
  8
BUHIN-3
  6
HIDDEN
100
AcDbPolyline
 90
        2
 70
     0
 43
0.0
 10
282.093129052325
 20
702.9666436181233
 10
282.6006570523251
 20
702.9780176181231
  0
LINE
  5
28F95
330
A
100
AcDbEntity
  8
BUHIN-3
  6
HIDDEN
100
AcDbLine
 10
282.5117230523252
 20
703.0551076181234
 30
0.0
 11
283.4017330523251
 21
703.0551116181234
 31
0.0
  0
LWPOLYLINE
  5
28F96
330
A
100
AcDbEntity
  8
BUHIN-3
  6
HIDDEN
100
AcDbPolyline
 90
        6
 70
     0
 43
0.0
 10
288.8652510523251
 20
703.4666436181232
 10
288.5195130523251
 20
703.4041656181232
 10
287.2551110523251
 20
703.2677236181232
 10
285.122743052325
 20
703.0990096181233
 10
283.3816470523251
 20
703.0048036181233
 10
282.6006570523251
 20
702.9780016181232
  0
LWPOLYLINE
  5
28F97
330
A
100
AcDbEntity
  8
BUHIN-3
  6
HIDDEN
100
AcDbPolyline
 90
        5
 70
     0
 43
0.0
 10
290.5072230523252
 20
703.1250196181233
 10
290.4922390523251
 20
703.0988496181232
 10
290.3727370523251
 20
703.0525156181234
 10
289.9760350523251
 20
703.0000336181233
 10
289.5756230523251
 20
702.9779996181233
  0
LWPOLYLINE
  5
28F98
330
A
100
AcDbEntity
  8
BUHIN-3
  6
HIDDEN
100
AcDbPolyline
 90
        5
 70
     0
 43
0.0
 10
289.2117190523251
 20
703.4666436181232
 10
290.073849052325
 20
703.2956296181232
 10
290.3862290523251
 20
703.2092276181233
 10
290.493783052325
 20
703.1515776181233
 10
290.5072230523252
 20
703.1250196181233
  0
LINE
  5
28F99
330
A
100
AcDbEntity
  8
BUHIN-3
  6
HIDDEN
100
AcDbLine
 10
290.5657010523252
 20
703.2166456181232
 30
0.0
 11
290.6474450523252
 21
703.4666436181232
 31
0.0
  0
LINE
  5
28F9A
330
A
100
AcDbEntity
  8
BUHIN-3
  6
HIDDEN
100
AcDbLine
 10
290.5072230523252
 20
703.1250196181233
 30
0.0
 11
290.5657010523252
 21
703.2166456181232
 31
0.0
  0
ARC
  5
28F9B
330
A
100
AcDbEntity
  8
BUHIN-3
  6
HIDDEN
100
AcDbCircle
 10
260.1770150523251
 20
699.9666436181232
 30
0.0
 40
3.0
100
AcDbArc
 50
90.0
 51
179.9999949999995
  0
LWPOLYLINE
  5
28F9C
330
A
100
AcDbEntity
  8
BUHIN-3
  6
HIDDEN
100
AcDbPolyline
 90
        3
 70
     0
 43
0.0
 10
284.7556930523252
 20
702.8910216181231
 10
285.1316370523251
 20
702.9545116181232
 10
285.3852130523252
 20
702.9666436181233
  0
LINE
  5
28F9D
330
A
100
AcDbEntity
  8
BUHIN-3
  6
HIDDEN
100
AcDbLine
 10
285.5072230523252
 20
703.1250296181233
 30
0.0
 11
285.5072230523252
 21
703.4666436181232
 31
0.0
  0
LWPOLYLINE
  5
28F9E
330
A
100
AcDbEntity
  8
BUHIN-3
  6
HIDDEN
100
AcDbPolyline
 90
        2
 70
     0
 43
0.0
 10
289.1601970523251
 20
702.9666436181233
 10
289.5755970523252
 20
702.9780136181232
  0
LWPOLYLINE
  5
28F9F
330
A
100
AcDbEntity
  8
BUHIN-3
  6
HIDDEN
100
AcDbPolyline
 90
        4
 70
     0
 43
0.0
 10
204.855917052325
 20
703.1044616181231
 10
204.9467430523251
 20
703.0614456181233
 10
205.2615810523249
 20
703.0104276181232
 10
205.7783990523249
 20
702.9780016181232
  0
LINE
  5
28FA0
330
A
100
AcDbEntity
  8
BUHIN-3
  6
HIDDEN
100
AcDbLine
 10
211.9509290523252
 20
703.0551116181234
 30
0.0
 11
212.842307052325
 21
703.0551076181234
 31
0.0
  0
LINE
  5
28FA1
330
A
100
AcDbEntity
  8
BUHIN-3
  6
HIDDEN
100
AcDbLine
 10
204.706585052325
 20
703.4666436181232
 30
0.0
 11
204.7883290523251
 21
703.2166456181232
 31
0.0
  0
LINE
  5
28FA2
330
A
100
AcDbEntity
  8
BUHIN-3
  6
HIDDEN
100
AcDbLine
 10
204.7883290523251
 20
703.2166456181232
 30
0.0
 11
204.846807052325
 21
703.1250196181233
 31
0.0
  0
LINE
  5
28FA3
330
A
100
AcDbEntity
  8
BUHIN-3
  6
HIDDEN
100
AcDbLine
 10
281.7957390523251
 20
702.9671576181233
 30
0.0
 11
281.7957390523251
 21
702.9666436181233
 31
0.0
  0
ARC
  5
28FA4
330
A
100
AcDbEntity
  8
BUHIN-3
  6
HIDDEN
100
AcDbCircle
 10
281.8011370523251
 20
699.9729316181233
 30
0.0
 40
2.994229999999999
100
AcDbArc
 50
90.1033030000001
 51
162.1315160000023
  0
LINE
  5
28FA5
330
A
100
AcDbEntity
  8
BUHIN-3
  6
HIDDEN
100
AcDbLine
 10
278.9513390523251
 20
700.8916616181234
 30
0.0
 11
278.9590930523251
 21
700.8891616181233
 31
0.0
  0
LWPOLYLINE
  5
28FA6
330
A
100
AcDbEntity
  8
BUHIN-3
  6
HIDDEN
100
AcDbPolyline
 90
       15
 70
     0
 43
0.0
 10
220.711481052325
 20
702.5961336181232
 10
221.243811052325
 20
702.4187856181233
 10
221.619855052325
 20
702.3211276181232
 10
222.2138550523251
 20
702.2440536181232
 10
222.804061052325
 20
702.2353736181233
 10
223.389883052325
 20
702.2792216181232
 10
223.9711390523249
 20
702.3621636181233
 10
224.9086990523252
 20
702.5504756181232
 10
226.0630510523252
 20
702.8115396181233
 10
226.5923790523253
 20
702.9052836181233
 10
227.0526810523248
 20
702.9488596181233
 10
227.4380110523249
 20
702.9476256181233
 10
227.935067052325
 20
702.8947056181232
 10
228.5519130523249
 20
702.7738176181233
 10
229.5568570523252
 20
702.5293096181233
  0
LWPOLYLINE
  5
28FA7
330
A
100
AcDbEntity
  8
BUHIN-3
  6
HIDDEN
100
AcDbPolyline
 90
        2
 70
     0
 43
0.0
 10
211.1935550523249
 20
702.6692016181232
 10
210.840597052325
 20
702.8198936181233
  0
LWPOLYLINE
  5
28FA8
330
A
100
AcDbEntity
  8
BUHIN-3
  6
HIDDEN
100
AcDbPolyline
 90
        3
 70
     0
 43
0.0
 10
210.5984150523251
 20
702.8910836181232
 10
210.285685052325
 20
702.9477616181232
 10
209.9689490523252
 20
702.9667116181233
  0
LINE
  5
28FA9
330
A
100
AcDbEntity
  8
BUHIN-3
  6
HIDDEN
100
AcDbLine
 10
283.179131052325
 20
702.9657116181233
 30
0.0
 11
283.1878670523252
 21
702.9666436181233
 31
0.0
  0
LINE
  5
28FAA
330
A
100
AcDbEntity
  8
BUHIN-3
  6
HIDDEN
100
AcDbLine
 10
283.0277830523252
 20
702.9666436181233
 30
0.0
 11
283.0278290523253
 21
702.9659636181234
 31
0.0
  0
LWPOLYLINE
  5
28FAB
330
A
100
AcDbEntity
  8
BUHIN-3
  6
HIDDEN
100
AcDbPolyline
 90
        3
 70
     0
 43
0.0
 10
283.179131052325
 20
702.9657116181233
 10
283.0714450523252
 20
702.9418916181232
 10
283.0534170523252
 20
702.9440416181232
  0
LWPOLYLINE
  5
28FAC
330
A
100
AcDbEntity
  8
BUHIN-3
  6
HIDDEN
100
AcDbPolyline
 90
        7
 70
     0
 43
0.0
 10
283.3696150523252
 20
701.6901936181231
 10
283.4240470523251
 20
701.8181416181232
 10
283.6367750523251
 20
702.1801696181232
 10
284.0523250523253
 20
702.5303516181233
 10
284.2825290523252
 20
702.6775836181234
 10
284.522635052325
 20
702.7922096181232
 10
284.7627950523253
 20
702.8618536181234
  0
LINE
  5
28FAD
330
A
100
AcDbEntity
  8
BUHIN-3
  6
HIDDEN
100
AcDbLine
 10
283.6412850523251
 20
702.1853196181232
 30
0.0
 11
283.934011052325
 21
702.5196076181232
 31
0.0
  0
LINE
  5
28FAE
330
A
100
AcDbEntity
  8
BUHIN-3
  6
HIDDEN
100
AcDbLine
 10
283.3696570523251
 20
701.7276196181232
 30
0.0
 11
283.403641052325
 21
701.9597396181231
 31
0.0
  0
LWPOLYLINE
  5
28FAF
330
A
100
AcDbEntity
  8
BUHIN-3
  6
HIDDEN
100
AcDbPolyline
 90
        6
 70
     0
 43
0.0
 10
211.0030890523249
 20
702.7318536181232
 10
211.3003150523251
 20
702.5330696181233
 10
211.5291910523252
 20
702.3454556181234
 10
211.7435710523251
 20
702.1301976181232
 10
211.8839370523252
 20
701.9212716181232
 10
212.073751052325
 20
701.4413316181233
  0
LINE
  5
28FB0
330
A
100
AcDbEntity
  8
BUHIN-3
  6
HIDDEN
100
AcDbLine
 10
211.8371270523249
 20
702.0048216181232
 30
0.0
 11
212.0343290523252
 21
701.7286016181233
 31
0.0
  0
LINE
  5
28FB1
330
A
100
AcDbEntity
  8
BUHIN-3
  6
HIDDEN
100
AcDbLine
 10
210.591309052325
 20
702.8618996181233
 30
0.0
 11
210.8539750523251
 21
702.8126976181233
 31
0.0
  0
LWPOLYLINE
  5
28FB2
330
A
100
AcDbEntity
  8
BUHIN-3
  6
HIDDEN
100
AcDbPolyline
 90
        8
 70
     0
 43
0.0
 10
229.556843052325
 20
702.5292936181233
 10
230.342233052325
 20
702.3494716181232
 10
231.131599052325
 20
702.2225256181234
 10
231.6599010523251
 20
702.1734076181233
 10
232.191101052325
 20
702.1582356181234
 10
232.728217052325
 20
702.1838116181234
 10
233.1565930523253
 20
702.2393496181232
 10
233.8497190523249
 20
702.3882596181233
  0
LINE
  5
28FB3
330
A
100
AcDbEntity
  8
BUHIN-3
  6
HIDDEN
100
AcDbLine
 10
269.3775670523252
 20
687.7895376181234
 30
0.0
 11
269.488935052325
 21
687.8886056181234
 31
0.0
  0
LINE
  5
28FB4
330
A
100
AcDbEntity
  8
BUHIN-3
  6
HIDDEN
100
AcDbLine
 10
283.350697052325
 20
684.9666436181232
 30
0.0
 11
283.3698470523251
 21
701.8945116181233
 31
0.0
  0
LINE
  5
28FB5
330
A
100
AcDbEntity
  8
BUHIN-3
  6
HIDDEN
100
AcDbLine
 10
290.645803052325
 20
712.9666436181232
 30
0.0
 11
290.6474450523252
 21
703.4666456181232
 31
0.0
  0
LINE
  5
28FB6
330
A
100
AcDbEntity
  8
BUHIN-3
  6
HIDDEN
100
AcDbLine
 10
211.983907052325
 20
701.6903676181232
 30
0.0
 11
212.0006090523253
 21
684.9666436181232
 31
0.0
  0
LINE
  5
28FB7
330
A
100
AcDbEntity
  8
BUHIN-3
  6
HIDDEN
100
AcDbLine
 10
290.644635052325
 20
712.9666436181232
 30
0.0
 11
290.6474450523252
 21
703.4666436181232
 31
0.0
  0
LINE
  5
28FB8
330
A
100
AcDbEntity
  8
BUHIN-3
  6
HIDDEN
100
AcDbLine
 10
204.706585052325
 20
703.4666436181232
 30
0.0
 11
204.7082270523252
 21
712.9666436181232
 31
0.0
  0
INSERT
  5
296CB
330
A
100
AcDbEntity
  8
buhin-1
100
AcDbBlockReference
  2
box
 10
618.0412274777376
 20
327.4063250924732
 30
0.0
  0
VIEWPORT
  5
524
102
{ACAD_XDICTIONARY
360
29701
102
}
330
B
100
AcDbEntity
 67
     1
  8
0
 62
     0
 48
0.0
100
AcDbViewport
 10
141.3404235839843
 20
97.84291410446167
 30
0.0
 40
457.8553038891229
 41
222.1517806396485
 68
     1
 69
     1
 12
141.3404235839843
 22
97.84291410446167
 13
0.0
 23
0.0
 14
10.0
 24
10.0
 15
10.0
 25
10.0
 16
0.0
 26
0.0
 36
1.0
 17
0.0
 27
0.0
 37
0.0
 42
50.0
 43
0.0
 44
0.0
 45
222.1517806396485
 50
0.0
 51
0.0
 72
   100
 90
    32800
  1

281
     0
 71
     1
 74
     0
110
0.0
120
0.0
130
0.0
111
1.0
121
0.0
131
0.0
112
0.0
122
1.0
132
0.0
 79
     0
146
0.0
  0
VIEWPORT
  5
1B3E
102
{ACAD_XDICTIONARY
360
29707
102
}
330
B
100
AcDbEntity
 67
     1
  8
0
100
AcDbViewport
 10
141.8272612094879
 20
97.54658675193788
 30
0.0
 40
226.9236179351807
 41
156.0745388031006
 68
     2
 69
     2
 12
368.6858152382121
 22
148.4956205159299
 13
0.0
 23
0.0
 14
1.0
 24
1.0
 15
0.0
 25
0.0
 16
0.0
 26
0.0
 36
1.0
 17
0.0
 27
0.0
 37
0.0
 42
50.0
 43
0.0
 44
0.0
 45
503.4567151384995
 50
0.0
 51
0.0
 72
   100
 90
    32800
  1

281
     0
 71
     1
 74
     0
110
0.0
120
0.0
130
0.0
111
1.0
121
0.0
131
0.0
112
0.0
122
1.0
132
0.0
 79
     0
146
0.0
  0
ENDSEC
  0
SECTION
  2
OBJECTS
  0
DICTIONARY
  5
19
330
0
100
AcDbDictionary
281
     1
  3
ACAD_COLOR
350
132A
  3
ACAD_GROUP
350
1A
  3
ACAD_LAYOUT
350
132B
  3
ACAD_MATERIAL
350
1329
  3
ACAD_MLINESTYLE
350
1B
  3
ACAD_PLOTSETTINGS
350
132C
  3
ACAD_PLOTSTYLENAME
350
1327
  3
ACDBHEADERROUNDTRIPXREC
350
296FE
  3
AcDbVariableDictionary
350
296FA
  0
DICTIONARY
  5
29701
330
524
100
AcDbDictionary
280
     1
281
     1
  3
ACAD_XREC_ROUNDTRIP
360
29702
  0
DICTIONARY
  5
29707
330
1B3E
100
AcDbDictionary
280
     1
281
     1
  3
ACAD_XREC_ROUNDTRIP
360
29708
  0
DICTIONARY
  5
132A
102
{ACAD_REACTORS
330
19
102
}
330
19
100
AcDbDictionary
281
     1
  0
DICTIONARY
  5
1A
102
{ACAD_REACTORS
330
19
102
}
330
19
100
AcDbDictionary
281
     1
  0
DICTIONARY
  5
132B
102
{ACAD_REACTORS
330
19
102
}
330
19
100
AcDbDictionary
281
     1
  3
Model
350
132D
  3
レイアウト1
350
132E
  0
DICTIONARY
  5
1329
102
{ACAD_REACTORS
330
19
102
}
330
19
100
AcDbDictionary
281
     1
  0
DICTIONARY
  5
1B
102
{ACAD_REACTORS
330
19
102
}
330
19
100
AcDbDictionary
281
     1
  3
STANDARD
350
1C
  0
DICTIONARY
  5
132C
102
{ACAD_REACTORS
330
19
102
}
330
19
100
AcDbDictionary
281
     1
  0
ACDBDICTIONARYWDFLT
  5
1327
102
{ACAD_REACTORS
330
19
102
}
330
19
100
AcDbDictionary
281
     1
  3
Normal
350
1328
100
AcDbDictionaryWithDefault
340
1328
  0
DICTIONARY
  5
296FE
102
{ACAD_REACTORS
330
19
102
}
330
19
100
AcDbDictionary
281
     1
  3
COLORDICT
350
29700
  3
MATERIALDICT
350
296FF
  0
DICTIONARY
  5
296FA
102
{ACAD_REACTORS
330
19
102
}
330
19
100
AcDbDictionary
281
     1
  3
DIMASSOC
350
296FB
  3
PROJECTNAME
350
296FC
  0
XRECORD
  5
29702
102
{ACAD_REACTORS
330
29701
102
}
330
29701
100
AcDbXrecord
280
     1
102
SHADEPLOT
 70
     0
  0
XRECORD
  5
29708
102
{ACAD_REACTORS
330
29707
102
}
330
29707
100
AcDbXrecord
280
     1
102
SHADEPLOT
 70
     0
  0
LAYOUT
  5
132D
102
{ACAD_XDICTIONARY
360
29703
102
}
102
{ACAD_REACTORS
330
132B
102
}
330
132B
100
AcDbPlotSettings
  1

  2
Kyocera Mita KM-2531(J) KX
  4
A3
  6

 40
4.98475
 41
5.111747
 42
5.154082999999999
 43
4.984740999999999
 44
297.010651
 45
419.988983
 46
0.0
 47
59.52
 48
0.0
 49
0.0
140
1054.34491270428
141
1039.923833659722
142
1.0
143
3.62504703637261
 70
 11956
 72
     1
 73
     1
 74
     4
  7

 75
     0
147
0.2758584895495994
148
0.0
149
0.0
100
AcDbLayout
  1
Model
 70
     1
 71
     0
 10
0.0
 20
0.0
 11
12.0
 21
9.0
 12
0.0
 22
0.0
 32
0.0
 14
0.0
 24
0.0
 34
0.0
 15
0.0
 25
0.0
 35
0.0
146
0.0
 13
0.0
 23
0.0
 33
0.0
 16
1.0
 26
0.0
 36
0.0
 17
0.0
 27
1.0
 37
0.0
 76
     0
330
A
  0
LAYOUT
  5
132E
102
{ACAD_XDICTIONARY
360
29705
102
}
102
{ACAD_REACTORS
330
132B
102
}
330
132B
100
AcDbPlotSettings
  1

  2
\\jptkysdoco01\Kyocera Mita KM-2531 PCL5e
  4
A4
  6

 40
7.143749713897705
 41
6.170062541961669
 42
7.736404418945312
 43
7.14373779296875
 44
209.9733276367187
 45
296.9683227539062
 46
0.0
 47
0.0
 48
0.0
 49
0.0
140
0.0
141
0.0
142
1.0
143
1.0
 70
   688
 72
     1
 73
     1
 74
     5
  7

 75
    16
147
1.0
148
0.0
149
0.0
100
AcDbLayout
  1
レイアウト1
 70
     1
 71
     1
 10
-7.14373779296875
 20
-7.143749713897705
 11
289.8245849609375
 21
202.829577922821
 12
0.0
 22
0.0
 32
0.0
 14
28.36545224189757
 24
19.50931735038756
 34
0.0
 15
255.2890701770782
 25
175.5838561534881
 35
0.0
146
0.0
 13
0.0
 23
0.0
 33
0.0
 16
1.0
 26
0.0
 36
0.0
 17
0.0
 27
1.0
 37
0.0
 76
     0
330
B
331
524
  0
MLINESTYLE
  5
1C
102
{ACAD_REACTORS
330
1B
102
}
330
1B
100
AcDbMlineStyle
  2
STANDARD
 70
     0
  3

 62
     0
 51
90.0
 52
90.0
 71
     2
 49
0.5
 62
   256
  6
BYLAYER
 49
-0.5
 62
   256
  6
BYLAYER
  0
ACDBPLACEHOLDER
  5
1328
102
{ACAD_REACTORS
330
1327
102
}
330
1327
  0
XRECORD
  5
29700
102
{ACAD_REACTORS
330
296FE
102
}
330
296FE
100
AcDbXrecord
280
     1
340
132A
  0
XRECORD
  5
296FF
102
{ACAD_REACTORS
330
296FE
102
}
330
296FE
100
AcDbXrecord
280
     1
340
1329
  0
DICTIONARYVAR
  5
296FB
102
{ACAD_REACTORS
330
296FA
102
}
330
296FA
100
DictionaryVariables
280
     0
  1
1
  0
DICTIONARYVAR
  5
296FC
102
{ACAD_REACTORS
330
296FA
102
}
330
296FA
100
DictionaryVariables
280
     0
  1

  0
DICTIONARY
  5
29703
330
132D
100
AcDbDictionary
280
     1
281
     1
  3
ACAD_XREC_ROUNDTRIP
360
29704
  0
DICTIONARY
  5
29705
330
132E
100
AcDbDictionary
280
     1
281
     1
  3
ACAD_XREC_ROUNDTRIP
360
29706
  0
XRECORD
  5
29704
102
{ACAD_REACTORS
330
29703
102
}
330
29703
100
AcDbXrecord
280
     1
102
SHADEPLOT
 70
     1
102
SHADEPLOTRESLEVEL
 70
     2
102
SHADEPLOTCUSTOMDPI
 70
   300
  0
XRECORD
  5
29706
102
{ACAD_REACTORS
330
29705
102
}
330
29705
100
AcDbXrecord
280
     1
102
SHADEPLOT
 70
     0
102
SHADEPLOTRESLEVEL
 70
     2
102
SHADEPLOTCUSTOMDPI
 70
   300
  0
ENDSEC
  0
EOF
