  0
SECTION
  2
HEADER
  9
$ACADVER
  1
AC1009
  9
$INSBASE
 10
-150.22689893841991
 20
163.37916186577371
 30
0.0
  9
$EXTMIN
 10
0.0
 20
0.0
 30
0.0
  9
$EXTMAX
 10
759.1493103537332
 20
879.45437216578591
 30
0.0
  9
$LIMMIN
 10
0.0
 20
0.0
  9
$LIMMAX
 10
420.0
 20
297.0
  9
$ORTHOMODE
 70
     1
  9
$REGENMODE
 70
     1
  9
$FILLMODE
 70
     1
  9
$QTEXTMODE
 70
     0
  9
$MIRRTEXT
 70
     1
  9
$DRAGMODE
 70
     2
  9
$LTSCALE
 40
1.0
  9
$OSMODE
 70
   511
  9
$ATTMODE
 70
     1
  9
$TEXTSIZE
 40
0.0
  9
$TRACEWID
 40
1.0
  9
$TEXTSTYLE
  7
STANDARD
  9
$CLAYER
  8
BUHIN-1
  9
$CELTYPE
  6
BYLAYER
  9
$CECOLOR
 62
   256
  9
$DIMSCALE
 40
1.0
  9
$DIMASZ
 40
2.5
  9
$DIMEXO
 40
0.625
  9
$DIMDLI
 40
3.75
  9
$DIMRND
 40
0.0
  9
$DIMDLE
 40
0.0
  9
$DIMEXE
 40
1.25
  9
$DIMTP
 40
0.0
  9
$DIMTM
 40
0.0
  9
$DIMTXT
 40
2.5
  9
$DIMCEN
 40
2.5
  9
$DIMTSZ
 40
0.0
  9
$DIMTOL
 70
     0
  9
$DIMLIM
 70
     0
  9
$DIMTIH
 70
     0
  9
$DIMTOH
 70
     0
  9
$DIMSE1
 70
     0
  9
$DIMSE2
 70
     0
  9
$DIMTAD
 70
     1
  9
$DIMZIN
 70
     8
  9
$DIMBLK
  1
OPEN30
  9
$DIMASO
 70
     1
  9
$DIMSHO
 70
     1
  9
$DIMPOST
  1

  9
$DIMAPOST
  1

  9
$DIMALT
 70
     0
  9
$DIMALTD
 70
     3
  9
$DIMALTF
 40
0.039370079
  9
$DIMLFAC
 40
1.0
  9
$DIMTOFL
 70
     1
  9
$DIMTVP
 40
0.0
  9
$DIMTIX
 70
     0
  9
$DIMSOXD
 70
     0
  9
$DIMSAH
 70
     0
  9
$DIMBLK1
  1

  9
$DIMBLK2
  1

  9
$DIMSTYLE
  2
STANDARD
  9
$DIMCLRD
 70
     0
  9
$DIMCLRE
 70
     0
  9
$DIMCLRT
 70
     0
  9
$DIMTFAC
 40
1.0
  9
$DIMGAP
 40
0.625
  9
$LUNITS
 70
     2
  9
$LUPREC
 70
     4
  9
$SKETCHINC
 40
1.0
  9
$FILLETRAD
 40
0.0
  9
$AUNITS
 70
     0
  9
$AUPREC
 70
     0
  9
$MENU
  1
.
  9
$ELEVATION
 40
0.0
  9
$PELEVATION
 40
0.0
  9
$THICKNESS
 40
0.0
  9
$LIMCHECK
 70
     0
  9
$BLIPMODE
 70
     0
  9
$CHAMFERA
 40
2.5
  9
$CHAMFERB
 40
2.5
  9
$SKPOLY
 70
     0
  9
$TDCREATE
 40
2444972.375
  9
$TDUPDATE
 40
2454327.7421686109
  9
$TDINDWG
 40
0.6461634375000001
  9
$TDUSRTIMER
 40
0.6461634375000001
  9
$USRTIMER
 70
     1
  9
$ANGBASE
 50
180.0
  9
$ANGDIR
 70
     0
  9
$PDMODE
 70
     0
  9
$PDSIZE
 40
0.0
  9
$PLINEWID
 40
0.0
  9
$COORDS
 70
     1
  9
$SPLFRAME
 70
     0
  9
$SPLINETYPE
 70
     6
  9
$SPLINESEGS
 70
     8
  9
$ATTDIA
 70
     0
  9
$ATTREQ
 70
     1
  9
$HANDLING
 70
     1
  9
$HANDSEED
  5
2AC85
  9
$SURFTAB1
 70
     6
  9
$SURFTAB2
 70
     6
  9
$SURFTYPE
 70
     6
  9
$SURFU
 70
     6
  9
$SURFV
 70
     6
  9
$UCSNAME
  2

  9
$UCSORG
 10
0.0
 20
0.0
 30
0.0
  9
$UCSXDIR
 10
1.0
 20
0.0
 30
0.0
  9
$UCSYDIR
 10
0.0
 20
1.0
 30
0.0
  9
$PUCSNAME
  2

  9
$PUCSORG
 10
0.0
 20
0.0
 30
0.0
  9
$PUCSXDIR
 10
1.0
 20
0.0
 30
0.0
  9
$PUCSYDIR
 10
0.0
 20
1.0
 30
0.0
  9
$USERI1
 70
     0
  9
$USERI2
 70
     0
  9
$USERI3
 70
     0
  9
$USERI4
 70
     0
  9
$USERI5
 70
     0
  9
$USERR1
 40
0.0
  9
$USERR2
 40
0.0
  9
$USERR3
 40
0.0
  9
$USERR4
 40
0.0
  9
$USERR5
 40
0.0
  9
$WORLDVIEW
 70
     1
  9
$SHADEDGE
 70
     3
  9
$SHADEDIF
 70
    70
  9
$TILEMODE
 70
     1
  9
$MAXACTVP
 70
    48
  9
$PLIMCHECK
 70
     0
  9
$PEXTMIN
 10
28.365452241897572
 20
19.509317350387558
 30
0.0
  9
$PEXTMAX
 10
255.2890701770782
 20
175.58385615348811
 30
0.0
  9
$PLIMMIN
 10
-7.14373779296875
 20
-7.1437497138977051
  9
$PLIMMAX
 10
289.8245849609375
 20
202.82957792282099
  9
$UNITMODE
 70
     0
  9
$VISRETAIN
 70
     0
  9
$PLINEGEN
 70
     0
  9
$PSLTSCALE
 70
     1
  0
ENDSEC
  0
SECTION
  2
TABLES
  0
TABLE
  2
VPORT
 70
     2
  0
VPORT
  2
*ACTIVE
 70
     0
 10
0.0
 20
0.0
 11
1.0
 21
1.0
 12
974.08639655457341
 22
957.83383678316795
 13
0.0
 23
0.0
 14
1.0
 24
1.0
 15
0.0
 25
0.0
 16
0.0
 26
0.0
 36
1.0
 17
0.0
 27
0.0
 37
0.0
 40
2118.067420614062
 41
1.7724056603773579
 42
50.0
 43
0.0
 44
0.0
 50
0.0
 51
0.0
 71
     0
 72
   100
 73
     1
 74
     1
 75
     0
 76
     0
 77
     0
 78
     0
  0
ENDTAB
  0
TABLE
  2
LTYPE
 70
     3
  0
LTYPE
  2
CONTINUOUS
 70
     0
  3
Solid line
 72
    65
 73
     0
 40
0.0
  0
LTYPE
  2
DASHDOT
 70
     0
  3
Dash dot __ . __ . __ . __ . __ . __ . __ . __
 72
    65
 73
     4
 40
25.399999999999999
 49
12.699999999999999
 49
-6.3499999999999988
 49
0.0
 49
-6.3499999999999988
  0
LTYPE
  2
HIDDEN
 70
     0
  3
Hidden __ __ __ __ __ __ __ __ __ __ __ __ __ _
 72
    65
 73
     2
 40
9.5249999999999986
 49
6.3499999999999988
 49
-3.1749999999999989
  0
ENDTAB
  0
TABLE
  2
LAYER
 70
     6
  0
LAYER
  2
0
 70
     0
 62
     7
  6
CONTINUOUS
  0
LAYER
  2
DEFPOINTS
 70
     0
 62
     4
  6
CONTINUOUS
  0
LAYER
  2
BUHIN-1
 70
     0
 62
     7
  6
CONTINUOUS
  0
LAYER
  2
BUHIN-2
 70
     0
 62
     3
  6
CONTINUOUS
  0
LAYER
  2
BUHIN-3
 70
     0
 62
     5
  6
CONTINUOUS
  0
LAYER
  2
BUHIN
 70
     0
 62
     6
  6
CONTINUOUS
  0
ENDTAB
  0
TABLE
  2
STYLE
 70
     1
  0
STYLE
  2
STANDARD
 70
     0
 40
0.0
 41
1.0
 50
0.0
 71
     0
 42
0.0
  3
txt
  4

  0
ENDTAB
  0
TABLE
  2
VIEW
 70
     0
  0
ENDTAB
  0
TABLE
  2
UCS
 70
     0
  0
ENDTAB
  0
TABLE
  2
APPID
 70
     1
  0
APPID
  2
ACAD
 70
     0
  0
ENDTAB
  0
TABLE
  2
DIMSTYLE
 70
     1
  0
DIMSTYLE
  2
STANDARD
 70
     0
  3

  4

  5
OPEN30
  6

  7

 40
1.0
 41
2.5
 42
0.625
 43
3.75
 44
1.25
 45
0.0
 46
0.0
 47
0.0
 48
0.0
140
2.5
141
2.5
142
0.0
143
0.039370079
144
1.0
145
0.0
146
1.0
147
0.625
 71
     0
 72
     0
 73
     0
 74
     0
 75
     0
 76
     0
 77
     1
 78
     8
170
     0
171
     3
172
     1
173
     0
174
     0
175
     0
176
     0
177
     0
178
     0
  0
ENDTAB
  0
ENDSEC
  0
SECTION
  2
BLOCKS
  0
BLOCK
  8
0
  2
$MODEL_SPACE
 70
     0
 10
0.0
 20
0.0
 30
0.0
  3
$MODEL_SPACE
  1

  0
ENDBLK
  5
E
  8
0
  0
BLOCK
 67
     1
  8
0
  2
$PAPER_SPACE
 70
     0
 10
0.0
 20
0.0
 30
0.0
  3
$PAPER_SPACE
  1

  0
ENDBLK
  5
10
 67
     1
  8
0
  0
BLOCK
  8
0
  6
CONTINUOUS
 62
     7
  2
XH19
 70
     0
 10
0.0
 20
0.0
 30
0.0
  3
XH19
  1

  0
ENDBLK
  5
148A
  8
0
  0
BLOCK
  8
0
  6
CONTINUOUS
 62
     7
  2
XH21
 70
     0
 10
0.0
 20
0.0
 30
0.0
  3
XH21
  1

  0
ENDBLK
  5
148D
  8
0
  0
BLOCK
  8
0
  6
CONTINUOUS
 62
     7
  2
XH30
 70
     0
 10
0.0
 20
0.0
 30
0.0
  3
XH30
  1

  0
ENDBLK
  5
1490
  8
0
  0
BLOCK
  8
0
  6
CONTINUOUS
 62
     7
  2
XH32
 70
     0
 10
0.0
 20
0.0
 30
0.0
  3
XH32
  1

  0
ENDBLK
  5
1493
  8
0
  0
BLOCK
  8
0
  6
CONTINUOUS
 62
     7
  2
XH33
 70
     0
 10
0.0
 20
0.0
 30
0.0
  3
XH33
  1

  0
ENDBLK
  5
1496
  8
0
  0
BLOCK
  8
0
  6
CONTINUOUS
 62
     7
  2
XH39
 70
     0
 10
0.0
 20
0.0
 30
0.0
  3
XH39
  1

  0
ENDBLK
  5
1499
  8
0
  0
BLOCK
  8
0
  6
CONTINUOUS
 62
     7
  2
XH40
 70
     0
 10
0.0
 20
0.0
 30
0.0
  3
XH40
  1

  0
ENDBLK
  5
149C
  8
0
  0
BLOCK
  8
0
  6
CONTINUOUS
 62
     7
  2
XH42
 70
     0
 10
0.0
 20
0.0
 30
0.0
  3
XH42
  1

  0
ENDBLK
  5
149F
  8
0
  0
BLOCK
  8
0
  6
CONTINUOUS
 62
     7
  2
XH43
 70
     0
 10
0.0
 20
0.0
 30
0.0
  3
XH43
  1

  0
ENDBLK
  5
14A2
  8
0
  0
BLOCK
  8
0
  6
CONTINUOUS
 62
     7
  2
XH44
 70
     0
 10
0.0
 20
0.0
 30
0.0
  3
XH44
  1

  0
ENDBLK
  5
14A5
  8
0
  0
BLOCK
  8
0
  6
CONTINUOUS
 62
     7
  2
XH45
 70
     0
 10
0.0
 20
0.0
 30
0.0
  3
XH45
  1

  0
ENDBLK
  5
14A8
  8
0
  0
BLOCK
  8
0
  6
CONTINUOUS
 62
     7
  2
XH46
 70
     0
 10
0.0
 20
0.0
 30
0.0
  3
XH46
  1

  0
ENDBLK
  5
14AB
  8
0
  0
BLOCK
  8
0
  6
CONTINUOUS
 62
     7
  2
XH47
 70
     0
 10
0.0
 20
0.0
 30
0.0
  3
XH47
  1

  0
ENDBLK
  5
14AE
  8
0
  0
BLOCK
  8
0
  6
CONTINUOUS
 62
     7
  2
XH48
 70
     0
 10
0.0
 20
0.0
 30
0.0
  3
XH48
  1

  0
ENDBLK
  5
14B1
  8
0
  0
BLOCK
  8
0
  6
CONTINUOUS
 62
     7
  2
XH49
 70
     0
 10
0.0
 20
0.0
 30
0.0
  3
XH49
  1

  0
ENDBLK
  5
14B4
  8
0
  0
BLOCK
  8
0
  6
CONTINUOUS
 62
     7
  2
XH50
 70
     0
 10
0.0
 20
0.0
 30
0.0
  3
XH50
  1

  0
ENDBLK
  5
14B7
  8
0
  0
BLOCK
  8
0
  6
CONTINUOUS
 62
     7
  2
XH51
 70
     0
 10
0.0
 20
0.0
 30
0.0
  3
XH51
  1

  0
ENDBLK
  5
14BA
  8
0
  0
BLOCK
  8
0
  6
CONTINUOUS
 62
     7
  2
XH52
 70
     0
 10
0.0
 20
0.0
 30
0.0
  3
XH52
  1

  0
ENDBLK
  5
14BD
  8
0
  0
BLOCK
  8
0
  6
CONTINUOUS
 62
     7
  2
XH53
 70
     0
 10
0.0
 20
0.0
 30
0.0
  3
XH53
  1

  0
ENDBLK
  5
14C0
  8
0
  0
BLOCK
  8
0
  6
CONTINUOUS
 62
     7
  2
XH54
 70
     0
 10
0.0
 20
0.0
 30
0.0
  3
XH54
  1

  0
ENDBLK
  5
14C3
  8
0
  0
BLOCK
  8
0
  6
CONTINUOUS
 62
     7
  2
XH55
 70
     0
 10
0.0
 20
0.0
 30
0.0
  3
XH55
  1

  0
ENDBLK
  5
14C6
  8
0
  0
BLOCK
  8
0
  6
CONTINUOUS
 62
     7
  2
XH56
 70
     0
 10
0.0
 20
0.0
 30
0.0
  3
XH56
  1

  0
ENDBLK
  5
14C9
  8
0
  0
BLOCK
  8
0
  6
CONTINUOUS
 62
     7
  2
XH57
 70
     0
 10
0.0
 20
0.0
 30
0.0
  3
XH57
  1

  0
ENDBLK
  5
14CC
  8
0
  0
BLOCK
  8
0
  6
CONTINUOUS
 62
     7
  2
XH58
 70
     0
 10
0.0
 20
0.0
 30
0.0
  3
XH58
  1

  0
ENDBLK
  5
14CF
  8
0
  0
BLOCK
  8
0
  6
CONTINUOUS
 62
     7
  2
XH76
 70
     0
 10
0.0
 20
0.0
 30
0.0
  3
XH76
  1

  0
ENDBLK
  5
14D2
  8
0
  0
BLOCK
  8
0
  6
CONTINUOUS
 62
     7
  2
XH102
 70
     0
 10
0.0
 20
0.0
 30
0.0
  3
XH102
  1

  0
ENDBLK
  5
14D5
  8
0
  0
BLOCK
  8
0
  6
CONTINUOUS
 62
     7
  2
XH103
 70
     0
 10
0.0
 20
0.0
 30
0.0
  3
XH103
  1

  0
ENDBLK
  5
14D8
  8
0
  0
BLOCK
  8
0
  6
CONTINUOUS
 62
     7
  2
XH104
 70
     0
 10
0.0
 20
0.0
 30
0.0
  3
XH104
  1

  0
ENDBLK
  5
14DB
  8
0
  0
BLOCK
  8
0
  6
CONTINUOUS
 62
     7
  2
XH105
 70
     0
 10
0.0
 20
0.0
 30
0.0
  3
XH105
  1

  0
ENDBLK
  5
14DE
  8
0
  0
BLOCK
  8
0
  6
CONTINUOUS
 62
     7
  2
XH106
 70
     0
 10
0.0
 20
0.0
 30
0.0
  3
XH106
  1

  0
ENDBLK
  5
14E1
  8
0
  0
BLOCK
  8
0
  6
CONTINUOUS
 62
     7
  2
XH107
 70
     0
 10
0.0
 20
0.0
 30
0.0
  3
XH107
  1

  0
ENDBLK
  5
14E4
  8
0
  0
BLOCK
  8
0
  6
CONTINUOUS
 62
     7
  2
XH108
 70
     0
 10
0.0
 20
0.0
 30
0.0
  3
XH108
  1

  0
ENDBLK
  5
14E7
  8
0
  0
BLOCK
  8
0
  6
CONTINUOUS
 62
     7
  2
XH109
 70
     0
 10
0.0
 20
0.0
 30
0.0
  3
XH109
  1

  0
ENDBLK
  5
14EA
  8
0
  0
BLOCK
  8
0
  6
CONTINUOUS
 62
     7
  2
XH127
 70
     0
 10
0.0
 20
0.0
 30
0.0
  3
XH127
  1

  0
ENDBLK
  5
14ED
  8
0
  0
BLOCK
  8
0
  6
CONTINUOUS
 62
     7
  2
XH211
 70
     0
 10
0.0
 20
0.0
 30
0.0
  3
XH211
  1

  0
ENDBLK
  5
14F0
  8
0
  0
BLOCK
  8
0
  6
CONTINUOUS
 62
     7
  2
XH218
 70
     0
 10
0.0
 20
0.0
 30
0.0
  3
XH218
  1

  0
ENDBLK
  5
14F3
  8
0
  0
BLOCK
  8
0
  6
CONTINUOUS
 62
     7
  2
XH221
 70
     0
 10
0.0
 20
0.0
 30
0.0
  3
XH221
  1

  0
ENDBLK
  5
14F6
  8
0
  0
BLOCK
  8
0
  6
CONTINUOUS
 62
     7
  2
XH225
 70
     0
 10
0.0
 20
0.0
 30
0.0
  3
XH225
  1

  0
ENDBLK
  5
14F9
  8
0
  0
BLOCK
  8
0
  2
_OPEN30
 70
     0
 10
0.0
 20
0.0
 30
0.0
  3
_OPEN30
  1

  0
LINE
  5
5320
  8
0
  6
BYBLOCK
 62
     0
 10
-1.0
 20
0.26794919
 30
0.0
 11
0.0
 21
0.0
 31
0.0
  0
LINE
  5
5321
  8
0
  6
BYBLOCK
 62
     0
 10
0.0
 20
0.0
 30
0.0
 11
-1.0
 21
-0.26794919
 31
0.0
  0
LINE
  5
5322
  8
0
  6
BYBLOCK
 62
     0
 10
0.0
 20
0.0
 30
0.0
 11
-1.0
 21
0.0
 31
0.0
  0
ENDBLK
  5
5323
  8
0
  0
BLOCK
  8
0
  2
BOX
 70
     0
 10
0.0
 20
0.0
 30
0.0
  3
BOX
  1

  0
LINE
  5
2A5C4
  8
BUHIN-1
 10
-41.000003814697259
 20
61.0
 30
0.0
 11
-48.000003814697259
 21
61.0
 31
0.0
  0
LINE
  5
2A5C5
  8
BUHIN-1
 10
-41.000003814697259
 20
-61.0
 30
0.0
 11
-73.365434000000391
 21
-60.999999999999943
 31
0.0
  0
LINE
  5
2A5C6
  8
BUHIN-1
 10
32.267471790313721
 20
60.875522613525327
 30
0.0
 11
32.245400190353401
 21
60.883998870849553
 31
0.0
  0
LINE
  5
2A5C7
  8
BUHIN-1
 10
32.369302272796631
 20
60.833286285400341
 30
0.0
 11
32.24598447559265
 21
60.884434927922428
 31
0.0
  0
LINE
  5
2A5C8
  8
BUHIN-1
 10
32.493113333411429
 20
60.778879546256739
 30
0.0
 11
32.369302272796631
 21
60.833286285400341
 31
0.0
  0
POINT
  5
2A5C9
  8
BUHIN-1
 10
-64.284984588623047
 20
-61.0
 30
0.0
  0
POINT
  5
2A5CA
  8
BUHIN-1
 10
-61.284984588623047
 20
-61.0
 30
0.0
  0
ARC
  5
2A5CB
  8
BUHIN-1
 10
32.999996185302741
 20
59.781318664550717
 30
0.0
 40
1.0
 50
359.999999316757
 51
90.277191388328546
  0
LINE
  5
2A5CC
  8
BUHIN-1
 10
-48.000003814697259
 20
61.5
 30
0.0
 11
-48.000003814697259
 21
-61.0
 31
0.0
  0
LINE
  5
2A5CD
  8
BUHIN-1
 10
-48.000003814697259
 20
61.5
 30
0.0
 11
-73.365434000000278
 21
61.500000000000107
 31
0.0
  0
LINE
  5
2A5CE
  8
BUHIN-1
  6
DASHDOT
 10
35.879117131233222
 20
-0.0000000000000568
 30
0.0
 11
-73.365434000000391
 21
0.0
 31
0.0
  0
LINE
  5
2A5CF
  8
BUHIN-1
  6
DASHDOT
 10
-35.000003814697273
 20
-68.597564697265625
 30
0.0
 11
-42.000003814697273
 21
-68.597564697265625
 31
0.0
  0
LINE
  5
2A5D0
  8
BUHIN-1
 10
-36.000003814697273
 20
-67.815673828125
 30
0.0
 11
-41.000003814697259
 21
-67.815673828125
 31
0.0
  0
LINE
  5
2A5D1
  8
BUHIN-1
 10
-41.000003814697259
 20
61.0
 30
0.0
 11
-41.000003814697259
 21
-73.296768188476562
 31
0.0
  0
LINE
  5
2A5D2
  8
BUHIN-1
 10
-36.000003814697273
 20
-73.296768188476591
 30
0.0
 11
-41.000003814697259
 21
-73.296768188476562
 31
0.0
  0
LINE
  5
2A5D3
  8
BUHIN-1
 10
-36.000003814697273
 20
61.0
 30
0.0
 11
-36.000003814697273
 21
-73.296768188476591
 31
0.0
  0
LINE
  5
2A5D4
  8
BUHIN-1
 10
-36.000003814697273
 20
73.296768188476562
 30
0.0
 11
-41.000003814697259
 21
73.296768188476562
 31
0.0
  0
LINE
  5
2A5D5
  8
BUHIN-1
  6
DASHDOT
 10
-35.000003814697273
 20
68.597564697265625
 30
0.0
 11
-42.000003814697273
 21
68.597564697265625
 31
0.0
  0
LINE
  5
2A5D6
  8
BUHIN-1
 10
-41.000003814697259
 20
73.296768188476562
 30
0.0
 11
-41.000003814697259
 21
61.0
 31
0.0
  0
LINE
  5
2A5D7
  8
BUHIN-1
 10
-36.000003814697273
 20
67.815673828125
 30
0.0
 11
-41.000003814697259
 21
67.815673828125
 31
0.0
  0
LINE
  5
2A5D8
  8
BUHIN-1
 10
33.401363670619048
 20
-61.00000000000005
 30
0.0
 11
-36.000003814697273
 21
-61.0
 31
0.0
  0
LINE
  5
2A5D9
  8
BUHIN-1
 10
-36.000003814697273
 20
73.296768188476562
 30
0.0
 11
-36.000003814697273
 21
61.0
 31
0.0
  0
LINE
  5
2A5DA
  8
BUHIN-1
 10
32.995158314704902
 20
60.781307220458928
 30
0.0
 11
32.493113333411429
 21
60.778879546256739
 31
0.0
  0
LINE
  5
2A5DB
  8
BUHIN-1
 10
33.999996185302727
 20
59.781318664550717
 30
0.0
 11
33.999996185302727
 21
-59.781318664550831
 31
0.0
  0
ARC
  5
2A5DC
  8
BUHIN-1
 10
31.50000977516175
 20
-58.500080108642642
 30
0.0
 40
2.4999203681945801
 50
287.40011719355851
 51
292.60045756825872
  0
ARC
  5
2A5DD
  8
BUHIN-1
 10
31.499996185302731
 20
-58.50000000000005
 30
0.0
 40
2.5
 50
292.60002043614782
 51
294.2700808556541
  0
LINE
  5
2A5DE
  8
BUHIN-1
 10
32.527592132930522
 20
-60.779045100128421
 30
0.0
 11
32.995158314704902
 21
-60.781307220459041
 31
0.0
  0
LINE
  5
2A5DF
  8
BUHIN-1
 10
32.598632514706431
 20
60.999999999999943
 30
0.0
 11
-36.000003814697273
 21
61.0
 31
0.0
  0
ARC
  5
2A5E0
  8
BUHIN-1
 10
32.999996185302741
 20
-59.781318664550831
 30
0.0
 40
1.0
 50
269.72280939238271
 51
359.999999316757
  0
CIRCLE
  5
2A5E1
  8
BUHIN-1
 10
12.0
 20
-0.0000000000000568
 30
0.0
 40
16.75
  0
CIRCLE
  5
2A5E2
  8
BUHIN-1
 10
12.0
 20
-0.0000000000000568
 30
0.0
 40
15.75
  0
CIRCLE
  5
2A5E3
  8
BUHIN-1
 10
12.0
 20
-0.0000000000000568
 30
0.0
 40
12.060000419616699
  0
LINE
  5
2A5E4
  8
BUHIN-1
  6
DASHDOT
 10
11.999996185302731
 20
67.555892944335938
 30
0.0
 11
11.999996185302731
 21
-67.634559631347656
 31
0.0
  0
LINE
  5
2A5E5
  8
BUHIN-1
 10
-10.00000381469726
 20
63.0
 30
0.0
 11
-10.00000381469726
 21
61.599998474121087
 31
0.0
  0
LINE
  5
2A5E6
  8
BUHIN-1
 10
33.999996185302727
 20
62.999999999999943
 30
0.0
 11
-10.00000381469726
 21
63.0
 31
0.0
  0
LINE
  5
2A5E7
  8
BUHIN-1
 10
33.999996185302727
 20
62.999999999999943
 30
0.0
 11
33.999996185302727
 21
61.599998474121037
 31
0.0
  0
LINE
  5
2A5E8
  8
BUHIN-1
 10
33.399996161460876
 20
60.999999999999943
 30
0.0
 11
32.599996209144592
 21
60.999999999999943
 31
0.0
  0
ARC
  5
2A5E9
  8
BUHIN-1
 10
-9.4000053405761719
 20
61.599998474121087
 30
0.0
 40
0.6000000238418579
 50
179.9999974955247
 51
270.0
  0
ARC
  5
2A5EA
  8
BUHIN-1
 10
33.399996161460876
 20
61.599998474121037
 30
0.0
 40
0.6000000238418579
 50
269.99998998208611
 51
359.999999316757
  0
ARC
  5
2A5EB
  8
BUHIN-1
 10
32.599996209144592
 20
60.400001525878849
 30
0.0
 40
0.6000000238418579
 50
89.999994991049576
 51
126.15839430275589
  0
ARC
  5
2A5EC
  8
BUHIN-1
 10
-9.4000015258789062
 20
-61.599998474121087
 30
0.0
 40
0.6000000238418579
 50
89.999994991049576
 51
179.9999974955247
  0
LINE
  5
2A5ED
  8
BUHIN-1
 10
-10.0
 20
-61.599998474121087
 30
0.0
 11
-10.0
 21
-63.0
 31
0.0
  0
LINE
  5
2A5EE
  8
BUHIN-1
 10
34.0
 20
-63.000000000000057
 30
0.0
 11
-10.0
 21
-63.0
 31
0.0
  0
ARC
  5
2A5EF
  8
BUHIN-1
 10
32.600000023841858
 20
-60.40000152587897
 30
0.0
 40
0.6000000238418579
 50
234.03115099869549
 51
270.0
  0
ARC
  5
2A5F0
  8
BUHIN-1
 10
33.399999976158149
 20
-61.599998474121151
 30
0.0
 40
0.6000000238418579
 50
359.999999316757
 51
89.999994991049576
  0
LINE
  5
2A5F1
  8
BUHIN-1
 10
34.0
 20
-61.599998474121151
 30
0.0
 11
34.0
 21
-63.000000000000057
 31
0.0
  0
LINE
  5
2A5F2
  8
DEFPOINTS
 10
0.0
 20
79.690372964338167
 30
0.0
 11
0.0
 21
-82.871645846443286
 31
0.0
  0
ENDBLK
  5
1BB12
  8
0
  0
BLOCK
  8
0
  2
*U40
 70
     1
 10
0.0
 20
0.0
 30
0.0
  3
*U40
  1

  0
TEXT
  5
2A639
  8
BUHIN-1
 10
588.57120359637736
 20
195.31775862599309
 30
0.0
 40
5.0
  1
82-110
  0
ENDBLK
  5
2A63B
  8
0
  0
BLOCK
  8
0
  2
*U41
 70
     1
 10
0.0
 20
0.0
 30
0.0
  3
*U41
  1

  0
TEXT
  5
2A63D
  8
BUHIN-1
 10
575.04627994626412
 20
187.45735253462249
 30
0.0
 40
5.0
  1
調整しろ:28
  0
TEXT
  5
2A63E
  8
BUHIN-1
 10
610.78232055540116
 20
187.45735253462249
 30
0.0
 40
5.0
  1
mm
  0
ENDBLK
  5
2A640
  8
0
  0
ENDSEC
  0
SECTION
  2
ENTITIES
  0
TEXT
  5
18E9
  8
0
 62
     7
 10
-77.678067999999982
 20
49.186545999999993
 30
0.0
 40
2.5
  1

 41
0.75
 11
-77.678067999999982
 21
50.436545999999993
 31
0.0
 73
     2
  0
TEXT
  5
18EE
  8
0
 62
     7
 10
-77.678067999999982
 20
54.186545999999993
 30
0.0
 40
2.5
  1

 41
0.75
 11
-77.678067999999982
 21
55.436545999999993
 31
0.0
 73
     2
  0
TEXT
  5
18F3
  8
0
 62
     7
 10
-77.678067999999982
 20
59.186545999999993
 30
0.0
 40
2.5
  1

 41
0.75
 11
-77.678067999999982
 21
60.436545999999993
 31
0.0
 73
     2
  0
TEXT
  5
18F8
  8
0
 62
     7
 10
-77.678067999999982
 20
64.186545999999993
 30
0.0
 40
2.5
  1

 41
0.75
 11
-77.678067999999982
 21
65.436545999999993
 31
0.0
 73
     2
  0
TEXT
  5
18FD
  8
0
 62
     7
 10
-77.678067999999982
 20
69.186545999999993
 30
0.0
 40
2.5
  1

 41
0.75
 11
-77.678067999999982
 21
70.436545999999993
 31
0.0
 73
     2
  0
TEXT
  5
1902
  8
0
 62
     7
 10
-77.678067999999982
 20
74.186545999999993
 30
0.0
 40
2.5
  1

 41
0.75
 11
-77.678067999999982
 21
75.436545999999993
 31
0.0
 73
     2
  0
INSERT
  5
1905
  8
0
 62
     7
  2
XH19
 10
0.0
 20
0.0
 30
0.0
  0
INSERT
  5
1906
  8
0
 62
     7
  2
XH21
 10
0.0
 20
0.0
 30
0.0
  0
INSERT
  5
1907
  8
0
 62
     7
  2
XH30
 10
0.0
 20
0.0
 30
0.0
  0
INSERT
  5
1908
  8
0
 62
     7
  2
XH32
 10
0.0
 20
0.0
 30
0.0
  0
INSERT
  5
1909
  8
0
 62
     7
  2
XH33
 10
0.0
 20
0.0
 30
0.0
  0
INSERT
  5
190A
  8
0
 62
     7
  2
XH39
 10
0.0
 20
0.0
 30
0.0
  0
INSERT
  5
190B
  8
0
 62
     7
  2
XH40
 10
0.0
 20
0.0
 30
0.0
  0
INSERT
  5
190C
  8
0
 62
     7
  2
XH42
 10
0.0
 20
0.0
 30
0.0
  0
INSERT
  5
190D
  8
0
 62
     7
  2
XH43
 10
0.0
 20
0.0
 30
0.0
  0
INSERT
  5
190E
  8
0
 62
     7
  2
XH44
 10
0.0
 20
0.0
 30
0.0
  0
INSERT
  5
190F
  8
0
 62
     7
  2
XH45
 10
0.0
 20
0.0
 30
0.0
  0
INSERT
  5
1910
  8
0
 62
     7
  2
XH46
 10
0.0
 20
0.0
 30
0.0
  0
INSERT
  5
1911
  8
0
 62
     7
  2
XH47
 10
0.0
 20
0.0
 30
0.0
  0
INSERT
  5
1912
  8
0
 62
     7
  2
XH48
 10
0.0
 20
0.0
 30
0.0
  0
INSERT
  5
1913
  8
0
 62
     7
  2
XH49
 10
0.0
 20
0.0
 30
0.0
  0
INSERT
  5
1914
  8
0
 62
     7
  2
XH50
 10
0.0
 20
0.0
 30
0.0
  0
INSERT
  5
1915
  8
0
 62
     7
  2
XH51
 10
0.0
 20
0.0
 30
0.0
  0
INSERT
  5
1916
  8
0
 62
     7
  2
XH52
 10
0.0
 20
0.0
 30
0.0
  0
INSERT
  5
1917
  8
0
 62
     7
  2
XH53
 10
0.0
 20
0.0
 30
0.0
  0
INSERT
  5
1918
  8
0
 62
     7
  2
XH54
 10
0.0
 20
0.0
 30
0.0
  0
INSERT
  5
1919
  8
0
 62
     7
  2
XH55
 10
0.0
 20
0.0
 30
0.0
  0
INSERT
  5
191A
  8
0
 62
     7
  2
XH56
 10
0.0
 20
0.0
 30
0.0
  0
INSERT
  5
191B
  8
0
 62
     7
  2
XH57
 10
0.0
 20
0.0
 30
0.0
  0
INSERT
  5
191C
  8
0
 62
     7
  2
XH58
 10
0.0
 20
0.0
 30
0.0
  0
INSERT
  5
191D
  8
0
 62
     7
  2
XH76
 10
0.0
 20
0.0
 30
0.0
  0
INSERT
  5
191E
  8
0
 62
     7
  2
XH102
 10
0.0
 20
0.0
 30
0.0
  0
INSERT
  5
191F
  8
0
 62
     7
  2
XH103
 10
0.0
 20
0.0
 30
0.0
  0
INSERT
  5
1920
  8
0
 62
     7
  2
XH104
 10
0.0
 20
0.0
 30
0.0
  0
INSERT
  5
1921
  8
0
 62
     7
  2
XH105
 10
0.0
 20
0.0
 30
0.0
  0
INSERT
  5
1922
  8
0
 62
     7
  2
XH106
 10
0.0
 20
0.0
 30
0.0
  0
INSERT
  5
1923
  8
0
 62
     7
  2
XH107
 10
0.0
 20
0.0
 30
0.0
  0
INSERT
  5
1924
  8
0
 62
     7
  2
XH108
 10
0.0
 20
0.0
 30
0.0
  0
INSERT
  5
1925
  8
0
 62
     7
  2
XH109
 10
0.0
 20
0.0
 30
0.0
  0
INSERT
  5
1926
  8
0
 62
     7
  2
XH127
 10
0.0
 20
0.0
 30
0.0
  0
INSERT
  5
1927
  8
0
 62
     7
  2
XH211
 10
0.0
 20
0.0
 30
0.0
  0
INSERT
  5
1928
  8
0
 62
     7
  2
XH218
 10
0.0
 20
0.0
 30
0.0
  0
INSERT
  5
1929
  8
0
 62
     7
  2
XH221
 10
0.0
 20
0.0
 30
0.0
  0
INSERT
  5
192A
  8
0
 62
     7
  2
XH225
 10
0.0
 20
0.0
 30
0.0
  0
TEXT
  5
1B73
  8
0
 62
     7
 10
-77.678067999999982
 20
49.186545999999993
 30
0.0
 40
2.5
  1

 41
0.75
 11
-77.678067999999982
 21
50.436545999999993
 31
0.0
 73
     2
  0
TEXT
  5
1B74
  8
0
 62
     7
 10
-77.678067999999982
 20
54.186545999999993
 30
0.0
 40
2.5
  1

 41
0.75
 11
-77.678067999999982
 21
55.436545999999993
 31
0.0
 73
     2
  0
TEXT
  5
1B75
  8
0
 62
     7
 10
-77.678067999999982
 20
59.186545999999993
 30
0.0
 40
2.5
  1

 41
0.75
 11
-77.678067999999982
 21
60.436545999999993
 31
0.0
 73
     2
  0
TEXT
  5
1B76
  8
0
 62
     7
 10
-77.678067999999982
 20
64.186545999999993
 30
0.0
 40
2.5
  1

 41
0.75
 11
-77.678067999999982
 21
65.436545999999993
 31
0.0
 73
     2
  0
TEXT
  5
1B77
  8
0
 62
     7
 10
-77.678067999999982
 20
69.186545999999993
 30
0.0
 40
2.5
  1

 41
0.75
 11
-77.678067999999982
 21
70.436545999999993
 31
0.0
 73
     2
  0
TEXT
  5
1B78
  8
0
 62
     7
 10
-77.678067999999982
 20
74.186545999999993
 30
0.0
 40
2.5
  1

 41
0.75
 11
-77.678067999999982
 21
75.436545999999993
 31
0.0
 73
     2
  0
INSERT
  5
1B79
  8
0
 62
     7
  2
XH19
 10
0.0
 20
0.0
 30
0.0
  0
INSERT
  5
1B7A
  8
0
 62
     7
  2
XH21
 10
0.0
 20
0.0
 30
0.0
  0
INSERT
  5
1B7B
  8
0
 62
     7
  2
XH30
 10
0.0
 20
0.0
 30
0.0
  0
INSERT
  5
1B7C
  8
0
 62
     7
  2
XH32
 10
0.0
 20
0.0
 30
0.0
  0
INSERT
  5
1B7D
  8
0
 62
     7
  2
XH33
 10
0.0
 20
0.0
 30
0.0
  0
INSERT
  5
1B7E
  8
0
 62
     7
  2
XH39
 10
0.0
 20
0.0
 30
0.0
  0
INSERT
  5
1B7F
  8
0
 62
     7
  2
XH40
 10
0.0
 20
0.0
 30
0.0
  0
INSERT
  5
1B80
  8
0
 62
     7
  2
XH42
 10
0.0
 20
0.0
 30
0.0
  0
INSERT
  5
1B81
  8
0
 62
     7
  2
XH43
 10
0.0
 20
0.0
 30
0.0
  0
INSERT
  5
1B82
  8
0
 62
     7
  2
XH44
 10
0.0
 20
0.0
 30
0.0
  0
INSERT
  5
1B83
  8
0
 62
     7
  2
XH45
 10
0.0
 20
0.0
 30
0.0
  0
INSERT
  5
1B84
  8
0
 62
     7
  2
XH46
 10
0.0
 20
0.0
 30
0.0
  0
INSERT
  5
1B85
  8
0
 62
     7
  2
XH47
 10
0.0
 20
0.0
 30
0.0
  0
INSERT
  5
1B86
  8
0
 62
     7
  2
XH48
 10
0.0
 20
0.0
 30
0.0
  0
INSERT
  5
1B87
  8
0
 62
     7
  2
XH49
 10
0.0
 20
0.0
 30
0.0
  0
INSERT
  5
1B88
  8
0
 62
     7
  2
XH50
 10
0.0
 20
0.0
 30
0.0
  0
INSERT
  5
1B89
  8
0
 62
     7
  2
XH51
 10
0.0
 20
0.0
 30
0.0
  0
INSERT
  5
1B8A
  8
0
 62
     7
  2
XH52
 10
0.0
 20
0.0
 30
0.0
  0
INSERT
  5
1B8B
  8
0
 62
     7
  2
XH53
 10
0.0
 20
0.0
 30
0.0
  0
INSERT
  5
1B8C
  8
0
 62
     7
  2
XH54
 10
0.0
 20
0.0
 30
0.0
  0
INSERT
  5
1B8D
  8
0
 62
     7
  2
XH55
 10
0.0
 20
0.0
 30
0.0
  0
INSERT
  5
1B8E
  8
0
 62
     7
  2
XH56
 10
0.0
 20
0.0
 30
0.0
  0
INSERT
  5
1B8F
  8
0
 62
     7
  2
XH57
 10
0.0
 20
0.0
 30
0.0
  0
INSERT
  5
1B90
  8
0
 62
     7
  2
XH58
 10
0.0
 20
0.0
 30
0.0
  0
INSERT
  5
1B91
  8
0
 62
     7
  2
XH76
 10
0.0
 20
0.0
 30
0.0
  0
INSERT
  5
1B92
  8
0
 62
     7
  2
XH102
 10
0.0
 20
0.0
 30
0.0
  0
INSERT
  5
1B93
  8
0
 62
     7
  2
XH103
 10
0.0
 20
0.0
 30
0.0
  0
INSERT
  5
1B94
  8
0
 62
     7
  2
XH104
 10
0.0
 20
0.0
 30
0.0
  0
INSERT
  5
1B95
  8
0
 62
     7
  2
XH105
 10
0.0
 20
0.0
 30
0.0
  0
INSERT
  5
1B96
  8
0
 62
     7
  2
XH106
 10
0.0
 20
0.0
 30
0.0
  0
INSERT
  5
1B97
  8
0
 62
     7
  2
XH107
 10
0.0
 20
0.0
 30
0.0
  0
INSERT
  5
1B98
  8
0
 62
     7
  2
XH108
 10
0.0
 20
0.0
 30
0.0
  0
INSERT
  5
1B99
  8
0
 62
     7
  2
XH109
 10
0.0
 20
0.0
 30
0.0
  0
INSERT
  5
1B9A
  8
0
 62
     7
  2
XH127
 10
0.0
 20
0.0
 30
0.0
  0
INSERT
  5
1B9B
  8
0
 62
     7
  2
XH211
 10
0.0
 20
0.0
 30
0.0
  0
INSERT
  5
1B9C
  8
0
 62
     7
  2
XH218
 10
0.0
 20
0.0
 30
0.0
  0
INSERT
  5
1B9D
  8
0
 62
     7
  2
XH221
 10
0.0
 20
0.0
 30
0.0
  0
INSERT
  5
1B9E
  8
0
 62
     7
  2
XH225
 10
0.0
 20
0.0
 30
0.0
  0
INSERT
  5
2765
  8
0
 62
     7
  2
XH109
 10
656.53066607529581
 20
16.025720370780839
 30
0.0
  0
INSERT
  5
2766
  8
0
 62
     7
  2
XH108
 10
656.53066607529581
 20
16.025720370780839
 30
0.0
  0
INSERT
  5
2767
  8
0
 62
     7
  2
XH107
 10
839.60873007529585
 20
116.3391743707808
 30
0.0
  0
INSERT
  5
2768
  8
0
 62
     7
  2
XH106
 10
839.60873007529585
 20
116.3391743707808
 30
0.0
  0
INSERT
  5
2769
  8
0
 62
     7
  2
XH105
 10
839.60873007529585
 20
116.3391743707808
 30
0.0
  0
INSERT
  5
276A
  8
0
 62
     7
  2
XH104
 10
839.60873007529585
 20
116.3391743707808
 30
0.0
  0
INSERT
  5
276B
  8
0
 62
     7
  2
XH103
 10
839.60873007529585
 20
116.3391743707808
 30
0.0
  0
INSERT
  5
276C
  8
0
 62
     7
  2
XH102
 10
839.60873007529585
 20
116.3391743707808
 30
0.0
  0
INSERT
  5
2786
  8
0
 62
     7
  2
XH76
 10
839.60873007529585
 20
116.3391743707808
 30
0.0
  0
INSERT
  5
2798
  8
0
 62
     7
  2
XH58
 10
839.60873007529585
 20
116.3391743707808
 30
0.0
  0
INSERT
  5
2799
  8
0
 62
     7
  2
XH57
 10
839.60873007529585
 20
116.3391743707808
 30
0.0
  0
INSERT
  5
279A
  8
0
 62
     7
  2
XH56
 10
839.60873007529585
 20
116.3391743707808
 30
0.0
  0
INSERT
  5
279B
  8
0
 62
     7
  2
XH55
 10
839.60873007529585
 20
116.3391743707808
 30
0.0
  0
INSERT
  5
279C
  8
0
 62
     7
  2
XH54
 10
839.60873007529585
 20
116.3391743707808
 30
0.0
  0
INSERT
  5
279D
  8
0
 62
     7
  2
XH53
 10
839.60873007529585
 20
116.3391743707808
 30
0.0
  0
INSERT
  5
279E
  8
0
 62
     7
  2
XH52
 10
839.60873007529585
 20
116.3391743707808
 30
0.0
  0
INSERT
  5
279F
  8
0
 62
     7
  2
XH51
 10
839.60873007529585
 20
116.3391743707808
 30
0.0
  0
INSERT
  5
27A0
  8
0
 62
     7
  2
XH50
 10
576.5306660752957
 20
206.02572037078079
 30
0.0
  0
INSERT
  5
27A1
  8
0
 62
     7
  2
XH49
 10
576.5306660752957
 20
206.02572037078079
 30
0.0
  0
INSERT
  5
27A2
  8
0
 62
     7
  2
XH48
 10
839.60873007529585
 20
116.3391743707808
 30
0.0
  0
INSERT
  5
27A3
  8
0
 62
     7
  2
XH47
 10
839.60873007529585
 20
116.3391743707808
 30
0.0
  0
INSERT
  5
27A4
  8
0
 62
     7
  2
XH46
 10
839.60873007529585
 20
116.3391743707808
 30
0.0
  0
INSERT
  5
27A5
  8
0
 62
     7
  2
XH45
 10
839.60873007529585
 20
116.3391743707808
 30
0.0
  0
INSERT
  5
27A6
  8
0
 62
     7
  2
XH44
 10
839.60873007529585
 20
116.3391743707808
 30
0.0
  0
INSERT
  5
27A7
  8
0
 62
     7
  2
XH43
 10
839.60873007529585
 20
116.3391743707808
 30
0.0
  0
INSERT
  5
27A8
  8
0
 62
     7
  2
XH42
 10
839.60873007529585
 20
116.3391743707808
 30
0.0
  0
INSERT
  5
27AA
  8
0
 62
     7
  2
XH40
 10
839.60873007529585
 20
116.3391743707808
 30
0.0
  0
INSERT
  5
27AB
  8
0
 62
     7
  2
XH39
 10
839.60873007529585
 20
116.3391743707808
 30
0.0
  0
TEXT
  5
4E0D
  8
0
 62
     7
 10
-77.678067999999982
 20
49.186545999999993
 30
0.0
 40
2.5
  1

 11
-77.678067999999982
 21
50.436545999999993
 31
0.0
 73
     2
  0
TEXT
  5
4E0E
  8
0
 62
     7
 10
-77.678067999999982
 20
54.186545999999993
 30
0.0
 40
2.5
  1

 11
-77.678067999999982
 21
55.436545999999993
 31
0.0
 73
     2
  0
TEXT
  5
4E0F
  8
0
 62
     7
 10
-77.678067999999982
 20
59.186545999999993
 30
0.0
 40
2.5
  1

 11
-77.678067999999982
 21
60.436545999999993
 31
0.0
 73
     2
  0
TEXT
  5
4E10
  8
0
 62
     7
 10
-77.678067999999982
 20
64.186545999999993
 30
0.0
 40
2.5
  1

 11
-77.678067999999982
 21
65.436545999999993
 31
0.0
 73
     2
  0
TEXT
  5
4E11
  8
0
 62
     7
 10
-77.678067999999982
 20
69.186545999999993
 30
0.0
 40
2.5
  1

 11
-77.678067999999982
 21
70.436545999999993
 31
0.0
 73
     2
  0
TEXT
  5
4E12
  8
0
 62
     7
 10
-77.678067999999982
 20
74.186545999999993
 30
0.0
 40
2.5
  1

 11
-77.678067999999982
 21
75.436545999999993
 31
0.0
 73
     2
  0
INSERT
  5
4E13
  8
0
 62
     7
  2
XH19
 10
0.0
 20
0.0
 30
0.0
  0
INSERT
  5
4E14
  8
0
 62
     7
  2
XH21
 10
0.0
 20
0.0
 30
0.0
  0
INSERT
  5
4E15
  8
0
 62
     7
  2
XH30
 10
0.0
 20
0.0
 30
0.0
  0
INSERT
  5
4E16
  8
0
 62
     7
  2
XH32
 10
0.0
 20
0.0
 30
0.0
  0
INSERT
  5
4E17
  8
0
 62
     7
  2
XH33
 10
0.0
 20
0.0
 30
0.0
  0
INSERT
  5
4E18
  8
0
 62
     7
  2
XH39
 10
0.0
 20
0.0
 30
0.0
  0
INSERT
  5
4E19
  8
0
 62
     7
  2
XH40
 10
0.0
 20
0.0
 30
0.0
  0
INSERT
  5
4E1A
  8
0
 62
     7
  2
XH42
 10
0.0
 20
0.0
 30
0.0
  0
INSERT
  5
4E1B
  8
0
 62
     7
  2
XH43
 10
0.0
 20
0.0
 30
0.0
  0
INSERT
  5
4E1C
  8
0
 62
     7
  2
XH44
 10
0.0
 20
0.0
 30
0.0
  0
INSERT
  5
4E1D
  8
0
 62
     7
  2
XH45
 10
0.0
 20
0.0
 30
0.0
  0
INSERT
  5
4E1E
  8
0
 62
     7
  2
XH46
 10
0.0
 20
0.0
 30
0.0
  0
INSERT
  5
4E1F
  8
0
 62
     7
  2
XH47
 10
0.0
 20
0.0
 30
0.0
  0
INSERT
  5
4E20
  8
0
 62
     7
  2
XH48
 10
0.0
 20
0.0
 30
0.0
  0
INSERT
  5
4E21
  8
0
 62
     7
  2
XH49
 10
0.0
 20
0.0
 30
0.0
  0
INSERT
  5
4E22
  8
0
 62
     7
  2
XH50
 10
0.0
 20
0.0
 30
0.0
  0
INSERT
  5
4E23
  8
0
 62
     7
  2
XH51
 10
0.0
 20
0.0
 30
0.0
  0
INSERT
  5
4E24
  8
0
 62
     7
  2
XH52
 10
0.0
 20
0.0
 30
0.0
  0
INSERT
  5
4E25
  8
0
 62
     7
  2
XH53
 10
0.0
 20
0.0
 30
0.0
  0
INSERT
  5
4E26
  8
0
 62
     7
  2
XH54
 10
0.0
 20
0.0
 30
0.0
  0
INSERT
  5
4E27
  8
0
 62
     7
  2
XH55
 10
0.0
 20
0.0
 30
0.0
  0
INSERT
  5
4E28
  8
0
 62
     7
  2
XH56
 10
0.0
 20
0.0
 30
0.0
  0
INSERT
  5
4E29
  8
0
 62
     7
  2
XH57
 10
0.0
 20
0.0
 30
0.0
  0
INSERT
  5
4E2A
  8
0
 62
     7
  2
XH58
 10
0.0
 20
0.0
 30
0.0
  0
INSERT
  5
4E2B
  8
0
 62
     7
  2
XH76
 10
0.0
 20
0.0
 30
0.0
  0
INSERT
  5
4E2C
  8
0
 62
     7
  2
XH102
 10
0.0
 20
0.0
 30
0.0
  0
INSERT
  5
4E2D
  8
0
 62
     7
  2
XH103
 10
0.0
 20
0.0
 30
0.0
  0
INSERT
  5
4E2E
  8
0
 62
     7
  2
XH104
 10
0.0
 20
0.0
 30
0.0
  0
INSERT
  5
4E2F
  8
0
 62
     7
  2
XH105
 10
0.0
 20
0.0
 30
0.0
  0
INSERT
  5
4E30
  8
0
 62
     7
  2
XH106
 10
0.0
 20
0.0
 30
0.0
  0
INSERT
  5
4E31
  8
0
 62
     7
  2
XH107
 10
0.0
 20
0.0
 30
0.0
  0
INSERT
  5
4E32
  8
0
 62
     7
  2
XH108
 10
0.0
 20
0.0
 30
0.0
  0
INSERT
  5
4E33
  8
0
 62
     7
  2
XH109
 10
0.0
 20
0.0
 30
0.0
  0
INSERT
  5
4E34
  8
0
 62
     7
  2
XH127
 10
0.0
 20
0.0
 30
0.0
  0
INSERT
  5
4E35
  8
0
 62
     7
  2
XH211
 10
0.0
 20
0.0
 30
0.0
  0
INSERT
  5
4E36
  8
0
 62
     7
  2
XH218
 10
0.0
 20
0.0
 30
0.0
  0
INSERT
  5
4E37
  8
0
 62
     7
  2
XH221
 10
0.0
 20
0.0
 30
0.0
  0
INSERT
  5
4E38
  8
0
 62
     7
  2
XH225
 10
0.0
 20
0.0
 30
0.0
  0
TEXT
  5
4F6F
  8
0
 10
302.06992571684742
 20
59.0
 30
0.0
 40
2.5
  1

  0
TEXT
  5
4F8B
  8
0
 10
302.06992571684742
 20
77.999992370605455
 30
0.0
 40
2.5
  1

  0
TEXT
  5
4F90
  8
0
 10
302.06992571684742
 20
82.999992370605455
 30
0.0
 40
2.5
  1

  0
TEXT
  5
4FB3
  8
0
 10
302.06992571684742
 20
114.99998474121089
 30
0.0
 40
2.5
  1

  0
TEXT
  5
4FBD
  8
0
 10
302.06992571684742
 20
124.99998474121089
 30
0.0
 40
2.5
  1

  0
TEXT
  5
4FC7
  8
0
 10
302.06992571684742
 20
133.99998474121091
 30
0.0
 40
2.5
  1

  0
TEXT
  5
4FF3
  8
0
 10
401.98001098632812
 20
76.335331563453565
 30
0.0
 40
2.5
  1

  0
TEXT
  5
4FF9
  8
0
 10
401.98001098632812
 20
105.03760272584211
 30
0.0
 40
2.5
  1

  0
TEXT
  5
4FFC
  8
0
 10
401.98001098632812
 20
118.6013791923517
 30
0.0
 40
2.5
  1

  0
TEXT
  5
4FFD
  8
0
 10
401.98001098632812
 20
123.6013791923517
 30
0.0
 40
2.5
  1

  0
TEXT
  5
4FFE
  8
0
 10
401.98001098632812
 20
128.60137919235169
 30
0.0
 40
2.5
  1

  0
TEXT
  5
4FFF
  8
0
 10
416.98001098632812
 20
133.6666564941406
 30
0.0
 40
2.5
  1

  0
POLYLINE
  5
14FF1
  8
DEFPOINTS
 66
     1
 10
0.0
 20
0.0
 30
0.0
 70
     1
  0
VERTEX
  5
2A633
  8
DEFPOINTS
 10
0.0
 20
0.0
 30
0.0
  0
VERTEX
  5
2A634
  8
DEFPOINTS
 10
759.1493103537332
 20
0.0
 30
0.0
  0
VERTEX
  5
2A635
  8
DEFPOINTS
 10
759.1493103537332
 20
879.45437216578591
 30
0.0
  0
VERTEX
  5
2A636
  8
DEFPOINTS
 10
0.0
 20
879.45437216578591
 30
0.0
  0
SEQEND
  5
2A637
  8
DEFPOINTS
  0
TEXT
  5
15030
  8
BUHIN-1
 10
593.87559667379264
 20
53.611522385697761
 30
0.0
 40
10.0
  1
10415XX4+01800184
  0
LINE
  5
158A5
  8
BUHIN-1
 10
544.67579347773733
 20
235.23497857718851
 30
0.0
 11
544.67579347773733
 21
193.06775862599309
 31
0.0
  0
LINE
  5
158A6
  8
BUHIN-1
 10
652.04122366304034
 20
247.6276308099269
 30
0.0
 11
652.04122366304034
 21
193.06775862599309
 31
0.0
  0
LINE
  5
158A7
  8
BUHIN-1
 10
547.17579347773733
 20
194.31775862599309
 30
0.0
 11
649.54122366304034
 21
194.31775862599309
 31
0.0
  0
INSERT
  5
158A8
  8
BUHIN-1
  2
_OPEN30
 10
544.67579347773733
 20
194.31775862599309
 30
0.0
 41
2.5
 42
2.5
 43
2.5
 50
180.0
  0
INSERT
  5
158A9
  8
BUHIN-1
  2
_OPEN30
 10
652.04122366304034
 20
194.31775862599309
 30
0.0
 41
2.5
 42
2.5
 43
2.5
  0
INSERT
  5
158AA
  8
BUHIN-1
  2
*U40
 10
0.0
 20
0.0
 30
0.0
  0
INSERT
  5
158AB
  8
BUHIN-1
  2
*U41
 10
0.0
 20
0.0
 30
0.0
  0
INSERT
  5
28560
  8
BUHIN-1
  2
BOX
 10
247.6770150523252
 20
712.96664361812316
 30
0.0
 50
90.0
  0
LINE
  5
28E92
  8
BUHIN-3
  6
HIDDEN
 10
207.19679705232519
 20
712.96664361812316
 30
0.0
 11
207.19679705232519
 21
702.96664361812327
 31
0.0
  0
LINE
  5
28E93
  8
BUHIN-3
  6
HIDDEN
 10
212.49679705232509
 20
712.96664361812316
 30
0.0
 11
212.49679705232509
 21
702.96664361812327
 31
0.0
  0
LINE
  5
28E94
  8
BUHIN-3
  6
HIDDEN
 10
288.15722305232509
 20
712.96664361812316
 30
0.0
 11
288.15722305232509
 21
702.96664361812327
 31
0.0
  0
LINE
  5
28E95
  8
BUHIN-3
  6
HIDDEN
 10
282.85722305232542
 20
712.96664361812316
 30
0.0
 11
282.85722305232542
 21
702.96664361812327
 31
0.0
  0
CIRCLE
  5
28E96
  8
BUHIN-3
  6
CONTINUOUS
 10
247.67701505232509
 20
597.82584161812315
 30
0.0
 40
1.6235879999999989
  0
LINE
  5
28E97
  8
BUHIN-3
  6
CONTINUOUS
 10
249.17701505232509
 20
597.20452161812307
 30
0.0
 11
248.29833505232531
 21
596.32584161812315
 31
0.0
  0
LINE
  5
28E98
  8
BUHIN-3
  6
CONTINUOUS
 10
248.29833505232531
 20
596.32584161812315
 30
0.0
 11
247.0556950523254
 21
596.32584161812315
 31
0.0
  0
LINE
  5
28E99
  8
BUHIN-3
  6
CONTINUOUS
 10
247.0556950523254
 20
596.32584161812315
 30
0.0
 11
246.17701505232509
 21
597.20452161812307
 31
0.0
  0
LINE
  5
28E9A
  8
BUHIN-3
  6
CONTINUOUS
 10
246.17701505232509
 20
598.44716161812312
 30
0.0
 11
246.17701505232509
 21
597.20452161812307
 31
0.0
  0
LINE
  5
28E9B
  8
BUHIN-3
  6
CONTINUOUS
 10
247.0556950523254
 20
599.32584161812315
 30
0.0
 11
246.17701505232509
 21
598.44716161812312
 31
0.0
  0
LINE
  5
28E9C
  8
BUHIN-3
  6
CONTINUOUS
 10
248.29833505232531
 20
599.32584161812315
 30
0.0
 11
247.0556950523254
 21
599.32584161812315
 31
0.0
  0
LINE
  5
28E9D
  8
BUHIN-3
  6
CONTINUOUS
 10
249.17701505232509
 20
598.44716161812312
 30
0.0
 11
248.29833505232531
 21
599.32584161812315
 31
0.0
  0
LINE
  5
28E9E
  8
BUHIN-3
  6
CONTINUOUS
 10
249.17701505232509
 20
598.44716161812312
 30
0.0
 11
249.17701505232509
 21
597.20452161812307
 31
0.0
  0
CIRCLE
  5
28E9F
  8
BUHIN-3
  6
CONTINUOUS
 10
247.67701505232509
 20
597.82584161812315
 30
0.0
 40
3.5
  0
CIRCLE
  5
28EA0
  8
BUHIN-3
  6
CONTINUOUS
 10
247.67701505232509
 20
597.82584161812315
 30
0.0
 40
4.0
  0
ARC
  5
28EA1
  8
BUHIN-3
  6
CONTINUOUS
 10
220.18467305232539
 20
615.46664361812327
 30
0.0
 40
0.5
 50
90.0
 51
183.87925899999911
  0
ARC
  5
28EA2
  8
BUHIN-3
  6
CONTINUOUS
 10
275.16934305232542
 20
615.46664361812327
 30
0.0
 40
0.5
 50
356.11881300000101
 51
90.0
  0
POLYLINE
  5
28EA3
  8
BUHIN-3
  6
CONTINUOUS
 66
     1
 10
0.0
 20
0.0
 30
0.0
  0
VERTEX
  5
2A641
  8
BUHIN-3
  6
CONTINUOUS
 10
243.6416810523254
 20
571.23915361812317
 30
0.0
  0
VERTEX
  5
2A642
  8
BUHIN-3
  6
CONTINUOUS
 10
243.6894710523251
 20
570.39943961812332
 30
0.0
  0
VERTEX
  5
2A643
  8
BUHIN-3
  6
CONTINUOUS
 10
243.8777450523252
 20
569.38971361812332
 30
0.0
  0
VERTEX
  5
2A644
  8
BUHIN-3
  6
CONTINUOUS
 10
243.98754305232509
 20
569.06798561812309
 30
0.0
  0
VERTEX
  5
2A645
  8
BUHIN-3
  6
CONTINUOUS
 10
244.21315505232531
 20
568.58506561812328
 30
0.0
  0
VERTEX
  5
2A646
  8
BUHIN-3
  6
CONTINUOUS
 10
244.4026370523255
 20
568.27646561812321
 30
0.0
  0
VERTEX
  5
2A647
  8
BUHIN-3
  6
CONTINUOUS
 10
244.61800105232521
 20
567.99095361812329
 30
0.0
  0
VERTEX
  5
2A648
  8
BUHIN-3
  6
CONTINUOUS
 10
244.856255052325
 20
567.73086961812317
 30
0.0
  0
VERTEX
  5
2A649
  8
BUHIN-3
  6
CONTINUOUS
 10
245.1148810523253
 20
567.49711161812309
 30
0.0
  0
VERTEX
  5
2A64A
  8
BUHIN-3
  6
CONTINUOUS
 10
245.39136505232531
 20
567.29057761812305
 30
0.0
  0
VERTEX
  5
2A64B
  8
BUHIN-3
  6
CONTINUOUS
 10
245.68367105232511
 20
567.11134161812322
 30
0.0
  0
VERTEX
  5
2A64C
  8
BUHIN-3
  6
CONTINUOUS
 10
245.98976705232539
 20
566.95947361812307
 30
0.0
  0
VERTEX
  5
2A64D
  8
BUHIN-3
  6
CONTINUOUS
 10
246.3081050523254
 20
566.83482961812319
 30
0.0
  0
VERTEX
  5
2A64E
  8
BUHIN-3
  6
CONTINUOUS
 10
246.6371470523253
 20
566.73726561812327
 30
0.0
  0
VERTEX
  5
2A64F
  8
BUHIN-3
  6
CONTINUOUS
 10
247.06444305232509
 20
566.65982561812325
 30
0.0
  0
VERTEX
  5
2A650
  8
BUHIN-3
  6
CONTINUOUS
 10
247.67754305232521
 20
566.59555561812317
 30
0.0
  0
SEQEND
  5
2A651
  8
BUHIN-3
  6
CONTINUOUS
  0
POLYLINE
  5
28EA4
  8
BUHIN-3
  6
CONTINUOUS
 66
     1
 10
0.0
 20
0.0
 30
0.0
  0
VERTEX
  5
2A652
  8
BUHIN-3
  6
CONTINUOUS
 10
243.9477870523254
 20
574.0550616181232
 30
0.0
  0
VERTEX
  5
2A653
  8
BUHIN-3
  6
CONTINUOUS
 10
243.77506305232541
 20
573.0452536181233
 30
0.0
  0
VERTEX
  5
2A654
  8
BUHIN-3
  6
CONTINUOUS
 10
243.69099705232509
 20
572.41951361812335
 30
0.0
  0
VERTEX
  5
2A655
  8
BUHIN-3
  6
CONTINUOUS
 10
243.63957705232531
 20
571.74209361812314
 30
0.0
  0
VERTEX
  5
2A656
  8
BUHIN-3
  6
CONTINUOUS
 10
243.6405710523253
 20
571.23910561812306
 30
0.0
  0
SEQEND
  5
2A657
  8
BUHIN-3
  6
CONTINUOUS
  0
POLYLINE
  5
28EA5
  8
BUHIN-3
  6
CONTINUOUS
 66
     1
 10
0.0
 20
0.0
 30
0.0
  0
VERTEX
  5
2A658
  8
BUHIN-3
  6
CONTINUOUS
 10
232.6770210523253
 20
608.02098761812306
 30
0.0
  0
VERTEX
  5
2A659
  8
BUHIN-3
  6
CONTINUOUS
 10
231.43751105232519
 20
608.19377761812325
 30
0.0
  0
VERTEX
  5
2A65A
  8
BUHIN-3
  6
CONTINUOUS
 10
230.20641105232519
 20
608.3952576181232
 30
0.0
  0
VERTEX
  5
2A65B
  8
BUHIN-3
  6
CONTINUOUS
 10
228.9901250523252
 20
608.63257161812317
 30
0.0
  0
VERTEX
  5
2A65C
  8
BUHIN-3
  6
CONTINUOUS
 10
227.7955370523253
 20
608.91326961812308
 30
0.0
  0
VERTEX
  5
2A65D
  8
BUHIN-3
  6
CONTINUOUS
 10
226.62978305232519
 20
609.24509761812328
 30
0.0
  0
VERTEX
  5
2A65E
  8
BUHIN-3
  6
CONTINUOUS
 10
225.5000530523254
 20
609.63577361812315
 30
0.0
  0
VERTEX
  5
2A65F
  8
BUHIN-3
  6
CONTINUOUS
 10
224.95090305232529
 20
609.85553561812321
 30
0.0
  0
VERTEX
  5
2A660
  8
BUHIN-3
  6
CONTINUOUS
 10
224.41336905232521
 20
610.09278961812333
 30
0.0
  0
VERTEX
  5
2A661
  8
BUHIN-3
  6
CONTINUOUS
 10
223.88826305232519
 20
610.34839961812315
 30
0.0
  0
VERTEX
  5
2A662
  8
BUHIN-3
  6
CONTINUOUS
 10
223.3763710523252
 20
610.62318961812321
 30
0.0
  0
VERTEX
  5
2A663
  8
BUHIN-3
  6
CONTINUOUS
 10
222.87842505232521
 20
610.91793561812324
 30
0.0
  0
VERTEX
  5
2A664
  8
BUHIN-3
  6
CONTINUOUS
 10
222.3951130523252
 20
611.23335961812325
 30
0.0
  0
VERTEX
  5
2A665
  8
BUHIN-3
  6
CONTINUOUS
 10
221.9270630523252
 20
611.57011961812316
 30
0.0
  0
VERTEX
  5
2A666
  8
BUHIN-3
  6
CONTINUOUS
 10
221.4748430523253
 20
611.92881161812318
 30
0.0
  0
SEQEND
  5
2A667
  8
BUHIN-3
  6
CONTINUOUS
  0
POLYLINE
  5
28EA6
  8
BUHIN-3
  6
CONTINUOUS
 66
     1
 10
0.0
 20
0.0
 30
0.0
  0
VERTEX
  5
2A668
  8
BUHIN-3
  6
CONTINUOUS
 10
232.6770310523253
 20
608.73906561812316
 30
0.0
  0
VERTEX
  5
2A669
  8
BUHIN-3
  6
CONTINUOUS
 10
230.7980090523252
 20
609.01023161812327
 30
0.0
  0
VERTEX
  5
2A66A
  8
BUHIN-3
  6
CONTINUOUS
 10
229.86693705232511
 20
609.17191761812308
 30
0.0
  0
VERTEX
  5
2A66B
  8
BUHIN-3
  6
CONTINUOUS
 10
228.9452770523252
 20
609.35521761812333
 30
0.0
  0
VERTEX
  5
2A66C
  8
BUHIN-3
  6
CONTINUOUS
 10
228.0360630523254
 20
609.56345161812328
 30
0.0
  0
VERTEX
  5
2A66D
  8
BUHIN-3
  6
CONTINUOUS
 10
227.14240705232521
 20
609.80000161812313
 30
0.0
  0
VERTEX
  5
2A66E
  8
BUHIN-3
  6
CONTINUOUS
 10
226.2674610523253
 20
610.06826361812318
 30
0.0
  0
VERTEX
  5
2A66F
  8
BUHIN-3
  6
CONTINUOUS
 10
225.4143530523252
 20
610.37159161812315
 30
0.0
  0
VERTEX
  5
2A670
  8
BUHIN-3
  6
CONTINUOUS
 10
224.58614305232541
 20
610.71323961812323
 30
0.0
  0
VERTEX
  5
2A671
  8
BUHIN-3
  6
CONTINUOUS
 10
223.78575505232519
 20
611.0963136181233
 30
0.0
  0
SEQEND
  5
2A672
  8
BUHIN-3
  6
CONTINUOUS
  0
ARC
  5
28EA7
  8
BUHIN-3
  6
CONTINUOUS
 10
247.7254570523254
 20
1421.966643618123
 30
0.0
 40
800.0
 50
271.04830199999509
 51
275.93427299999553
  0
LINE
  5
28EA8
  8
BUHIN-3
  6
CONTINUOUS
 10
262.36169505232539
 20
622.10054161812332
 30
0.0
 11
262.36169505232539
 21
620.66265961812314
 31
0.0
  0
LINE
  5
28EA9
  8
BUHIN-3
  6
CONTINUOUS
 10
224.20202505232521
 20
615.96664361812316
 30
0.0
 11
220.18467305232539
 21
615.96664361812316
 31
0.0
  0
ARC
  5
28EAA
  8
BUHIN-3
  6
CONTINUOUS
 10
225.61795705232529
 20
614.65201961812306
 30
0.0
 40
4.0
 50
160.8127699999992
 51
242.73861899999619
  0
ARC
  5
28EAB
  8
BUHIN-3
  6
CONTINUOUS
 10
269.61752705232527
 20
614.65265961812315
 30
0.0
 40
4.0
 50
297.24772199999512
 51
19.17750999999889
  0
POLYLINE
  5
28EAC
  8
BUHIN-3
  6
CONTINUOUS
 66
     1
 10
0.0
 20
0.0
 30
0.0
  0
VERTEX
  5
2A673
  8
BUHIN-3
  6
CONTINUOUS
 10
271.44888105232519
 20
611.09651961812324
 30
0.0
  0
VERTEX
  5
2A674
  8
BUHIN-3
  6
CONTINUOUS
 10
270.65879505232522
 20
610.71825161812319
 30
0.0
  0
VERTEX
  5
2A675
  8
BUHIN-3
  6
CONTINUOUS
 10
269.84155305232508
 20
610.38040161812307
 30
0.0
  0
VERTEX
  5
2A676
  8
BUHIN-3
  6
CONTINUOUS
 10
268.99997105232512
 20
610.07997361812306
 30
0.0
  0
VERTEX
  5
2A677
  8
BUHIN-3
  6
CONTINUOUS
 10
268.13698905232548
 20
609.81383361812323
 30
0.0
  0
VERTEX
  5
2A678
  8
BUHIN-3
  6
CONTINUOUS
 10
267.25561705232519
 20
609.57874761812332
 30
0.0
  0
VERTEX
  5
2A679
  8
BUHIN-3
  6
CONTINUOUS
 10
266.3588910523253
 20
609.37144761812328
 30
0.0
  0
VERTEX
  5
2A67A
  8
BUHIN-3
  6
CONTINUOUS
 10
265.44981105232529
 20
609.18866761812319
 30
0.0
  0
VERTEX
  5
2A67B
  8
BUHIN-3
  6
CONTINUOUS
 10
264.53130305232509
 20
609.02720161812317
 30
0.0
  0
VERTEX
  5
2A67C
  8
BUHIN-3
  6
CONTINUOUS
 10
262.6770150523252
 20
608.75598361812297
 30
0.0
  0
SEQEND
  5
2A67D
  8
BUHIN-3
  6
CONTINUOUS
  0
ARC
  5
28EAD
  8
BUHIN-3
  6
CONTINUOUS
 10
270.67966305232528
 20
615.77123761812322
 30
0.0
 40
5.0
 50
309.77412900000547
 51
356.11881300000101
  0
ARC
  5
28EAE
  8
BUHIN-3
  6
CONTINUOUS
 10
224.67436305232519
 20
615.77108761812315
 30
0.0
 40
5.0
 50
183.87925899999911
 51
230.2153570000041
  0
LINE
  5
28EAF
  8
BUHIN-3
  6
CONTINUOUS
 10
275.16934305232542
 20
615.96664361812316
 30
0.0
 11
271.15200505232531
 21
615.96664361812316
 31
0.0
  0
POLYLINE
  5
28EB0
  8
BUHIN-3
  6
CONTINUOUS
 66
     1
 10
0.0
 20
0.0
 30
0.0
  0
VERTEX
  5
2A67E
  8
BUHIN-3
  6
CONTINUOUS
 10
273.87847705232508
 20
611.92837561812325
 30
0.0
  0
VERTEX
  5
2A67F
  8
BUHIN-3
  6
CONTINUOUS
 10
273.42627105232521
 20
611.56983361812308
 30
0.0
  0
VERTEX
  5
2A680
  8
BUHIN-3
  6
CONTINUOUS
 10
272.95823705232522
 20
611.23322761812324
 30
0.0
  0
VERTEX
  5
2A681
  8
BUHIN-3
  6
CONTINUOUS
 10
272.47494105232528
 20
610.91795961812306
 30
0.0
  0
VERTEX
  5
2A682
  8
BUHIN-3
  6
CONTINUOUS
 10
271.97701505232533
 20
610.6233716181232
 30
0.0
  0
VERTEX
  5
2A683
  8
BUHIN-3
  6
CONTINUOUS
 10
271.46514305232529
 20
610.34873761812332
 30
0.0
  0
VERTEX
  5
2A684
  8
BUHIN-3
  6
CONTINUOUS
 10
270.9400630523254
 20
610.09328361812322
 30
0.0
  0
VERTEX
  5
2A685
  8
BUHIN-3
  6
CONTINUOUS
 10
270.40255305232529
 20
609.85617961812318
 30
0.0
  0
VERTEX
  5
2A686
  8
BUHIN-3
  6
CONTINUOUS
 10
269.8534330523251
 20
609.63656161812332
 30
0.0
  0
VERTEX
  5
2A687
  8
BUHIN-3
  6
CONTINUOUS
 10
268.72376905232511
 20
609.24615161812335
 30
0.0
  0
VERTEX
  5
2A688
  8
BUHIN-3
  6
CONTINUOUS
 10
267.55809105232532
 20
608.91455161812314
 30
0.0
  0
VERTEX
  5
2A689
  8
BUHIN-3
  6
CONTINUOUS
 10
266.36358705232522
 20
608.63402561812313
 30
0.0
  0
VERTEX
  5
2A68A
  8
BUHIN-3
  6
CONTINUOUS
 10
265.14739905232528
 20
608.39682161812334
 30
0.0
  0
VERTEX
  5
2A68B
  8
BUHIN-3
  6
CONTINUOUS
 10
263.91640305232511
 20
608.19538361812329
 30
0.0
  0
VERTEX
  5
2A68C
  8
BUHIN-3
  6
CONTINUOUS
 10
262.67700905232539
 20
608.02256161812318
 30
0.0
  0
SEQEND
  5
2A68D
  8
BUHIN-3
  6
CONTINUOUS
  0
ARC
  5
28EB1
  8
BUHIN-3
  6
CONTINUOUS
 10
255.42701505232509
 20
622.96664361812327
 30
0.0
 40
32.0
 50
181.1300449999996
 51
203.67415500000149
  0
ARC
  5
28EB2
  8
BUHIN-3
  6
CONTINUOUS
 10
239.92701505232529
 20
622.96664361812327
 30
0.0
 40
32.0
 50
336.42169899999999
 51
358.86469200000232
  0
ARC
  5
28EB3
  8
BUHIN-3
  6
CONTINUOUS
 10
247.7254570523254
 20
1421.966643618123
 30
0.0
 40
800.0
 50
264.06572700000447
 51
268.94475799999651
  0
POLYLINE
  5
28EB4
  8
BUHIN-3
  6
CONTINUOUS
 66
     1
 10
0.0
 20
0.0
 30
0.0
  0
VERTEX
  5
2A68E
  8
BUHIN-3
  6
CONTINUOUS
 10
262.36169505232539
 20
622.96484561812315
 30
0.0
  0
VERTEX
  5
2A68F
  8
BUHIN-3
  6
CONTINUOUS
 10
262.3406290523252
 20
623.00457161812324
 30
0.0
  0
VERTEX
  5
2A690
  8
BUHIN-3
  6
CONTINUOUS
 10
262.27744105232512
 20
623.04495361812315
 30
0.0
  0
VERTEX
  5
2A691
  8
BUHIN-3
  6
CONTINUOUS
 10
262.02554105232542
 20
623.12718361812313
 30
0.0
  0
VERTEX
  5
2A692
  8
BUHIN-3
  6
CONTINUOUS
 10
261.34023305232529
 20
623.25208561812315
 30
0.0
  0
VERTEX
  5
2A693
  8
BUHIN-3
  6
CONTINUOUS
 10
260.30243505232539
 20
623.37512761812332
 30
0.0
  0
VERTEX
  5
2A694
  8
BUHIN-3
  6
CONTINUOUS
 10
258.93878305232539
 20
623.49181961812315
 30
0.0
  0
VERTEX
  5
2A695
  8
BUHIN-3
  6
CONTINUOUS
 10
256.6750250523254
 20
623.62965561812325
 30
0.0
  0
VERTEX
  5
2A696
  8
BUHIN-3
  6
CONTINUOUS
 10
254.69944905232509
 20
623.71413361812324
 30
0.0
  0
VERTEX
  5
2A697
  8
BUHIN-3
  6
CONTINUOUS
 10
252.02263905232519
 20
623.78978961812322
 30
0.0
  0
VERTEX
  5
2A698
  8
BUHIN-3
  6
CONTINUOUS
 10
249.17495905232531
 20
623.82927561812301
 30
0.0
  0
VERTEX
  5
2A699
  8
BUHIN-3
  6
CONTINUOUS
 10
246.26828905232551
 20
623.82987961812319
 30
0.0
  0
VERTEX
  5
2A69A
  8
BUHIN-3
  6
CONTINUOUS
 10
243.41708305232521
 20
623.79156361812329
 30
0.0
  0
VERTEX
  5
2A69B
  8
BUHIN-3
  6
CONTINUOUS
 10
240.73337705232541
 20
623.71695761812305
 30
0.0
  0
VERTEX
  5
2A69C
  8
BUHIN-3
  6
CONTINUOUS
 10
238.12419105232519
 20
623.60058361812321
 30
0.0
  0
VERTEX
  5
2A69D
  8
BUHIN-3
  6
CONTINUOUS
 10
236.4526770523251
 20
623.49457561812324
 30
0.0
  0
VERTEX
  5
2A69E
  8
BUHIN-3
  6
CONTINUOUS
 10
235.0745070523252
 20
623.37741361812311
 30
0.0
  0
VERTEX
  5
2A69F
  8
BUHIN-3
  6
CONTINUOUS
 10
234.0253030523252
 20
623.25373961812329
 30
0.0
  0
VERTEX
  5
2A6A0
  8
BUHIN-3
  6
CONTINUOUS
 10
233.52241105232531
 20
623.16994161812306
 30
0.0
  0
VERTEX
  5
2A6A1
  8
BUHIN-3
  6
CONTINUOUS
 10
233.18387105232529
 20
623.08656761812313
 30
0.0
  0
VERTEX
  5
2A6A2
  8
BUHIN-3
  6
CONTINUOUS
 10
233.0775470523252
 20
623.04541561812312
 30
0.0
  0
VERTEX
  5
2A6A3
  8
BUHIN-3
  6
CONTINUOUS
 10
233.01363905232509
 20
623.00479961812334
 30
0.0
  0
VERTEX
  5
2A6A4
  8
BUHIN-3
  6
CONTINUOUS
 10
232.9923350523253
 20
622.96484561812315
 30
0.0
  0
SEQEND
  5
2A6A5
  8
BUHIN-3
  6
CONTINUOUS
  0
ARC
  5
28EB5
  8
BUHIN-3
  6
CONTINUOUS
 10
260.36169505232539
 20
620.66265961812314
 30
0.0
 40
2.0
 50
292.17548899999719
 51
0.0
  0
LINE
  5
28EB6
  8
BUHIN-3
  6
CONTINUOUS
 10
235.9689510523252
 20
618.10484361812314
 30
0.0
 11
234.23744505232531
 21
618.81059361812322
 31
0.0
  0
LINE
  5
28EB7
  8
BUHIN-3
  6
CONTINUOUS
 10
261.11658305232538
 20
618.81059361812322
 30
0.0
 11
259.3850770523253
 21
618.10484361812314
 31
0.0
  0
ARC
  5
28EB8
  8
BUHIN-3
  6
CONTINUOUS
 10
234.9923350523253
 20
620.66265961812314
 30
0.0
 40
2.0
 50
180.0
 51
247.82451100000279
  0
ARC
  5
28EB9
  8
BUHIN-3
  6
CONTINUOUS
 10
263.1770150523252
 20
584.60484361812314
 30
0.0
 40
0.5
 50
180.0
 51
270.0
  0
LINE
  5
28EBA
  8
BUHIN-3
  6
CONTINUOUS
 10
232.9923350523253
 20
622.96484561812315
 30
0.0
 11
232.9923350523253
 21
620.66265961812314
 31
0.0
  0
LINE
  5
28EBB
  8
BUHIN-3
  6
CONTINUOUS
 10
262.36169505232539
 20
622.96484561812315
 30
0.0
 11
262.36169505232539
 21
622.10054161812332
 31
0.0
  0
LINE
  5
28EBC
  8
BUHIN-3
  6
CONTINUOUS
 10
232.6770150523254
 20
617.60484361812314
 30
0.0
 11
232.6770150523254
 21
597.82584161812315
 31
0.0
  0
LINE
  5
28EBD
  8
BUHIN-3
  6
CONTINUOUS
 10
247.67701505232509
 20
618.10484361812314
 30
0.0
 11
233.17701505232529
 21
618.10484361812314
 31
0.0
  0
ARC
  5
28EBE
  8
BUHIN-3
  6
CONTINUOUS
 10
233.17701505232529
 20
617.60484361812314
 30
0.0
 40
0.5
 50
90.0
 51
180.0
  0
LINE
  5
28EBF
  8
BUHIN-3
  6
CONTINUOUS
 10
232.6770150523254
 20
597.82584161812315
 30
0.0
 11
232.6770150523254
 21
584.60484361812314
 31
0.0
  0
ARC
  5
28EC0
  8
BUHIN-3
  6
CONTINUOUS
 10
232.17701505232529
 20
584.60484361812314
 30
0.0
 40
0.5
 50
270.0
 51
0.0
  0
ARC
  5
28EC1
  8
BUHIN-3
  6
CONTINUOUS
 10
230.17701505232529
 20
583.60484361812314
 30
0.0
 40
0.5
 50
90.0
 51
180.0
  0
LINE
  5
28EC2
  8
BUHIN-3
  6
CONTINUOUS
 10
229.67701505232529
 20
583.60484361812314
 30
0.0
 11
229.67701505232529
 21
581.59604361812319
 31
0.0
  0
ARC
  5
28EC3
  8
BUHIN-3
  6
CONTINUOUS
 10
230.17701505232529
 20
581.59604361812319
 30
0.0
 40
0.5
 50
180.0
 51
268.99677100000417
  0
ARC
  5
28EC4
  8
BUHIN-3
  6
CONTINUOUS
 10
247.67701505232509
 20
1580.9428316181229
 30
0.0
 40
1000.0
 50
268.99677100000417
 51
270.0
  0
LINE
  5
28EC5
  8
BUHIN-3
  6
CONTINUOUS
 10
265.1770150523252
 20
584.10484361812314
 30
0.0
 11
263.1770150523252
 21
584.10484361812314
 31
0.0
  0
LINE
  5
28EC6
  8
BUHIN-3
  6
DASHDOT
 10
253.5812830523254
 20
597.82584161812315
 30
0.0
 11
241.63629105232519
 21
597.82584161812315
 31
0.0
  0
ARC
  5
28EC7
  8
BUHIN-3
  6
CONTINUOUS
 10
265.1770150523252
 20
581.59604361812319
 30
0.0
 40
0.5
 50
271.00322899999583
 51
0.0
  0
LINE
  5
28EC8
  8
BUHIN-3
  6
CONTINUOUS
 10
265.67701505232509
 20
583.60484361812314
 30
0.0
 11
265.67701505232509
 21
581.59604361812319
 31
0.0
  0
ARC
  5
28EC9
  8
BUHIN-3
  6
CONTINUOUS
 10
265.1770150523252
 20
583.60484361812314
 30
0.0
 40
0.5
 50
0.0
 51
90.0
  0
LINE
  5
28ECA
  8
BUHIN-3
  6
CONTINUOUS
 10
263.1770150523252
 20
584.10484361812314
 30
0.0
 11
230.17701505232529
 21
584.10484361812314
 31
0.0
  0
ARC
  5
28ECB
  8
BUHIN-3
  6
CONTINUOUS
 10
247.67701505232509
 20
1580.9428316181229
 30
0.0
 40
1000.0
 50
270.0
 51
271.00322899999583
  0
LINE
  5
28ECC
  8
BUHIN-3
  6
CONTINUOUS
 10
263.1770150523252
 20
584.10484361812314
 30
0.0
 11
230.17701505232529
 21
584.10484361812314
 31
0.0
  0
LINE
  5
28ECD
  8
BUHIN-3
  6
CONTINUOUS
 10
262.6770150523252
 20
617.60484361812314
 30
0.0
 11
262.6770150523252
 21
584.60484361812314
 31
0.0
  0
ARC
  5
28ECE
  8
BUHIN-3
  6
CONTINUOUS
 10
262.17701505232509
 20
617.60484361812314
 30
0.0
 40
0.5
 50
0.0
 51
90.0
  0
LINE
  5
28ECF
  8
BUHIN-3
  6
CONTINUOUS
 10
262.17701505232509
 20
618.10484361812314
 30
0.0
 11
247.67701505232509
 21
618.10484361812314
 31
0.0
  0
ARC
  5
28ED1
  8
BUHIN-3
  6
CONTINUOUS
 10
330.17701505232509
 20
628.74032561812317
 30
0.0
 40
2.5
 50
275.93427299999553
 51
0.0
  0
ARC
  5
28ED2
  8
BUHIN-3
  6
CONTINUOUS
 10
165.27389905232511
 20
628.74032561812317
 30
0.0
 40
2.5
 50
180.0
 51
264.06572700000447
  0
LINE
  5
28ED3
  8
BUHIN-3
  6
CONTINUOUS
 10
162.77389905232511
 20
636.96664361812316
 30
0.0
 11
162.77389905232511
 21
628.74032561812317
 31
0.0
  0
LINE
  5
28ED4
  8
BUHIN-3
  6
CONTINUOUS
 10
332.67701505232509
 20
636.96664361812316
 30
0.0
 11
332.67701505232509
 21
628.74032561812317
 31
0.0
  0
LINE
  5
28ED5
  8
BUHIN-3
  6
HIDDEN
 10
262.6770150523252
 20
659.96663961812317
 30
0.0
 11
232.6770150523254
 21
659.96663961812317
 31
0.0
  0
LINE
  5
28ED6
  8
BUHIN-3
  6
HIDDEN
 10
232.6770150523254
 20
659.96664361812316
 30
0.0
 11
223.42701505232529
 21
659.96664361812316
 31
0.0
  0
LINE
  5
28ED7
  8
BUHIN-3
  6
HIDDEN
 10
232.6770150523254
 20
662.96664361812316
 30
0.0
 11
223.42701505232529
 21
662.96664361812316
 31
0.0
  0
LINE
  5
28ED8
  8
BUHIN-3
  6
HIDDEN
 10
266.81015305232529
 20
662.96664361812316
 30
0.0
 11
262.6770150523252
 21
662.96664361812316
 31
0.0
  0
LINE
  5
28ED9
  8
BUHIN-3
  6
HIDDEN
 10
271.92701505232509
 20
659.96664361812316
 30
0.0
 11
262.6770150523252
 21
659.96664361812316
 31
0.0
  0
LINE
  5
28EDA
  8
BUHIN-3
  6
HIDDEN
 10
271.92701505232509
 20
639.60120961812322
 30
0.0
 11
223.42701505232529
 21
639.60120961812322
 31
0.0
  0
LINE
  5
28EDB
  8
BUHIN-3
  6
HIDDEN
 10
271.92701505232509
 20
662.96664361812316
 30
0.0
 11
266.81015305232529
 21
662.96664361812316
 31
0.0
  0
LINE
  5
28EDC
  8
BUHIN-3
  6
HIDDEN
 10
232.6770150523254
 20
663.46663961812317
 30
0.0
 11
232.6770150523254
 21
639.60120961812322
 31
0.0
  0
LINE
  5
28EDD
  8
BUHIN-3
  6
HIDDEN
 10
262.6770150523252
 20
663.46663961812317
 30
0.0
 11
262.6770150523252
 21
639.60120961812322
 31
0.0
  0
LINE
  5
28EDE
  8
BUHIN-3
  6
HIDDEN
 10
223.42701505232529
 20
662.96664361812316
 30
0.0
 11
223.42701505232529
 21
639.60120961812322
 31
0.0
  0
LINE
  5
28EDF
  8
BUHIN-3
  6
HIDDEN
 10
271.92701505232509
 20
662.96664361812316
 30
0.0
 11
271.92701505232509
 21
639.60120961812322
 31
0.0
  0
LINE
  5
28EE0
  8
BUHIN-3
  6
CONTINUOUS
 10
165.5266130523253
 20
639.60120961812322
 30
0.0
 11
164.56771105232531
 21
636.96664361812316
 31
0.0
  0
LINE
  5
28EE1
  8
BUHIN-3
  6
CONTINUOUS
 10
330.78631905232521
 20
636.96664361812316
 30
0.0
 11
329.82741505232508
 21
639.60120961812322
 31
0.0
  0
LINE
  5
28EE2
  8
BUHIN-3
  6
CONTINUOUS
 10
329.82741505232508
 20
639.60120961812322
 30
0.0
 11
165.5266130523253
 21
639.60120961812322
 31
0.0
  0
LINE
  5
28EE3
  8
BUHIN-3
  6
CONTINUOUS
 10
332.67701505232509
 20
636.96664361812316
 30
0.0
 11
162.67701505232529
 21
636.96664361812316
 31
0.0
  0
LINE
  5
28EE4
  8
BUHIN-3
  6
HIDDEN
 10
225.40315105232531
 20
703.64713761812322
 30
0.0
 11
225.40315105232531
 21
687.08659961812316
 31
0.0
  0
LINE
  5
28EE6
  8
BUHIN-3
  6
HIDDEN
 10
285.50722305232551
 20
713.81455161812323
 30
0.0
 11
285.50722305232551
 21
701.96364561812334
 31
0.0
  0
LINE
  5
28EE7
  8
BUHIN-3
  6
HIDDEN
 10
209.84679705232529
 20
714.17060361812332
 30
0.0
 11
209.84679705232529
 21
701.96364561812334
 31
0.0
  0
ARC
  5
28EE8
  8
BUHIN-3
  6
HIDDEN
 10
220.4019690523254
 20
679.6437736181233
 30
0.0
 40
3.3228699999999991
 50
87.093185000006159
 51
90.004349999999036
  0
ARC
  5
28EE9
  8
BUHIN-3
  6
HIDDEN
 10
220.57135905232539
 20
682.93047961812306
 30
0.0
 40
0.03202
 50
91.577751999996707
 51
103.0100650000001
  0
POLYLINE
  5
28EEA
  8
BUHIN-3
  6
HIDDEN
 66
     1
 10
0.0
 20
0.0
 30
0.0
  0
VERTEX
  5
2A6A6
  8
BUHIN-3
  6
HIDDEN
 10
211.9201610523254
 20
701.91864161812316
 30
0.0
  0
VERTEX
  5
2A6A7
  8
BUHIN-3
  6
HIDDEN
 10
211.9058790523253
 20
702.12300761812321
 30
0.0
  0
SEQEND
  5
2A6A8
  8
BUHIN-3
  6
HIDDEN
  0
POLYLINE
  5
28EEB
  8
BUHIN-3
  6
HIDDEN
 66
     1
 10
0.0
 20
0.0
 30
0.0
  0
VERTEX
  5
2A6A9
  8
BUHIN-3
  6
HIDDEN
 10
211.2982010523252
 20
702.81444561812316
 30
0.0
  0
VERTEX
  5
2A6AA
  8
BUHIN-3
  6
HIDDEN
 10
210.9389730523252
 20
702.92826561812331
 30
0.0
  0
VERTEX
  5
2A6AB
  8
BUHIN-3
  6
HIDDEN
 10
210.5653910523252
 20
702.96667561812319
 30
0.0
  0
SEQEND
  5
2A6AC
  8
BUHIN-3
  6
HIDDEN
  0
LINE
  5
28EEC
  8
BUHIN-3
  6
HIDDEN
 10
211.8466270523252
 20
702.29197761812316
 30
0.0
 11
211.8315590523253
 21
702.30889761812318
 31
0.0
  0
LINE
  5
28EED
  8
BUHIN-3
  6
HIDDEN
 10
211.8315590523253
 20
702.30889761812318
 30
0.0
 11
211.5736750523252
 21
702.59848561812316
 31
0.0
  0
LINE
  5
28EEE
  8
BUHIN-3
  6
HIDDEN
 10
211.91108905232531
 20
702.12213561812314
 30
0.0
 11
211.8315590523253
 21
702.30889761812318
 31
0.0
  0
LINE
  5
28EEF
  8
BUHIN-3
  6
HIDDEN
 10
211.5736750523252
 20
702.59848561812316
 30
0.0
 11
211.2594850523254
 21
702.82252761812333
 31
0.0
  0
LINE
  5
28EF0
  8
BUHIN-3
  6
HIDDEN
 10
211.99474105232531
 20
701.78236361812333
 30
0.0
 11
211.92481305232519
 21
702.08990561812334
 31
0.0
  0
LINE
  5
28EF1
  8
BUHIN-3
  6
HIDDEN
 10
212.04549305232521
 20
701.93160561812317
 30
0.0
 11
211.8466270523252
 21
702.29197761812316
 31
0.0
  0
LINE
  5
28EF2
  8
BUHIN-3
  6
HIDDEN
 10
206.48786705232521
 20
703.46664361812316
 30
0.0
 11
206.14239505232521
 21
703.46664361812316
 31
0.0
  0
LINE
  5
28EF3
  8
BUHIN-3
  6
HIDDEN
 10
213.2608990523253
 20
702.96664361812327
 30
0.0
 11
206.1938330523252
 21
702.96664361812327
 31
0.0
  0
POLYLINE
  5
28EF4
  8
BUHIN-3
  6
HIDDEN
 66
     1
 10
0.0
 20
0.0
 30
0.0
  0
VERTEX
  5
2A6AD
  8
BUHIN-3
  6
HIDDEN
 10
205.77840705232509
 20
702.97801361812321
 30
0.0
  0
VERTEX
  5
2A6AE
  8
BUHIN-3
  6
HIDDEN
 10
206.19382905232521
 20
702.96664361812327
 30
0.0
  0
SEQEND
  5
2A6AF
  8
BUHIN-3
  6
HIDDEN
  0
POLYLINE
  5
28EF5
  8
BUHIN-3
  6
HIDDEN
 66
     1
 10
0.0
 20
0.0
 30
0.0
  0
VERTEX
  5
2A6B0
  8
BUHIN-3
  6
HIDDEN
 10
206.1422810523253
 20
703.46664361812316
 30
0.0
  0
VERTEX
  5
2A6B1
  8
BUHIN-3
  6
HIDDEN
 10
205.2801790523252
 20
703.29563161812325
 30
0.0
  0
VERTEX
  5
2A6B2
  8
BUHIN-3
  6
HIDDEN
 10
204.96780105232509
 20
703.20922961812312
 30
0.0
  0
VERTEX
  5
2A6B3
  8
BUHIN-3
  6
HIDDEN
 10
204.86024505232521
 20
703.15157961812315
 30
0.0
  0
VERTEX
  5
2A6B4
  8
BUHIN-3
  6
HIDDEN
 10
204.84680505232529
 20
703.12501961812313
 30
0.0
  0
SEQEND
  5
2A6B5
  8
BUHIN-3
  6
HIDDEN
  0
POLYLINE
  5
28EF6
  8
BUHIN-3
  6
HIDDEN
 66
     1
 10
0.0
 20
0.0
 30
0.0
  0
VERTEX
  5
2A6B6
  8
BUHIN-3
  6
HIDDEN
 10
204.84680505232529
 20
703.12501961812313
 30
0.0
  0
VERTEX
  5
2A6B7
  8
BUHIN-3
  6
HIDDEN
 10
204.8617910523252
 20
703.09884961812315
 30
0.0
  0
VERTEX
  5
2A6B8
  8
BUHIN-3
  6
HIDDEN
 10
204.98129305232521
 20
703.05251361812304
 30
0.0
  0
VERTEX
  5
2A6B9
  8
BUHIN-3
  6
HIDDEN
 10
205.37799505232519
 20
703.00003361812333
 30
0.0
  0
VERTEX
  5
2A6BA
  8
BUHIN-3
  6
HIDDEN
 10
205.77840705232509
 20
702.97799961812325
 30
0.0
  0
SEQEND
  5
2A6BB
  8
BUHIN-3
  6
HIDDEN
  0
POLYLINE
  5
28EF7
  8
BUHIN-3
  6
HIDDEN
 66
     1
 10
0.0
 20
0.0
 30
0.0
  0
VERTEX
  5
2A6BC
  8
BUHIN-3
  6
HIDDEN
 10
206.4887450523253
 20
703.46664361812316
 30
0.0
  0
VERTEX
  5
2A6BD
  8
BUHIN-3
  6
HIDDEN
 10
206.83448705232519
 20
703.40416561812322
 30
0.0
  0
VERTEX
  5
2A6BE
  8
BUHIN-3
  6
HIDDEN
 10
208.09890905232521
 20
703.26772161812323
 30
0.0
  0
VERTEX
  5
2A6BF
  8
BUHIN-3
  6
HIDDEN
 10
210.23128505232521
 20
703.09900761812321
 30
0.0
  0
VERTEX
  5
2A6C0
  8
BUHIN-3
  6
HIDDEN
 10
211.97238305232511
 20
703.00480361812333
 30
0.0
  0
VERTEX
  5
2A6C1
  8
BUHIN-3
  6
HIDDEN
 10
212.7533730523254
 20
702.97800161812324
 30
0.0
  0
SEQEND
  5
2A6C2
  8
BUHIN-3
  6
HIDDEN
  0
POLYLINE
  5
28EF8
  8
BUHIN-3
  6
HIDDEN
 66
     1
 10
0.0
 20
0.0
 30
0.0
  0
VERTEX
  5
2A6C3
  8
BUHIN-3
  6
HIDDEN
 10
213.2608990523253
 20
702.96664361812327
 30
0.0
  0
VERTEX
  5
2A6C4
  8
BUHIN-3
  6
HIDDEN
 10
212.75339505232529
 20
702.97801561812321
 30
0.0
  0
SEQEND
  5
2A6C5
  8
BUHIN-3
  6
HIDDEN
  0
LINE
  5
28EF9
  8
BUHIN-3
  6
HIDDEN
 10
235.40315105232531
 20
697.47066961812311
 30
0.0
 11
235.40315105232531
 21
697.46884161812318
 31
0.0
  0
POLYLINE
  5
28EFA
  8
BUHIN-3
  6
HIDDEN
 66
     1
 10
0.0
 20
0.0
 30
0.0
  0
VERTEX
  5
2A6C6
  8
BUHIN-3
  6
HIDDEN
 10
282.23518905232538
 20
702.26766361812315
 30
0.0
  0
VERTEX
  5
2A6C7
  8
BUHIN-3
  6
HIDDEN
 10
283.62898105232517
 20
699.21194161812332
 30
0.0
  0
VERTEX
  5
2A6C8
  8
BUHIN-3
  6
HIDDEN
 10
284.78501905232531
 20
696.69508961812312
 30
0.0
  0
VERTEX
  5
2A6C9
  8
BUHIN-3
  6
HIDDEN
 10
285.52039105232541
 20
695.00076761812329
 30
0.0
  0
VERTEX
  5
2A6CA
  8
BUHIN-3
  6
HIDDEN
 10
286.07558505232538
 20
693.61662761812306
 30
0.0
  0
VERTEX
  5
2A6CB
  8
BUHIN-3
  6
HIDDEN
 10
286.52274105232522
 20
692.40175161812317
 30
0.0
  0
VERTEX
  5
2A6CC
  8
BUHIN-3
  6
HIDDEN
 10
286.9948850523254
 20
691.01389361812312
 30
0.0
  0
VERTEX
  5
2A6CD
  8
BUHIN-3
  6
HIDDEN
 10
287.35006505232548
 20
689.82633961812326
 30
0.0
  0
VERTEX
  5
2A6CE
  8
BUHIN-3
  6
HIDDEN
 10
287.62570705232548
 20
688.72341761812322
 30
0.0
  0
VERTEX
  5
2A6CF
  8
BUHIN-3
  6
HIDDEN
 10
287.85408305232511
 20
687.58520961812314
 30
0.0
  0
VERTEX
  5
2A6D0
  8
BUHIN-3
  6
HIDDEN
 10
288.0183510523251
 20
686.46620561812324
 30
0.0
  0
VERTEX
  5
2A6D1
  8
BUHIN-3
  6
HIDDEN
 10
288.11454705232552
 20
685.51999161812319
 30
0.0
  0
VERTEX
  5
2A6D2
  8
BUHIN-3
  6
HIDDEN
 10
288.18079105232522
 20
684.58102761812324
 30
0.0
  0
VERTEX
  5
2A6D3
  8
BUHIN-3
  6
HIDDEN
 10
288.20614905232549
 20
683.55873561812314
 30
0.0
  0
VERTEX
  5
2A6D4
  8
BUHIN-3
  6
HIDDEN
 10
288.18485305232508
 20
682.82865161812333
 30
0.0
  0
VERTEX
  5
2A6D5
  8
BUHIN-3
  6
HIDDEN
 10
288.09133705232517
 20
681.79040961812325
 30
0.0
  0
VERTEX
  5
2A6D6
  8
BUHIN-3
  6
HIDDEN
 10
287.89109905232527
 20
680.48122961812317
 30
0.0
  0
VERTEX
  5
2A6D7
  8
BUHIN-3
  6
HIDDEN
 10
287.7265770523253
 20
679.62696361812323
 30
0.0
  0
VERTEX
  5
2A6D8
  8
BUHIN-3
  6
HIDDEN
 10
287.54857505232519
 20
678.95875961812305
 30
0.0
  0
VERTEX
  5
2A6D9
  8
BUHIN-3
  6
HIDDEN
 10
287.28526105232538
 20
678.13089561812319
 30
0.0
  0
VERTEX
  5
2A6DA
  8
BUHIN-3
  6
HIDDEN
 10
286.90503105232523
 20
677.13777161812322
 30
0.0
  0
VERTEX
  5
2A6DB
  8
BUHIN-3
  6
HIDDEN
 10
286.48957305232523
 20
676.1841196181233
 30
0.0
  0
VERTEX
  5
2A6DC
  8
BUHIN-3
  6
HIDDEN
 10
286.05113905232508
 20
675.35380361812315
 30
0.0
  0
VERTEX
  5
2A6DD
  8
BUHIN-3
  6
HIDDEN
 10
285.3018650523253
 20
674.17386761812315
 30
0.0
  0
VERTEX
  5
2A6DE
  8
BUHIN-3
  6
HIDDEN
 10
284.97173505232553
 20
673.70175161812313
 30
0.0
  0
VERTEX
  5
2A6DF
  8
BUHIN-3
  6
HIDDEN
 10
284.57790305232533
 20
673.18905761812312
 30
0.0
  0
VERTEX
  5
2A6E0
  8
BUHIN-3
  6
HIDDEN
 10
284.16374905232522
 20
672.69140761812332
 30
0.0
  0
VERTEX
  5
2A6E1
  8
BUHIN-3
  6
HIDDEN
 10
283.77265305232538
 20
672.26442961812313
 30
0.0
  0
VERTEX
  5
2A6E2
  8
BUHIN-3
  6
HIDDEN
 10
282.95633905232518
 20
671.44369761812322
 30
0.0
  0
VERTEX
  5
2A6E3
  8
BUHIN-3
  6
HIDDEN
 10
282.51958305232517
 20
671.03229161812317
 30
0.0
  0
VERTEX
  5
2A6E4
  8
BUHIN-3
  6
HIDDEN
 10
282.08281305232538
 20
670.65624761812319
 30
0.0
  0
VERTEX
  5
2A6E5
  8
BUHIN-3
  6
HIDDEN
 10
281.2505930523252
 20
670.01941561812328
 30
0.0
  0
VERTEX
  5
2A6E6
  8
BUHIN-3
  6
HIDDEN
 10
280.41845305232522
 20
669.44297961812322
 30
0.0
  0
VERTEX
  5
2A6E7
  8
BUHIN-3
  6
HIDDEN
 10
279.6486590523254
 20
668.95682761812316
 30
0.0
  0
VERTEX
  5
2A6E8
  8
BUHIN-3
  6
HIDDEN
 10
278.70301505232538
 20
668.42629161812317
 30
0.0
  0
VERTEX
  5
2A6E9
  8
BUHIN-3
  6
HIDDEN
 10
277.76783505232549
 20
667.96457761812314
 30
0.0
  0
VERTEX
  5
2A6EA
  8
BUHIN-3
  6
HIDDEN
 10
276.78616105232538
 20
667.51448561812322
 30
0.0
  0
VERTEX
  5
2A6EB
  8
BUHIN-3
  6
HIDDEN
 10
275.3658850523251
 20
666.93941561812312
 30
0.0
  0
VERTEX
  5
2A6EC
  8
BUHIN-3
  6
HIDDEN
 10
274.16469105232528
 20
666.50828961812317
 30
0.0
  0
VERTEX
  5
2A6ED
  8
BUHIN-3
  6
HIDDEN
 10
271.12172905232529
 20
665.50071761812308
 30
0.0
  0
VERTEX
  5
2A6EE
  8
BUHIN-3
  6
HIDDEN
 10
270.1233030523253
 20
665.14263761812322
 30
0.0
  0
VERTEX
  5
2A6EF
  8
BUHIN-3
  6
HIDDEN
 10
269.5481950523253
 20
664.91664761812331
 30
0.0
  0
VERTEX
  5
2A6F0
  8
BUHIN-3
  6
HIDDEN
 10
268.81872105232549
 20
664.54856561812301
 30
0.0
  0
VERTEX
  5
2A6F1
  8
BUHIN-3
  6
HIDDEN
 10
268.39853105232521
 20
664.31292161812326
 30
0.0
  0
VERTEX
  5
2A6F2
  8
BUHIN-3
  6
HIDDEN
 10
267.94192905232552
 20
664.00136361812315
 30
0.0
  0
VERTEX
  5
2A6F3
  8
BUHIN-3
  6
HIDDEN
 10
267.4247310523254
 20
663.58162561812333
 30
0.0
  0
VERTEX
  5
2A6F4
  8
BUHIN-3
  6
HIDDEN
 10
266.96750505232552
 20
663.14066561812319
 30
0.0
  0
VERTEX
  5
2A6F5
  8
BUHIN-3
  6
HIDDEN
 10
266.81015305232529
 20
662.96664361812316
 30
0.0
  0
SEQEND
  5
2A6F6
  8
BUHIN-3
  6
HIDDEN
  0
LINE
  5
28EFB
  8
BUHIN-3
  6
HIDDEN
 10
269.67651905232549
 20
664.97274561812299
 30
0.0
 11
269.5766410523255
 21
664.93476761812315
 31
0.0
  0
POLYLINE
  5
28EFC
  8
BUHIN-3
  6
HIDDEN
 66
     1
 10
0.0
 20
0.0
 30
0.0
  0
VERTEX
  5
2A6F7
  8
BUHIN-3
  6
HIDDEN
 10
221.91206905232531
 20
676.73836361812323
 30
0.0
  0
VERTEX
  5
2A6F8
  8
BUHIN-3
  6
HIDDEN
 10
222.22641505232519
 20
675.72550961812306
 30
0.0
  0
VERTEX
  5
2A6F9
  8
BUHIN-3
  6
HIDDEN
 10
222.3772710523252
 20
675.32157361812324
 30
0.0
  0
VERTEX
  5
2A6FA
  8
BUHIN-3
  6
HIDDEN
 10
222.54596505232519
 20
674.93106161812329
 30
0.0
  0
VERTEX
  5
2A6FB
  8
BUHIN-3
  6
HIDDEN
 10
222.93988105232509
 20
674.18963361812325
 30
0.0
  0
VERTEX
  5
2A6FC
  8
BUHIN-3
  6
HIDDEN
 10
223.3901770523251
 20
673.44937761812309
 30
0.0
  0
VERTEX
  5
2A6FD
  8
BUHIN-3
  6
HIDDEN
 10
223.91796105232521
 20
672.76375561812324
 30
0.0
  0
VERTEX
  5
2A6FE
  8
BUHIN-3
  6
HIDDEN
 10
224.46954905232531
 20
672.1340396181231
 30
0.0
  0
VERTEX
  5
2A6FF
  8
BUHIN-3
  6
HIDDEN
 10
225.1034070523252
 20
671.54269761812316
 30
0.0
  0
VERTEX
  5
2A700
  8
BUHIN-3
  6
HIDDEN
 10
225.4186970523252
 20
671.26964961812314
 30
0.0
  0
VERTEX
  5
2A701
  8
BUHIN-3
  6
HIDDEN
 10
225.76428505232531
 20
670.99718961812323
 30
0.0
  0
VERTEX
  5
2A702
  8
BUHIN-3
  6
HIDDEN
 10
226.6221390523252
 20
670.42297361812325
 30
0.0
  0
VERTEX
  5
2A703
  8
BUHIN-3
  6
HIDDEN
 10
227.51047505232521
 20
669.90217561812324
 30
0.0
  0
VERTEX
  5
2A704
  8
BUHIN-3
  6
HIDDEN
 10
227.98208305232521
 20
669.66085361812316
 30
0.0
  0
VERTEX
  5
2A705
  8
BUHIN-3
  6
HIDDEN
 10
228.9629270523252
 20
669.22559961812317
 30
0.0
  0
VERTEX
  5
2A706
  8
BUHIN-3
  6
HIDDEN
 10
229.9681010523253
 20
668.85644361812308
 30
0.0
  0
VERTEX
  5
2A707
  8
BUHIN-3
  6
HIDDEN
 10
230.9733210523253
 20
668.54151961812317
 30
0.0
  0
VERTEX
  5
2A708
  8
BUHIN-3
  6
HIDDEN
 10
231.6094670523253
 20
668.36606561812323
 30
0.0
  0
VERTEX
  5
2A709
  8
BUHIN-3
  6
HIDDEN
 10
231.77237105232541
 20
668.3265936181233
 30
0.0
  0
SEQEND
  5
2A70A
  8
BUHIN-3
  6
HIDDEN
  0
LINE
  5
28EFD
  8
BUHIN-3
  6
HIDDEN
 10
211.9031510523254
 20
702.14081161812317
 30
0.0
 11
211.9031510523254
 21
688.46664361812316
 31
0.0
  0
POLYLINE
  5
28EFE
  8
BUHIN-3
  6
HIDDEN
 66
     1
 10
0.0
 20
0.0
 30
0.0
  0
VERTEX
  5
2A70B
  8
BUHIN-3
  6
HIDDEN
 10
211.9031390523254
 20
699.59621961812331
 30
0.0
  0
VERTEX
  5
2A70C
  8
BUHIN-3
  6
HIDDEN
 10
210.8003850523254
 20
697.20571961812311
 30
0.0
  0
VERTEX
  5
2A70D
  8
BUHIN-3
  6
HIDDEN
 10
209.99331905232529
 20
695.3734236181233
 30
0.0
  0
VERTEX
  5
2A70E
  8
BUHIN-3
  6
HIDDEN
 10
209.45977105232521
 20
694.08330961812305
 30
0.0
  0
VERTEX
  5
2A70F
  8
BUHIN-3
  6
HIDDEN
 10
208.9582050523253
 20
692.75386361812321
 30
0.0
  0
VERTEX
  5
2A710
  8
BUHIN-3
  6
HIDDEN
 10
208.5812910523253
 20
691.6865416181231
 30
0.0
  0
VERTEX
  5
2A711
  8
BUHIN-3
  6
HIDDEN
 10
208.16623905232521
 20
690.39132161812313
 30
0.0
  0
VERTEX
  5
2A712
  8
BUHIN-3
  6
HIDDEN
 10
207.8615730523253
 20
689.28251561812306
 30
0.0
  0
VERTEX
  5
2A713
  8
BUHIN-3
  6
HIDDEN
 10
207.60688705232531
 20
688.15549761812326
 30
0.0
  0
VERTEX
  5
2A714
  8
BUHIN-3
  6
HIDDEN
 10
207.4090310523253
 20
687.01972161812319
 30
0.0
  0
VERTEX
  5
2A715
  8
BUHIN-3
  6
HIDDEN
 10
207.27934105232529
 20
685.95588761812314
 30
0.0
  0
VERTEX
  5
2A716
  8
BUHIN-3
  6
HIDDEN
 10
207.18992705232529
 20
684.8662576181232
 30
0.0
  0
VERTEX
  5
2A717
  8
BUHIN-3
  6
HIDDEN
 10
207.14978105232521
 20
683.87837361812331
 30
0.0
  0
VERTEX
  5
2A718
  8
BUHIN-3
  6
HIDDEN
 10
207.16139705232521
 20
682.97937961812306
 30
0.0
  0
VERTEX
  5
2A719
  8
BUHIN-3
  6
HIDDEN
 10
207.21545505232541
 20
682.23832161812334
 30
0.0
  0
VERTEX
  5
2A71A
  8
BUHIN-3
  6
HIDDEN
 10
207.3197630523253
 20
681.37192561812321
 30
0.0
  0
VERTEX
  5
2A71B
  8
BUHIN-3
  6
HIDDEN
 10
207.5446490523253
 20
680.02419961812325
 30
0.0
  0
VERTEX
  5
2A71C
  8
BUHIN-3
  6
HIDDEN
 10
207.6750110523252
 20
679.43027161812324
 30
0.0
  0
VERTEX
  5
2A71D
  8
BUHIN-3
  6
HIDDEN
 10
207.88833905232519
 20
678.6839396181233
 30
0.0
  0
VERTEX
  5
2A71E
  8
BUHIN-3
  6
HIDDEN
 10
208.06876705232531
 20
678.13089561812319
 30
0.0
  0
VERTEX
  5
2A71F
  8
BUHIN-3
  6
HIDDEN
 10
208.4489970523253
 20
677.13777161812322
 30
0.0
  0
VERTEX
  5
2A720
  8
BUHIN-3
  6
HIDDEN
 10
208.86445705232529
 20
676.1841196181233
 30
0.0
  0
VERTEX
  5
2A721
  8
BUHIN-3
  6
HIDDEN
 10
209.30288905232521
 20
675.35380361812315
 30
0.0
  0
VERTEX
  5
2A722
  8
BUHIN-3
  6
HIDDEN
 10
210.0521630523252
 20
674.17386761812315
 30
0.0
  0
VERTEX
  5
2A723
  8
BUHIN-3
  6
HIDDEN
 10
210.36089505232519
 20
673.72617161812332
 30
0.0
  0
VERTEX
  5
2A724
  8
BUHIN-3
  6
HIDDEN
 10
210.6905310523253
 20
673.28673361812309
 30
0.0
  0
VERTEX
  5
2A725
  8
BUHIN-3
  6
HIDDEN
 10
211.03142305232529
 20
672.86810761812319
 30
0.0
  0
VERTEX
  5
2A726
  8
BUHIN-3
  6
HIDDEN
 10
211.7273350523254
 20
672.10944561812312
 30
0.0
  0
VERTEX
  5
2A727
  8
BUHIN-3
  6
HIDDEN
 10
212.4762730523251
 20
671.35725761812307
 30
0.0
  0
VERTEX
  5
2A728
  8
BUHIN-3
  6
HIDDEN
 10
213.18394105232539
 20
670.72323161812324
 30
0.0
  0
VERTEX
  5
2A729
  8
BUHIN-3
  6
HIDDEN
 10
213.89408505232529
 20
670.16713161812322
 30
0.0
  0
VERTEX
  5
2A72A
  8
BUHIN-3
  6
HIDDEN
 10
215.0231470523253
 20
669.37954761812318
 30
0.0
  0
VERTEX
  5
2A72B
  8
BUHIN-3
  6
HIDDEN
 10
215.7108430523252
 20
668.95286361812327
 30
0.0
  0
VERTEX
  5
2A72C
  8
BUHIN-3
  6
HIDDEN
 10
216.65101305232531
 20
668.42629161812317
 30
0.0
  0
VERTEX
  5
2A72D
  8
BUHIN-3
  6
HIDDEN
 10
217.5861930523252
 20
667.96457761812314
 30
0.0
  0
VERTEX
  5
2A72E
  8
BUHIN-3
  6
HIDDEN
 10
218.56786905232531
 20
667.51448561812322
 30
0.0
  0
VERTEX
  5
2A72F
  8
BUHIN-3
  6
HIDDEN
 10
219.9881430523252
 20
666.93941561812312
 30
0.0
  0
VERTEX
  5
2A730
  8
BUHIN-3
  6
HIDDEN
 10
221.18933905232541
 20
666.50828961812317
 30
0.0
  0
VERTEX
  5
2A731
  8
BUHIN-3
  6
HIDDEN
 10
224.2322990523252
 20
665.50071761812308
 30
0.0
  0
VERTEX
  5
2A732
  8
BUHIN-3
  6
HIDDEN
 10
225.23072705232531
 20
665.14263761812322
 30
0.0
  0
VERTEX
  5
2A733
  8
BUHIN-3
  6
HIDDEN
 10
225.8058330523252
 20
664.91664761812331
 30
0.0
  0
VERTEX
  5
2A734
  8
BUHIN-3
  6
HIDDEN
 10
226.53605505232539
 20
664.54810561812315
 30
0.0
  0
VERTEX
  5
2A735
  8
BUHIN-3
  6
HIDDEN
 10
226.96745305232531
 20
664.30557961812315
 30
0.0
  0
VERTEX
  5
2A736
  8
BUHIN-3
  6
HIDDEN
 10
227.37028105232531
 20
664.03696961812329
 30
0.0
  0
VERTEX
  5
2A737
  8
BUHIN-3
  6
HIDDEN
 10
228.0102750523252
 20
663.5150816181233
 30
0.0
  0
VERTEX
  5
2A738
  8
BUHIN-3
  6
HIDDEN
 10
228.2340770523252
 20
663.31694761812332
 30
0.0
  0
VERTEX
  5
2A739
  8
BUHIN-3
  6
HIDDEN
 10
228.54074505232509
 20
662.96655761812315
 30
0.0
  0
SEQEND
  5
2A73A
  8
BUHIN-3
  6
HIDDEN
  0
LINE
  5
28EFF
  8
BUHIN-3
  6
HIDDEN
 10
228.18626705232521
 20
663.36578361812326
 30
0.0
 11
228.18254305232529
 21
663.36895161812322
 31
0.0
  0
ARC
  5
28F00
  8
BUHIN-3
  6
HIDDEN
 10
242.22746905232529
 20
699.29099361812314
 30
0.0
 40
7.0898399999999988
 50
235.30927199999979
 51
236.77644499999889
  0
ARC
  5
28F01
  8
BUHIN-3
  6
HIDDEN
 10
242.1747910523253
 20
699.21293761812331
 30
0.0
 40
6.9956740000000002
 50
233.88646500000141
 51
235.30016000000231
  0
POLYLINE
  5
28F02
  8
BUHIN-3
  6
HIDDEN
 66
     1
 10
0.0
 20
0.0
 30
0.0
  0
VERTEX
  5
2A73B
  8
BUHIN-3
  6
HIDDEN
 10
235.2344770523253
 20
698.32217361812332
 30
0.0
  0
VERTEX
  5
2A73C
  8
BUHIN-3
  6
HIDDEN
 10
235.31125105232519
 20
697.85252361812331
 30
0.0
  0
VERTEX
  5
2A73D
  8
BUHIN-3
  6
HIDDEN
 10
235.4197510523253
 20
697.38917561812332
 30
0.0
  0
VERTEX
  5
2A73E
  8
BUHIN-3
  6
HIDDEN
 10
235.5594910523254
 20
696.93428361812312
 30
0.0
  0
VERTEX
  5
2A73F
  8
BUHIN-3
  6
HIDDEN
 10
235.7298330523252
 20
696.4899556181233
 30
0.0
  0
VERTEX
  5
2A740
  8
BUHIN-3
  6
HIDDEN
 10
235.92998905232531
 20
696.05824561812324
 30
0.0
  0
SEQEND
  5
2A741
  8
BUHIN-3
  6
HIDDEN
  0
POLYLINE
  5
28F03
  8
BUHIN-3
  6
HIDDEN
 66
     1
 10
0.0
 20
0.0
 30
0.0
  0
VERTEX
  5
2A742
  8
BUHIN-3
  6
HIDDEN
 10
236.55441905232519
 20
695.04698561812324
 30
0.0
  0
VERTEX
  5
2A743
  8
BUHIN-3
  6
HIDDEN
 10
236.83468705232539
 20
694.69350561812325
 30
0.0
  0
VERTEX
  5
2A744
  8
BUHIN-3
  6
HIDDEN
 10
237.13713305232531
 20
694.35879961812304
 30
0.0
  0
VERTEX
  5
2A745
  8
BUHIN-3
  6
HIDDEN
 10
237.46049705232539
 20
694.04425761812331
 30
0.0
  0
VERTEX
  5
2A746
  8
BUHIN-3
  6
HIDDEN
 10
237.8034390523251
 20
693.75118761812314
 30
0.0
  0
VERTEX
  5
2A747
  8
BUHIN-3
  6
HIDDEN
 10
238.16453705232519
 20
693.48080561812321
 30
0.0
  0
SEQEND
  5
2A748
  8
BUHIN-3
  6
HIDDEN
  0
POLYLINE
  5
28F04
  8
BUHIN-3
  6
HIDDEN
 66
     1
 10
0.0
 20
0.0
 30
0.0
  0
VERTEX
  5
2A749
  8
BUHIN-3
  6
HIDDEN
 10
235.18317905232519
 20
699.50887561812328
 30
0.0
  0
VERTEX
  5
2A74A
  8
BUHIN-3
  6
HIDDEN
 10
235.17701505232529
 20
699.21664361812316
 30
0.0
  0
SEQEND
  5
2A74B
  8
BUHIN-3
  6
HIDDEN
  0
POLYLINE
  5
28F05
  8
BUHIN-3
  6
HIDDEN
 66
     1
 10
0.0
 20
0.0
 30
0.0
  0
VERTEX
  5
2A74C
  8
BUHIN-3
  6
HIDDEN
 10
235.76130505232541
 20
702.01657761812305
 30
0.0
  0
VERTEX
  5
2A74D
  8
BUHIN-3
  6
HIDDEN
 10
235.55819105232521
 20
701.49522961812306
 30
0.0
  0
VERTEX
  5
2A74E
  8
BUHIN-3
  6
HIDDEN
 10
235.3973910523253
 20
700.95929961812317
 30
0.0
  0
VERTEX
  5
2A74F
  8
BUHIN-3
  6
HIDDEN
 10
235.33318905232531
 20
700.68693561812324
 30
0.0
  0
SEQEND
  5
2A750
  8
BUHIN-3
  6
HIDDEN
  0
ARC
  5
28F06
  8
BUHIN-3
  6
HIDDEN
 10
242.17716505232539
 20
699.21638761812324
 30
0.0
 40
7.0002759999999986
 50
90.001226999995907
 51
156.42058900000131
  0
LINE
  5
28F07
  8
BUHIN-3
  6
HIDDEN
 10
235.23612705232529
 20
698.32238561812323
 30
0.0
 11
235.19097705232531
 21
698.78331161812309
 31
0.0
  0
LINE
  5
28F08
  8
BUHIN-3
  6
HIDDEN
 10
236.13143705232531
 20
695.68798361812333
 30
0.0
 11
235.9300950523253
 21
696.05829961812333
 31
0.0
  0
LINE
  5
28F09
  8
BUHIN-3
  6
HIDDEN
 10
236.55548905232521
 20
695.04777961812329
 30
0.0
 11
236.13143705232531
 21
695.68798361812333
 31
0.0
  0
LINE
  5
28F0A
  8
BUHIN-3
  6
HIDDEN
 10
235.19097705232531
 20
698.78331161812309
 30
0.0
 11
235.17701505232529
 21
699.21664361812316
 31
0.0
  0
LINE
  5
28F0B
  8
BUHIN-3
  6
HIDDEN
 10
235.33470905232539
 20
700.68660961812304
 30
0.0
 11
235.28079505232529
 21
700.40900961812315
 31
0.0
  0
LINE
  5
28F0C
  8
BUHIN-3
  6
HIDDEN
 10
235.28079505232529
 20
700.40900961812315
 30
0.0
 11
235.18572505232521
 21
699.50876961812298
 31
0.0
  0
LINE
  5
28F0D
  8
BUHIN-3
  6
HIDDEN
 10
253.17701505232509
 20
706.21664361812316
 30
0.0
 11
242.17701505232509
 21
706.21664361812316
 31
0.0
  0
ARC
  5
28F0E
  8
BUHIN-3
  6
HIDDEN
 10
253.1265630523252
 20
699.29099161812314
 30
0.0
 40
7.0898380000000003
 50
303.22434100000402
 51
304.69072500000351
  0
ARC
  5
28F0F
  8
BUHIN-3
  6
HIDDEN
 10
253.17924905232519
 20
699.21292361812311
 30
0.0
 40
6.9956579999999997
 50
304.69982400000418
 51
306.1129449999969
  0
ARC
  5
28F10
  8
BUHIN-3
  6
HIDDEN
 10
253.185683052325
 20
699.20548161812314
 30
0.0
 40
6.985824
 50
309.60049899999728
 51
310.489490999998
  0
POLYLINE
  5
28F11
  8
BUHIN-3
  6
HIDDEN
 66
     1
 10
0.0
 20
0.0
 30
0.0
  0
VERTEX
  5
2A751
  8
BUHIN-3
  6
HIDDEN
 10
257.54141305232531
 20
693.74385561812323
 30
0.0
  0
VERTEX
  5
2A752
  8
BUHIN-3
  6
HIDDEN
 10
257.57744705232511
 20
693.77278961812317
 30
0.0
  0
SEQEND
  5
2A753
  8
BUHIN-3
  6
HIDDEN
  0
POLYLINE
  5
28F12
  8
BUHIN-3
  6
HIDDEN
 66
     1
 10
0.0
 20
0.0
 30
0.0
  0
VERTEX
  5
2A754
  8
BUHIN-3
  6
HIDDEN
 10
258.4345750523251
 20
694.59525561812325
 30
0.0
  0
VERTEX
  5
2A755
  8
BUHIN-3
  6
HIDDEN
 10
258.73621505232529
 20
694.96284361812332
 30
0.0
  0
VERTEX
  5
2A756
  8
BUHIN-3
  6
HIDDEN
 10
259.01221105232509
 20
695.35005561812306
 30
0.0
  0
VERTEX
  5
2A757
  8
BUHIN-3
  6
HIDDEN
 10
259.2612810523255
 20
695.75510961812324
 30
0.0
  0
VERTEX
  5
2A758
  8
BUHIN-3
  6
HIDDEN
 10
259.48226905232548
 20
696.17614361812321
 30
0.0
  0
VERTEX
  5
2A759
  8
BUHIN-3
  6
HIDDEN
 10
259.67414705232511
 20
696.61122161812307
 30
0.0
  0
SEQEND
  5
2A75A
  8
BUHIN-3
  6
HIDDEN
  0
POLYLINE
  5
28F13
  8
BUHIN-3
  6
HIDDEN
 66
     1
 10
0.0
 20
0.0
 30
0.0
  0
VERTEX
  5
2A75B
  8
BUHIN-3
  6
HIDDEN
 10
260.00150105232512
 20
697.65900561812316
 30
0.0
  0
VERTEX
  5
2A75C
  8
BUHIN-3
  6
HIDDEN
 10
260.11359505232519
 20
698.27706961812328
 30
0.0
  0
VERTEX
  5
2A75D
  8
BUHIN-3
  6
HIDDEN
 10
260.16990305232542
 20
698.90264361812319
 30
0.0
  0
VERTEX
  5
2A75E
  8
BUHIN-3
  6
HIDDEN
 10
260.17701505232509
 20
699.21664361812316
 30
0.0
  0
VERTEX
  5
2A75F
  8
BUHIN-3
  6
HIDDEN
 10
260.15324305232508
 20
699.79202561812315
 30
0.0
  0
VERTEX
  5
2A760
  8
BUHIN-3
  6
HIDDEN
 10
260.08235105232541
 20
700.3636056181233
 30
0.0
  0
VERTEX
  5
2A761
  8
BUHIN-3
  6
HIDDEN
 10
259.96474305232539
 20
700.92744161812311
 30
0.0
  0
VERTEX
  5
2A762
  8
BUHIN-3
  6
HIDDEN
 10
259.80116705232552
 20
701.47968761812319
 30
0.0
  0
VERTEX
  5
2A763
  8
BUHIN-3
  6
HIDDEN
 10
259.59272105232537
 20
702.01658761812314
 30
0.0
  0
SEQEND
  5
2A764
  8
BUHIN-3
  6
HIDDEN
  0
ARC
  5
28F14
  8
BUHIN-3
  6
HIDDEN
 10
253.1768650523253
 20
699.21638761812324
 30
0.0
 40
7.0002759999999986
 50
23.579410999998661
 51
25.715807000001281
  0
ARC
  5
28F15
  8
BUHIN-3
  6
HIDDEN
 10
253.1768650523253
 20
699.21638761812324
 30
0.0
 40
7.0002759999999986
 50
37.57741000000069
 51
89.998773000004093
  0
LINE
  5
28F16
  8
BUHIN-3
  6
HIDDEN
 10
258.80000705232521
 20
703.38201561812309
 30
0.0
 11
258.72394305232541
 21
703.48472961812331
 31
0.0
  0
LINE
  5
28F17
  8
BUHIN-3
  6
HIDDEN
 10
259.20681105232541
 20
702.77112561812316
 30
0.0
 11
259.10749505232508
 21
702.93535761812313
 31
0.0
  0
LINE
  5
28F18
  8
BUHIN-3
  6
HIDDEN
 10
259.48384505232508
 20
702.25387561812317
 30
0.0
 11
259.30789705232507
 21
702.59392761812308
 31
0.0
  0
LINE
  5
28F19
  8
BUHIN-3
  6
HIDDEN
 10
258.4323990523252
 20
694.59716961812308
 30
0.0
 11
257.72164305232519
 21
693.89258161812313
 31
0.0
  0
LINE
  5
28F1A
  8
BUHIN-3
  6
HIDDEN
 10
259.30789705232507
 20
702.59392761812308
 30
0.0
 11
259.20681105232541
 21
702.77112561812316
 31
0.0
  0
LINE
  5
28F1B
  8
BUHIN-3
  6
HIDDEN
 10
259.76752905232507
 20
696.85790161812315
 30
0.0
 11
259.67148705232552
 21
696.6122876181231
 31
0.0
  0
LINE
  5
28F1C
  8
BUHIN-3
  6
HIDDEN
 10
260.00150105232512
 20
697.65900561812316
 30
0.0
 11
259.76752905232507
 21
696.85790161812315
 31
0.0
  0
LINE
  5
28F1D
  8
BUHIN-3
  6
HIDDEN
 10
257.6393010523251
 20
693.82207761812333
 30
0.0
 11
257.54141305232531
 21
693.74385561812323
 31
0.0
  0
LINE
  5
28F1E
  8
BUHIN-3
  6
HIDDEN
 10
257.72164305232519
 20
693.89258161812313
 30
0.0
 11
257.57718705232531
 21
693.77311361812315
 31
0.0
  0
LINE
  5
28F1F
  8
BUHIN-3
  6
HIDDEN
 10
257.54141305232531
 20
693.74385561812323
 30
0.0
 11
257.30330705232552
 21
693.56011161812319
 31
0.0
  0
LINE
  5
28F20
  8
BUHIN-3
  6
HIDDEN
 10
257.7596670523252
 20
703.21663961812317
 30
0.0
 11
237.59436305232529
 21
703.21663961812317
 31
0.0
  0
POLYLINE
  5
28F21
  8
BUHIN-3
  6
HIDDEN
 66
     1
 10
0.0
 20
0.0
 30
0.0
  0
VERTEX
  5
2A765
  8
BUHIN-3
  6
HIDDEN
 10
253.89755105232541
 20
693.46147161812314
 30
0.0
  0
VERTEX
  5
2A766
  8
BUHIN-3
  6
HIDDEN
 10
255.0744050523252
 20
693.39995761812315
 30
0.0
  0
VERTEX
  5
2A767
  8
BUHIN-3
  6
HIDDEN
 10
256.14606905232529
 20
693.32008561812313
 30
0.0
  0
VERTEX
  5
2A768
  8
BUHIN-3
  6
HIDDEN
 10
256.70214305232543
 20
693.30855561812314
 30
0.0
  0
VERTEX
  5
2A769
  8
BUHIN-3
  6
HIDDEN
 10
256.89820705232512
 20
693.32606361812316
 30
0.0
  0
VERTEX
  5
2A76A
  8
BUHIN-3
  6
HIDDEN
 10
257.01132905232532
 20
693.35994561812322
 30
0.0
  0
SEQEND
  5
2A76B
  8
BUHIN-3
  6
HIDDEN
  0
POLYLINE
  5
28F22
  8
BUHIN-3
  6
HIDDEN
 66
     1
 10
0.0
 20
0.0
 30
0.0
  0
VERTEX
  5
2A76C
  8
BUHIN-3
  6
HIDDEN
 10
241.45677905232549
 20
693.46147161812314
 30
0.0
  0
VERTEX
  5
2A76D
  8
BUHIN-3
  6
HIDDEN
 10
240.27694905232519
 20
693.39972161812318
 30
0.0
  0
VERTEX
  5
2A76E
  8
BUHIN-3
  6
HIDDEN
 10
239.20480305232519
 20
693.31989561812316
 30
0.0
  0
VERTEX
  5
2A76F
  8
BUHIN-3
  6
HIDDEN
 10
238.65075505232531
 20
693.30862561812319
 30
0.0
  0
VERTEX
  5
2A770
  8
BUHIN-3
  6
HIDDEN
 10
238.45549305232529
 20
693.32618361812308
 30
0.0
  0
VERTEX
  5
2A771
  8
BUHIN-3
  6
HIDDEN
 10
238.34287505232521
 20
693.36003561812322
 30
0.0
  0
SEQEND
  5
2A772
  8
BUHIN-3
  6
HIDDEN
  0
POLYLINE
  5
28F23
  8
BUHIN-3
  6
HIDDEN
 66
     1
 10
0.0
 20
0.0
 30
0.0
  0
VERTEX
  5
2A773
  8
BUHIN-3
  6
HIDDEN
 10
263.0478010523251
 20
689.93787761812314
 30
0.0
  0
VERTEX
  5
2A774
  8
BUHIN-3
  6
HIDDEN
 10
263.03503505232533
 20
689.98180361812319
 30
0.0
  0
SEQEND
  5
2A775
  8
BUHIN-3
  6
HIDDEN
  0
LINE
  5
28F24
  8
BUHIN-3
  6
HIDDEN
 10
259.83744705232527
 20
693.30903961812317
 30
0.0
 11
258.87397105232537
 21
693.46147161812314
 31
0.0
  0
POLYLINE
  5
28F25
  8
BUHIN-3
  6
HIDDEN
 66
     1
 10
0.0
 20
0.0
 30
0.0
  0
VERTEX
  5
2A776
  8
BUHIN-3
  6
HIDDEN
 10
263.03506505232542
 20
689.98181361812306
 30
0.0
  0
VERTEX
  5
2A777
  8
BUHIN-3
  6
HIDDEN
 10
262.95703105232531
 20
690.27441761812315
 30
0.0
  0
VERTEX
  5
2A778
  8
BUHIN-3
  6
HIDDEN
 10
262.85946705232521
 20
690.56114961812307
 30
0.0
  0
VERTEX
  5
2A779
  8
BUHIN-3
  6
HIDDEN
 10
262.7428190523255
 20
690.84069961812315
 30
0.0
  0
VERTEX
  5
2A77A
  8
BUHIN-3
  6
HIDDEN
 10
262.607617052325
 20
691.1117936181231
 30
0.0
  0
VERTEX
  5
2A77B
  8
BUHIN-3
  6
HIDDEN
 10
262.45448105232509
 20
691.3731916181232
 30
0.0
  0
VERTEX
  5
2A77C
  8
BUHIN-3
  6
HIDDEN
 10
262.28410905232511
 20
691.62369761812329
 30
0.0
  0
VERTEX
  5
2A77D
  8
BUHIN-3
  6
HIDDEN
 10
262.09728105232517
 20
691.86217361812328
 30
0.0
  0
VERTEX
  5
2A77E
  8
BUHIN-3
  6
HIDDEN
 10
261.89484705232542
 20
692.08752361812321
 30
0.0
  0
VERTEX
  5
2A77F
  8
BUHIN-3
  6
HIDDEN
 10
261.6777350523252
 20
692.29872361812306
 30
0.0
  0
VERTEX
  5
2A780
  8
BUHIN-3
  6
HIDDEN
 10
261.44693305232511
 20
692.49480761812299
 30
0.0
  0
VERTEX
  5
2A781
  8
BUHIN-3
  6
HIDDEN
 10
261.20349705232542
 20
692.6748796181231
 30
0.0
  0
VERTEX
  5
2A782
  8
BUHIN-3
  6
HIDDEN
 10
260.9485410523252
 20
692.83811761812331
 30
0.0
  0
VERTEX
  5
2A783
  8
BUHIN-3
  6
HIDDEN
 10
260.68322505232521
 20
692.98377561812322
 30
0.0
  0
VERTEX
  5
2A784
  8
BUHIN-3
  6
HIDDEN
 10
260.40876105232508
 20
693.11118961812315
 30
0.0
  0
VERTEX
  5
2A785
  8
BUHIN-3
  6
HIDDEN
 10
260.12640705232508
 20
693.21977561812332
 30
0.0
  0
VERTEX
  5
2A786
  8
BUHIN-3
  6
HIDDEN
 10
259.83744705232527
 20
693.30903961812317
 30
0.0
  0
SEQEND
  5
2A787
  8
BUHIN-3
  6
HIDDEN
  0
LINE
  5
28F26
  8
BUHIN-3
  6
HIDDEN
 10
236.4800590523254
 20
693.46147161812314
 30
0.0
 11
235.51658105232519
 21
693.30903961812317
 31
0.0
  0
LINE
  5
28F27
  8
BUHIN-3
  6
HIDDEN
 10
232.22035905232531
 20
688.96664361812316
 30
0.0
 11
232.2036410523252
 21
688.96662761812331
 31
0.0
  0
POLYLINE
  5
28F28
  8
BUHIN-3
  6
HIDDEN
 66
     1
 10
0.0
 20
0.0
 30
0.0
  0
VERTEX
  5
2A788
  8
BUHIN-3
  6
HIDDEN
 10
235.51658105232519
 20
693.30903961812317
 30
0.0
  0
VERTEX
  5
2A789
  8
BUHIN-3
  6
HIDDEN
 10
235.1673470523252
 20
693.19841761812313
 30
0.0
  0
VERTEX
  5
2A78A
  8
BUHIN-3
  6
HIDDEN
 10
234.8282110523254
 20
693.05959361812324
 30
0.0
  0
VERTEX
  5
2A78B
  8
BUHIN-3
  6
HIDDEN
 10
234.50144305232519
 20
692.89349761812298
 30
0.0
  0
VERTEX
  5
2A78C
  8
BUHIN-3
  6
HIDDEN
 10
234.1892310523252
 20
692.70124361812316
 30
0.0
  0
VERTEX
  5
2A78D
  8
BUHIN-3
  6
HIDDEN
 10
233.89366505232519
 20
692.48411561812327
 30
0.0
  0
VERTEX
  5
2A78E
  8
BUHIN-3
  6
HIDDEN
 10
233.61672505232519
 20
692.24357161812316
 30
0.0
  0
VERTEX
  5
2A78F
  8
BUHIN-3
  6
HIDDEN
 10
233.36026505232519
 20
691.98121761812331
 30
0.0
  0
VERTEX
  5
2A790
  8
BUHIN-3
  6
HIDDEN
 10
233.12600105232519
 20
691.69881361812315
 30
0.0
  0
VERTEX
  5
2A791
  8
BUHIN-3
  6
HIDDEN
 10
232.91550105232531
 20
691.39824761812315
 30
0.0
  0
VERTEX
  5
2A792
  8
BUHIN-3
  6
HIDDEN
 10
232.7301770523253
 20
691.08153561812333
 30
0.0
  0
VERTEX
  5
2A793
  8
BUHIN-3
  6
HIDDEN
 10
232.57126905232539
 20
690.75079561812322
 30
0.0
  0
VERTEX
  5
2A794
  8
BUHIN-3
  6
HIDDEN
 10
232.43983905232531
 20
690.40824161812316
 30
0.0
  0
VERTEX
  5
2A795
  8
BUHIN-3
  6
HIDDEN
 10
232.33676905232539
 20
690.05616761812325
 30
0.0
  0
VERTEX
  5
2A796
  8
BUHIN-3
  6
HIDDEN
 10
232.26274905232529
 20
689.69693361812324
 30
0.0
  0
VERTEX
  5
2A797
  8
BUHIN-3
  6
HIDDEN
 10
232.21827305232529
 20
689.33293961812319
 30
0.0
  0
VERTEX
  5
2A798
  8
BUHIN-3
  6
HIDDEN
 10
232.2036410523252
 20
688.96662761812331
 30
0.0
  0
SEQEND
  5
2A799
  8
BUHIN-3
  6
HIDDEN
  0
POLYLINE
  5
28F29
  8
BUHIN-3
  6
HIDDEN
 66
     1
 10
0.0
 20
0.0
 30
0.0
  0
VERTEX
  5
2A79A
  8
BUHIN-3
  6
HIDDEN
 10
246.97332905232531
 20
694.21664161812316
 30
0.0
  0
VERTEX
  5
2A79B
  8
BUHIN-3
  6
HIDDEN
 10
247.67701505232509
 20
694.23290361812315
 30
0.0
  0
SEQEND
  5
2A79C
  8
BUHIN-3
  6
HIDDEN
  0
POLYLINE
  5
28F2A
  8
BUHIN-3
  6
HIDDEN
 66
     1
 10
0.0
 20
0.0
 30
0.0
  0
VERTEX
  5
2A79D
  8
BUHIN-3
  6
HIDDEN
 10
247.67701505232509
 20
694.23290361812315
 30
0.0
  0
VERTEX
  5
2A79E
  8
BUHIN-3
  6
HIDDEN
 10
248.3806530523251
 20
694.21664361812316
 30
0.0
  0
SEQEND
  5
2A79F
  8
BUHIN-3
  6
HIDDEN
  0
LINE
  5
28F2B
  8
BUHIN-3
  6
HIDDEN
 10
283.45087905232538
 20
702.26401361812316
 30
0.0
 11
283.45087905232538
 21
699.59621961812331
 31
0.0
  0
POLYLINE
  5
28F2C
  8
BUHIN-3
  6
HIDDEN
 66
     1
 10
0.0
 20
0.0
 30
0.0
  0
VERTEX
  5
2A7A0
  8
BUHIN-3
  6
HIDDEN
 10
259.76966905232518
 20
693.46764361812325
 30
0.0
  0
VERTEX
  5
2A7A1
  8
BUHIN-3
  6
HIDDEN
 10
260.96655305232508
 20
693.39066561812319
 30
0.0
  0
VERTEX
  5
2A7A2
  8
BUHIN-3
  6
HIDDEN
 10
261.84740305232509
 20
693.298837618123
 30
0.0
  0
VERTEX
  5
2A7A3
  8
BUHIN-3
  6
HIDDEN
 10
262.52999105232527
 20
693.18280161812322
 30
0.0
  0
VERTEX
  5
2A7A4
  8
BUHIN-3
  6
HIDDEN
 10
263.39550905232539
 20
692.96915161812319
 30
0.0
  0
VERTEX
  5
2A7A5
  8
BUHIN-3
  6
HIDDEN
 10
264.26127505232517
 20
692.72395161812324
 30
0.0
  0
VERTEX
  5
2A7A6
  8
BUHIN-3
  6
HIDDEN
 10
264.95424505232529
 20
692.485889618123
 30
0.0
  0
VERTEX
  5
2A7A7
  8
BUHIN-3
  6
HIDDEN
 10
265.77406705232522
 20
692.11992761812326
 30
0.0
  0
VERTEX
  5
2A7A8
  8
BUHIN-3
  6
HIDDEN
 10
266.57749905232538
 20
691.71270761812309
 30
0.0
  0
VERTEX
  5
2A7A9
  8
BUHIN-3
  6
HIDDEN
 10
266.91960905232543
 20
691.51674761812308
 30
0.0
  0
VERTEX
  5
2A7AA
  8
BUHIN-3
  6
HIDDEN
 10
267.28598905232542
 20
691.28160161812309
 30
0.0
  0
SEQEND
  5
2A7AB
  8
BUHIN-3
  6
HIDDEN
  0
LINE
  5
28F2D
  8
BUHIN-3
  6
HIDDEN
 10
259.76966905232518
 20
693.46764361812325
 30
0.0
 11
258.84049305232509
 21
693.46764361812325
 31
0.0
  0
LINE
  5
28F2E
  8
BUHIN-3
  6
HIDDEN
 10
231.5599850523252
 20
678.77681561812324
 30
0.0
 11
231.28116105232519
 21
678.77681561812324
 31
0.0
  0
LINE
  5
28F2F
  8
BUHIN-3
  6
HIDDEN
 10
263.57942905232528
 20
663.46663961812317
 30
0.0
 11
247.67701505232509
 21
663.46663961812317
 31
0.0
  0
LINE
  5
28F30
  8
BUHIN-3
  6
HIDDEN
 10
247.67701505232509
 20
663.46663961812317
 30
0.0
 11
231.7742850523253
 21
663.46663961812317
 31
0.0
  0
LINE
  5
28F31
  8
BUHIN-3
  6
HIDDEN
 10
263.78415505232522
 20
671.02390561812331
 30
0.0
 11
263.58241305232548
 21
670.24680961812328
 31
0.0
  0
LINE
  5
28F32
  8
BUHIN-3
  6
HIDDEN
 10
263.71072305232508
 20
671.02390561812331
 30
0.0
 11
263.58241305232548
 21
670.24680961812328
 31
0.0
  0
LINE
  5
28F33
  8
BUHIN-3
  6
HIDDEN
 10
231.77161505232519
 20
670.24680961812328
 30
0.0
 11
231.6433010523252
 21
671.02390561812331
 31
0.0
  0
LINE
  5
28F34
  8
BUHIN-3
  6
HIDDEN
 10
231.77161505232519
 20
670.24680961812328
 30
0.0
 11
231.56987305232531
 21
671.02390561812331
 31
0.0
  0
LINE
  5
28F35
  8
BUHIN-3
  6
HIDDEN
 10
263.9734970523254
 20
671.65209561812321
 30
0.0
 11
263.78415505232522
 21
671.02390561812331
 31
0.0
  0
LINE
  5
28F36
  8
BUHIN-3
  6
HIDDEN
 10
264.105003052325
 20
672.30351161812314
 30
0.0
 11
263.9734970523254
 21
671.65209561812321
 31
0.0
  0
LINE
  5
28F37
  8
BUHIN-3
  6
HIDDEN
 10
264.17701305232538
 20
672.96664361812327
 30
0.0
 11
264.105003052325
 21
672.30351161812314
 31
0.0
  0
LINE
  5
28F38
  8
BUHIN-3
  6
HIDDEN
 10
231.2490270523252
 20
672.30351161812314
 30
0.0
 11
231.17701705232531
 21
672.96664361812327
 31
0.0
  0
LINE
  5
28F39
  8
BUHIN-3
  6
HIDDEN
 10
231.3805310523251
 20
671.65209561812321
 30
0.0
 11
231.2490270523252
 21
672.30351161812314
 31
0.0
  0
LINE
  5
28F3A
  8
BUHIN-3
  6
HIDDEN
 10
231.56987305232531
 20
671.02390561812331
 30
0.0
 11
231.3805310523251
 21
671.65209561812321
 31
0.0
  0
POLYLINE
  5
28F3B
  8
BUHIN-3
  6
HIDDEN
 66
     1
 10
0.0
 20
0.0
 30
0.0
  0
VERTEX
  5
2A7AC
  8
BUHIN-3
  6
HIDDEN
 10
263.04151905232533
 20
680.10190561812328
 30
0.0
  0
VERTEX
  5
2A7AD
  8
BUHIN-3
  6
HIDDEN
 10
263.43890705232508
 20
679.47920761812316
 30
0.0
  0
VERTEX
  5
2A7AE
  8
BUHIN-3
  6
HIDDEN
 10
263.68708105232542
 20
679.01450761812305
 30
0.0
  0
VERTEX
  5
2A7AF
  8
BUHIN-3
  6
HIDDEN
 10
263.84380105232538
 20
678.62285561812314
 30
0.0
  0
VERTEX
  5
2A7B0
  8
BUHIN-3
  6
HIDDEN
 10
263.96682105232537
 20
678.21930361812315
 30
0.0
  0
VERTEX
  5
2A7B1
  8
BUHIN-3
  6
HIDDEN
 10
264.07245505232538
 20
677.70138761812314
 30
0.0
  0
VERTEX
  5
2A7B2
  8
BUHIN-3
  6
HIDDEN
 10
264.17701305232538
 20
676.96664361812316
 30
0.0
  0
SEQEND
  5
2A7B3
  8
BUHIN-3
  6
HIDDEN
  0
POLYLINE
  5
28F3C
  8
BUHIN-3
  6
HIDDEN
 66
     1
 10
0.0
 20
0.0
 30
0.0
  0
VERTEX
  5
2A7B4
  8
BUHIN-3
  6
HIDDEN
 10
231.17701705232531
 20
676.96664361812316
 30
0.0
  0
VERTEX
  5
2A7B5
  8
BUHIN-3
  6
HIDDEN
 10
231.23161105232529
 20
677.49786961812333
 30
0.0
  0
VERTEX
  5
2A7B6
  8
BUHIN-3
  6
HIDDEN
 10
231.30911105232539
 20
677.9541936181231
 30
0.0
  0
VERTEX
  5
2A7B7
  8
BUHIN-3
  6
HIDDEN
 10
231.4082990523253
 20
678.35932761812319
 30
0.0
  0
VERTEX
  5
2A7B8
  8
BUHIN-3
  6
HIDDEN
 10
231.5297790523253
 20
678.73005361812318
 30
0.0
  0
VERTEX
  5
2A7B9
  8
BUHIN-3
  6
HIDDEN
 10
231.67577705232529
 20
679.07919761812332
 30
0.0
  0
VERTEX
  5
2A7BA
  8
BUHIN-3
  6
HIDDEN
 10
231.85026705232519
 20
679.41748961812323
 30
0.0
  0
VERTEX
  5
2A7BB
  8
BUHIN-3
  6
HIDDEN
 10
232.0594290523253
 20
679.7549056181233
 30
0.0
  0
VERTEX
  5
2A7BC
  8
BUHIN-3
  6
HIDDEN
 10
232.3125090523252
 20
680.10190561812328
 30
0.0
  0
SEQEND
  5
2A7BD
  8
BUHIN-3
  6
HIDDEN
  0
LINE
  5
28F3D
  8
BUHIN-3
  6
HIDDEN
 10
232.6777550523253
 20
680.73815761812318
 30
0.0
 11
232.3125090523252
 21
680.10190561812328
 31
0.0
  0
LINE
  5
28F3E
  8
BUHIN-3
  6
HIDDEN
 10
232.7727930523252
 20
681.45524161812307
 30
0.0
 11
232.6777550523253
 21
680.73815761812318
 31
0.0
  0
LINE
  5
28F3F
  8
BUHIN-3
  6
HIDDEN
 10
232.7727930523252
 20
681.45524161812307
 30
0.0
 11
232.6073950523253
 21
682.15934361812333
 31
0.0
  0
LINE
  5
28F40
  8
BUHIN-3
  6
HIDDEN
 10
262.6762750523252
 20
680.73815761812318
 30
0.0
 11
262.5812350523255
 21
681.45524161812307
 31
0.0
  0
LINE
  5
28F41
  8
BUHIN-3
  6
HIDDEN
 10
263.04151905232533
 20
680.10190561812328
 30
0.0
 11
262.6762750523252
 21
680.73815761812318
 31
0.0
  0
LINE
  5
28F42
  8
BUHIN-3
  6
HIDDEN
 10
262.74663305232508
 20
682.15934361812333
 30
0.0
 11
262.5812350523255
 21
681.45524161812307
 31
0.0
  0
LINE
  5
28F43
  8
BUHIN-3
  6
HIDDEN
 10
263.16666505232507
 20
683.66138361812307
 30
0.0
 11
263.13444505232508
 21
683.34871561812315
 31
0.0
  0
LINE
  5
28F44
  8
BUHIN-3
  6
HIDDEN
 10
263.13444505232508
 20
683.34871561812315
 30
0.0
 11
263.00742105232518
 21
682.74240961812325
 31
0.0
  0
LINE
  5
28F45
  8
BUHIN-3
  6
HIDDEN
 10
263.00742105232518
 20
682.74240961812325
 30
0.0
 11
262.74663305232508
 21
682.15934361812333
 31
0.0
  0
LINE
  5
28F46
  8
BUHIN-3
  6
HIDDEN
 10
232.34660905232531
 20
682.74240961812325
 30
0.0
 11
232.21958305232519
 21
683.34871561812315
 31
0.0
  0
LINE
  5
28F47
  8
BUHIN-3
  6
HIDDEN
 10
232.22035905232531
 20
683.96664361812316
 30
0.0
 11
232.21958305232519
 21
683.34871561812315
 31
0.0
  0
LINE
  5
28F48
  8
BUHIN-3
  6
HIDDEN
 10
232.6073950523253
 20
682.15934361812333
 30
0.0
 11
232.34660905232531
 21
682.74240961812325
 31
0.0
  0
LINE
  5
28F49
  8
BUHIN-3
  6
HIDDEN
 10
224.97241305232529
 20
682.96664361812316
 30
0.0
 11
217.40315105232531
 21
682.96664361812316
 31
0.0
  0
LINE
  5
28F4A
  8
BUHIN-3
  6
HIDDEN
 10
236.67851705232519
 20
704.96664361812316
 30
0.0
 11
229.73083305232521
 21
704.96664361812316
 31
0.0
  0
POLYLINE
  5
28F4B
  8
BUHIN-3
  6
HIDDEN
 66
     1
 10
0.0
 20
0.0
 30
0.0
  0
VERTEX
  5
2A7BE
  8
BUHIN-3
  6
HIDDEN
 10
236.67852105232521
 20
704.96663961812317
 30
0.0
  0
VERTEX
  5
2A7BF
  8
BUHIN-3
  6
HIDDEN
 10
236.3168770523254
 20
704.59637361812315
 30
0.0
  0
VERTEX
  5
2A7C0
  8
BUHIN-3
  6
HIDDEN
 10
236.23028905232519
 20
704.50019161812315
 30
0.0
  0
VERTEX
  5
2A7C1
  8
BUHIN-3
  6
HIDDEN
 10
235.79247305232539
 20
703.96003961812312
 30
0.0
  0
VERTEX
  5
2A7C2
  8
BUHIN-3
  6
HIDDEN
 10
235.40345305232529
 20
703.38375761812313
 30
0.0
  0
VERTEX
  5
2A7C3
  8
BUHIN-3
  6
HIDDEN
 10
235.0661610523253
 20
702.77574361812322
 30
0.0
  0
VERTEX
  5
2A7C4
  8
BUHIN-3
  6
HIDDEN
 10
234.78313505232529
 20
702.14063761812315
 30
0.0
  0
VERTEX
  5
2A7C5
  8
BUHIN-3
  6
HIDDEN
 10
234.55651105232519
 20
701.48328161812321
 30
0.0
  0
VERTEX
  5
2A7C6
  8
BUHIN-3
  6
HIDDEN
 10
234.3880110523254
 20
700.80868361812327
 30
0.0
  0
VERTEX
  5
2A7C7
  8
BUHIN-3
  6
HIDDEN
 10
234.2789270523252
 20
700.12197961812319
 30
0.0
  0
VERTEX
  5
2A7C8
  8
BUHIN-3
  6
HIDDEN
 10
234.23011905232519
 20
699.42839161812321
 30
0.0
  0
VERTEX
  5
2A7C9
  8
BUHIN-3
  6
HIDDEN
 10
234.2419910523252
 20
698.73319561812332
 30
0.0
  0
VERTEX
  5
2A7CA
  8
BUHIN-3
  6
HIDDEN
 10
234.31449505232521
 20
698.04168161812322
 30
0.0
  0
VERTEX
  5
2A7CB
  8
BUHIN-3
  6
HIDDEN
 10
234.40813705232529
 20
697.52935961812318
 30
0.0
  0
VERTEX
  5
2A7CC
  8
BUHIN-3
  6
HIDDEN
 10
234.53524705232519
 20
697.02420761812323
 30
0.0
  0
VERTEX
  5
2A7CD
  8
BUHIN-3
  6
HIDDEN
 10
234.69520105232539
 20
696.52845561812319
 30
0.0
  0
VERTEX
  5
2A7CE
  8
BUHIN-3
  6
HIDDEN
 10
234.88725905232519
 20
696.04425561812332
 30
0.0
  0
VERTEX
  5
2A7CF
  8
BUHIN-3
  6
HIDDEN
 10
235.11056505232531
 20
695.57368361812314
 30
0.0
  0
VERTEX
  5
2A7D0
  8
BUHIN-3
  6
HIDDEN
 10
235.3641450523254
 20
695.1187356181232
 30
0.0
  0
VERTEX
  5
2A7D1
  8
BUHIN-3
  6
HIDDEN
 10
235.6469050523252
 20
694.68132961812319
 30
0.0
  0
VERTEX
  5
2A7D2
  8
BUHIN-3
  6
HIDDEN
 10
235.95763305232529
 20
694.26330361812325
 30
0.0
  0
VERTEX
  5
2A7D3
  8
BUHIN-3
  6
HIDDEN
 10
236.29500105232529
 20
693.86642161812324
 30
0.0
  0
VERTEX
  5
2A7D4
  8
BUHIN-3
  6
HIDDEN
 10
236.6575630523254
 20
693.49236361812314
 30
0.0
  0
SEQEND
  5
2A7D5
  8
BUHIN-3
  6
HIDDEN
  0
LINE
  5
28F4C
  8
BUHIN-3
  6
HIDDEN
 10
260.61765705232523
 20
663.46663961812317
 30
0.0
 11
260.58610305232548
 21
663.45834961812329
 31
0.0
  0
LINE
  5
28F4D
  8
BUHIN-3
  6
HIDDEN
 10
239.01396905232519
 20
663.46311961812319
 30
0.0
 11
239.00038705232521
 21
663.46663961812317
 31
0.0
  0
LINE
  5
28F4E
  8
BUHIN-3
  6
HIDDEN
 10
225.04210105232539
 20
682.96776161812306
 30
0.0
 11
217.31559905232541
 21
682.96776561812317
 31
0.0
  0
ARC
  5
28F4F
  8
BUHIN-3
  6
HIDDEN
 10
217.40306105232531
 20
688.46655361812316
 30
0.0
 40
5.4999299999999991
 50
179.99905299999969
 51
270.0009430000012
  0
LINE
  5
28F50
  8
BUHIN-3
  6
HIDDEN
 10
275.37101505232511
 20
712.96664361812316
 30
0.0
 11
265.37101505232511
 21
712.96664361812316
 31
0.0
  0
LINE
  5
28F51
  8
BUHIN-3
  6
HIDDEN
 10
282.40367305232519
 20
712.96664361812316
 30
0.0
 11
275.37101505232511
 21
712.96664361812316
 31
0.0
  0
LINE
  5
28F52
  8
BUHIN-3
  6
HIDDEN
 10
290.64463305232528
 20
712.96664361812316
 30
0.0
 11
282.40367305232519
 21
712.96664361812316
 31
0.0
  0
LINE
  5
28F53
  8
BUHIN-3
  6
HIDDEN
 10
290.645801052325
 20
712.96664361812316
 30
0.0
 11
290.64463305232528
 21
712.96664361812316
 31
0.0
  0
LINE
  5
28F54
  8
BUHIN-3
  6
HIDDEN
 10
212.95035505232531
 20
712.96664361812316
 30
0.0
 11
204.70822705232521
 21
712.96664361812316
 31
0.0
  0
LINE
  5
28F55
  8
BUHIN-3
  6
HIDDEN
 10
219.98301305232539
 20
712.96664361812316
 30
0.0
 11
212.95035505232531
 21
712.96664361812316
 31
0.0
  0
LINE
  5
28F56
  8
BUHIN-3
  6
HIDDEN
 10
229.98301305232539
 20
712.96664361812316
 30
0.0
 11
219.98301305232539
 21
712.96664361812316
 31
0.0
  0
LINE
  5
28F57
  8
BUHIN-3
  6
HIDDEN
 10
265.37101505232511
 20
712.96664361812316
 30
0.0
 11
229.98301305232539
 21
712.96664361812316
 31
0.0
  0
POLYLINE
  5
28F58
  8
BUHIN-3
  6
HIDDEN
 66
     1
 10
0.0
 20
0.0
 30
0.0
  0
VERTEX
  5
2A7D6
  8
BUHIN-3
  6
HIDDEN
 10
290.49804505232521
 20
703.10438561812316
 30
0.0
  0
VERTEX
  5
2A7D7
  8
BUHIN-3
  6
HIDDEN
 10
290.40782705232539
 20
703.06159961812307
 30
0.0
  0
VERTEX
  5
2A7D8
  8
BUHIN-3
  6
HIDDEN
 10
290.09584105232523
 20
703.01076961812316
 30
0.0
  0
VERTEX
  5
2A7D9
  8
BUHIN-3
  6
HIDDEN
 10
289.58394905232518
 20
702.97830561812304
 30
0.0
  0
SEQEND
  5
2A7DA
  8
BUHIN-3
  6
HIDDEN
  0
ARC
  5
28F59
  8
BUHIN-3
  6
HIDDEN
 10
254.11459305232509
 20
702.13960961812313
 30
0.0
 40
8.6808519999999998
 50
263.79875899999519
 51
268.56729299999603
  0
ARC
  5
28F5A
  8
BUHIN-3
  6
HIDDEN
 10
241.2390730523251
 20
702.13167361812316
 30
0.0
 40
8.6729679999999991
 50
271.43837499999671
 51
276.21013000000471
  0
POLYLINE
  5
28F5B
  8
BUHIN-3
  6
HIDDEN
 66
     1
 10
0.0
 20
0.0
 30
0.0
  0
VERTEX
  5
2A7DB
  8
BUHIN-3
  6
HIDDEN
 10
251.6567470523253
 20
693.76307961812313
 30
0.0
  0
VERTEX
  5
2A7DC
  8
BUHIN-3
  6
HIDDEN
 10
252.66727305232541
 20
693.57617161812323
 30
0.0
  0
VERTEX
  5
2A7DD
  8
BUHIN-3
  6
HIDDEN
 10
253.1768810523252
 20
693.50956761812313
 30
0.0
  0
SEQEND
  5
2A7DE
  8
BUHIN-3
  6
HIDDEN
  0
POLYLINE
  5
28F5C
  8
BUHIN-3
  6
HIDDEN
 66
     1
 10
0.0
 20
0.0
 30
0.0
  0
VERTEX
  5
2A7DF
  8
BUHIN-3
  6
HIDDEN
 10
243.69728105232511
 20
693.76307961812313
 30
0.0
  0
VERTEX
  5
2A7E0
  8
BUHIN-3
  6
HIDDEN
 10
242.68684105232509
 20
693.5761836181232
 30
0.0
  0
VERTEX
  5
2A7E1
  8
BUHIN-3
  6
HIDDEN
 10
242.1772750523254
 20
693.50958161812332
 30
0.0
  0
SEQEND
  5
2A7E2
  8
BUHIN-3
  6
HIDDEN
  0
LINE
  5
28F5D
  8
BUHIN-3
  6
HIDDEN
 10
258.39156305232552
 20
693.55040961812324
 30
0.0
 11
257.92888905232519
 21
693.76307961812313
 31
0.0
  0
LINE
  5
28F5E
  8
BUHIN-3
  6
HIDDEN
 10
258.87397105232537
 20
693.46147161812314
 30
0.0
 11
258.39156305232552
 21
693.55040961812324
 31
0.0
  0
LINE
  5
28F5F
  8
BUHIN-3
  6
HIDDEN
 10
237.42513905232531
 20
693.76307961812313
 30
0.0
 11
236.9624670523252
 21
693.55040961812324
 31
0.0
  0
LINE
  5
28F60
  8
BUHIN-3
  6
HIDDEN
 10
236.9624670523252
 20
693.55040961812324
 30
0.0
 11
236.4800590523254
 21
693.46147161812314
 31
0.0
  0
POLYLINE
  5
28F61
  8
BUHIN-3
  6
HIDDEN
 66
     1
 10
0.0
 20
0.0
 30
0.0
  0
VERTEX
  5
2A7E3
  8
BUHIN-3
  6
HIDDEN
 10
243.69728105232511
 20
693.76307961812313
 30
0.0
  0
VERTEX
  5
2A7E4
  8
BUHIN-3
  6
HIDDEN
 10
244.5088150523255
 20
693.92422761812315
 30
0.0
  0
VERTEX
  5
2A7E5
  8
BUHIN-3
  6
HIDDEN
 10
245.3258090523253
 20
694.05764361812305
 30
0.0
  0
VERTEX
  5
2A7E6
  8
BUHIN-3
  6
HIDDEN
 10
246.14760905232549
 20
694.15701761812318
 30
0.0
  0
VERTEX
  5
2A7E7
  8
BUHIN-3
  6
HIDDEN
 10
246.97323505232529
 20
694.21664361812316
 30
0.0
  0
SEQEND
  5
2A7E8
  8
BUHIN-3
  6
HIDDEN
  0
POLYLINE
  5
28F62
  8
BUHIN-3
  6
HIDDEN
 66
     1
 10
0.0
 20
0.0
 30
0.0
  0
VERTEX
  5
2A7E9
  8
BUHIN-3
  6
HIDDEN
 10
251.6567470523253
 20
693.76307961812313
 30
0.0
  0
VERTEX
  5
2A7EA
  8
BUHIN-3
  6
HIDDEN
 10
250.84521505232519
 20
693.92422761812315
 30
0.0
  0
VERTEX
  5
2A7EB
  8
BUHIN-3
  6
HIDDEN
 10
250.0282190523252
 20
694.05764361812305
 30
0.0
  0
VERTEX
  5
2A7EC
  8
BUHIN-3
  6
HIDDEN
 10
249.20641905232549
 20
694.15701761812318
 30
0.0
  0
VERTEX
  5
2A7ED
  8
BUHIN-3
  6
HIDDEN
 10
248.3807930523252
 20
694.21664361812316
 30
0.0
  0
SEQEND
  5
2A7EE
  8
BUHIN-3
  6
HIDDEN
  0
ARC
  5
28F63
  8
BUHIN-3
  6
HIDDEN
 10
237.59436305232529
 20
701.21663961812328
 30
0.0
 40
2.0
 50
156.36414199999751
 51
156.4215369999973
  0
ARC
  5
28F64
  8
BUHIN-3
  6
HIDDEN
 10
237.5943490523253
 20
701.21666161812323
 30
0.0
 40
2.0
 50
89.999607999997025
 51
134.28116200000031
  0
ARC
  5
28F65
  8
BUHIN-3
  6
HIDDEN
 10
257.75968505232538
 20
701.21666161812323
 30
0.0
 40
1.999995999999999
 50
23.57807099999869
 51
23.592007000000201
  0
ARC
  5
28F66
  8
BUHIN-3
  6
HIDDEN
 10
257.7596670523252
 20
701.21663961812328
 30
0.0
 40
2.0
 50
45.718976000000623
 51
51.121664999996341
  0
ARC
  5
28F67
  8
BUHIN-3
  6
HIDDEN
 10
257.7596670523252
 20
701.21663961812328
 30
0.0
 40
2.0
 50
67.859487999997441
 51
90.0
  0
LINE
  5
28F68
  8
BUHIN-3
  6
HIDDEN
 10
220.9210870523253
 20
702.96664361812327
 30
0.0
 11
219.73301305232539
 21
702.96664361812327
 31
0.0
  0
LINE
  5
28F69
  8
BUHIN-3
  6
HIDDEN
 10
265.37101505232511
 20
702.96664361812327
 30
0.0
 11
260.67601705232511
 21
702.96664361812327
 31
0.0
  0
LINE
  5
28F6A
  8
BUHIN-3
  6
HIDDEN
 10
289.16019705232509
 20
702.96664361812327
 30
0.0
 11
282.0931290523252
 21
702.96664361812327
 31
0.0
  0
LINE
  5
28F6B
  8
BUHIN-3
  6
HIDDEN
 10
219.73301305232539
 20
702.96664361812327
 30
0.0
 11
213.2608990523253
 21
702.96664361812327
 31
0.0
  0
LINE
  5
28F6C
  8
BUHIN-3
  6
HIDDEN
 10
282.0931290523252
 20
702.96664361812327
 30
0.0
 11
275.62101505232511
 21
702.96664361812327
 31
0.0
  0
LINE
  5
28F6D
  8
BUHIN-3
  6
HIDDEN
 10
275.62101505232511
 20
702.96664361812327
 30
0.0
 11
265.37101505232511
 21
702.96664361812327
 31
0.0
  0
LINE
  5
28F6E
  8
BUHIN-3
  6
HIDDEN
 10
289.21107705232532
 20
703.46664361812316
 30
0.0
 11
288.86552105232511
 21
703.46664361812316
 31
0.0
  0
LINE
  5
28F6F
  8
BUHIN-3
  6
HIDDEN
 10
221.75771705232529
 20
677.37157761812318
 30
0.0
 11
221.6605510523253
 21
677.83860561812321
 31
0.0
  0
LINE
  5
28F70
  8
BUHIN-3
  6
HIDDEN
 10
221.77239905232531
 20
679.9521276181232
 30
0.0
 11
221.76752505232531
 21
679.95336961812313
 31
0.0
  0
POLYLINE
  5
28F71
  8
BUHIN-3
  6
HIDDEN
 66
     1
 10
0.0
 20
0.0
 30
0.0
  0
VERTEX
  5
2A7EF
  8
BUHIN-3
  6
HIDDEN
 10
221.76752505232531
 20
679.95336961812313
 30
0.0
  0
VERTEX
  5
2A7F0
  8
BUHIN-3
  6
HIDDEN
 10
221.65892305232529
 20
679.42125561812315
 30
0.0
  0
VERTEX
  5
2A7F1
  8
BUHIN-3
  6
HIDDEN
 10
221.60481905232521
 20
678.89044961812317
 30
0.0
  0
VERTEX
  5
2A7F2
  8
BUHIN-3
  6
HIDDEN
 10
221.60536105232529
 20
678.36241561812312
 30
0.0
  0
VERTEX
  5
2A7F3
  8
BUHIN-3
  6
HIDDEN
 10
221.6605510523253
 20
677.83860561812321
 30
0.0
  0
SEQEND
  5
2A7F4
  8
BUHIN-3
  6
HIDDEN
  0
POLYLINE
  5
28F72
  8
BUHIN-3
  6
HIDDEN
 66
     1
 10
0.0
 20
0.0
 30
0.0
  0
VERTEX
  5
2A7F5
  8
BUHIN-3
  6
HIDDEN
 10
221.5857250523253
 20
702.7269396181232
 30
0.0
  0
VERTEX
  5
2A7F6
  8
BUHIN-3
  6
HIDDEN
 10
222.1909790523253
 20
702.57294361812308
 30
0.0
  0
VERTEX
  5
2A7F7
  8
BUHIN-3
  6
HIDDEN
 10
222.5738250523253
 20
702.51769761812318
 30
0.0
  0
VERTEX
  5
2A7F8
  8
BUHIN-3
  6
HIDDEN
 10
223.06103105232529
 20
702.49557361812322
 30
0.0
  0
VERTEX
  5
2A7F9
  8
BUHIN-3
  6
HIDDEN
 10
223.54547705232531
 20
702.51555161812325
 30
0.0
  0
VERTEX
  5
2A7FA
  8
BUHIN-3
  6
HIDDEN
 10
224.0266490523253
 20
702.56852761812308
 30
0.0
  0
VERTEX
  5
2A7FB
  8
BUHIN-3
  6
HIDDEN
 10
224.74221505232541
 20
702.69331561812317
 30
0.0
  0
VERTEX
  5
2A7FC
  8
BUHIN-3
  6
HIDDEN
 10
226.36879105232521
 20
703.07740961812317
 30
0.0
  0
VERTEX
  5
2A7FD
  8
BUHIN-3
  6
HIDDEN
 10
226.8206570523254
 20
703.16510961812332
 30
0.0
  0
VERTEX
  5
2A7FE
  8
BUHIN-3
  6
HIDDEN
 10
227.12686505232529
 20
703.19579161812305
 30
0.0
  0
VERTEX
  5
2A7FF
  8
BUHIN-3
  6
HIDDEN
 10
227.48423905232519
 20
703.18803761812319
 30
0.0
  0
VERTEX
  5
2A800
  8
BUHIN-3
  6
HIDDEN
 10
227.92453705232521
 20
703.11921361812324
 30
0.0
  0
VERTEX
  5
2A801
  8
BUHIN-3
  6
HIDDEN
 10
228.1639110523252
 20
703.06569161812331
 30
0.0
  0
SEQEND
  5
2A802
  8
BUHIN-3
  6
HIDDEN
  0
POLYLINE
  5
28F73
  8
BUHIN-3
  6
HIDDEN
 66
     1
 10
0.0
 20
0.0
 30
0.0
  0
VERTEX
  5
2A803
  8
BUHIN-3
  6
HIDDEN
 10
228.12110105232529
 20
681.67273361812306
 30
0.0
  0
VERTEX
  5
2A804
  8
BUHIN-3
  6
HIDDEN
 10
228.53753905232529
 20
681.48037761812304
 30
0.0
  0
VERTEX
  5
2A805
  8
BUHIN-3
  6
HIDDEN
 10
228.9441050523254
 20
681.34762361812307
 30
0.0
  0
VERTEX
  5
2A806
  8
BUHIN-3
  6
HIDDEN
 10
229.25037505232521
 20
681.28919761812313
 30
0.0
  0
VERTEX
  5
2A807
  8
BUHIN-3
  6
HIDDEN
 10
229.70756905232531
 20
681.25828961812317
 30
0.0
  0
VERTEX
  5
2A808
  8
BUHIN-3
  6
HIDDEN
 10
230.1718890523253
 20
681.28007961812318
 30
0.0
  0
VERTEX
  5
2A809
  8
BUHIN-3
  6
HIDDEN
 10
230.81052905232519
 20
681.36692561812333
 30
0.0
  0
VERTEX
  5
2A80A
  8
BUHIN-3
  6
HIDDEN
 10
232.31973705232519
 20
681.68032761812299
 30
0.0
  0
VERTEX
  5
2A80B
  8
BUHIN-3
  6
HIDDEN
 10
232.70012305232521
 20
681.76460161812315
 30
0.0
  0
SEQEND
  5
2A80C
  8
BUHIN-3
  6
HIDDEN
  0
LINE
  5
28F74
  8
BUHIN-3
  6
HIDDEN
 10
285.50722305232551
 20
703.46664361812316
 30
0.0
 11
285.50722305232551
 21
702.96664361812327
 31
0.0
  0
POLYLINE
  5
28F75
  8
BUHIN-3
  6
HIDDEN
 66
     1
 10
0.0
 20
0.0
 30
0.0
  0
VERTEX
  5
2A80D
  8
BUHIN-3
  6
HIDDEN
 10
282.0931290523252
 20
702.96664361812327
 30
0.0
  0
VERTEX
  5
2A80E
  8
BUHIN-3
  6
HIDDEN
 10
282.60065505232512
 20
702.97801761812309
 30
0.0
  0
SEQEND
  5
2A80F
  8
BUHIN-3
  6
HIDDEN
  0
POLYLINE
  5
28F76
  8
BUHIN-3
  6
HIDDEN
 66
     1
 10
0.0
 20
0.0
 30
0.0
  0
VERTEX
  5
2A810
  8
BUHIN-3
  6
HIDDEN
 10
288.86525105232511
 20
703.46664361812316
 30
0.0
  0
VERTEX
  5
2A811
  8
BUHIN-3
  6
HIDDEN
 10
288.51951105232541
 20
703.40416561812322
 30
0.0
  0
VERTEX
  5
2A812
  8
BUHIN-3
  6
HIDDEN
 10
287.25511105232528
 20
703.26772361812323
 30
0.0
  0
VERTEX
  5
2A813
  8
BUHIN-3
  6
HIDDEN
 10
285.12274105232552
 20
703.09900761812321
 30
0.0
  0
VERTEX
  5
2A814
  8
BUHIN-3
  6
HIDDEN
 10
283.38164705232509
 20
703.00480361812333
 30
0.0
  0
VERTEX
  5
2A815
  8
BUHIN-3
  6
HIDDEN
 10
282.60065705232529
 20
702.97800161812324
 30
0.0
  0
SEQEND
  5
2A816
  8
BUHIN-3
  6
HIDDEN
  0
POLYLINE
  5
28F77
  8
BUHIN-3
  6
HIDDEN
 66
     1
 10
0.0
 20
0.0
 30
0.0
  0
VERTEX
  5
2A817
  8
BUHIN-3
  6
HIDDEN
 10
290.50722305232551
 20
703.12501961812313
 30
0.0
  0
VERTEX
  5
2A818
  8
BUHIN-3
  6
HIDDEN
 10
290.49223705232532
 20
703.09884961812315
 30
0.0
  0
VERTEX
  5
2A819
  8
BUHIN-3
  6
HIDDEN
 10
290.37273705232508
 20
703.05251361812304
 30
0.0
  0
VERTEX
  5
2A81A
  8
BUHIN-3
  6
HIDDEN
 10
289.97603505232507
 20
703.00003361812333
 30
0.0
  0
VERTEX
  5
2A81B
  8
BUHIN-3
  6
HIDDEN
 10
289.57562305232511
 20
702.97799961812325
 30
0.0
  0
SEQEND
  5
2A81C
  8
BUHIN-3
  6
HIDDEN
  0
POLYLINE
  5
28F78
  8
BUHIN-3
  6
HIDDEN
 66
     1
 10
0.0
 20
0.0
 30
0.0
  0
VERTEX
  5
2A81D
  8
BUHIN-3
  6
HIDDEN
 10
289.21171905232529
 20
703.46664361812316
 30
0.0
  0
VERTEX
  5
2A81E
  8
BUHIN-3
  6
HIDDEN
 10
290.07384705232511
 20
703.29562761812315
 30
0.0
  0
VERTEX
  5
2A81F
  8
BUHIN-3
  6
HIDDEN
 10
290.38622705232541
 20
703.20922761812312
 30
0.0
  0
VERTEX
  5
2A820
  8
BUHIN-3
  6
HIDDEN
 10
290.49378305232528
 20
703.15157761812316
 30
0.0
  0
VERTEX
  5
2A821
  8
BUHIN-3
  6
HIDDEN
 10
290.50722305232551
 20
703.12501961812313
 30
0.0
  0
SEQEND
  5
2A822
  8
BUHIN-3
  6
HIDDEN
  0
POLYLINE
  5
28F79
  8
BUHIN-3
  6
HIDDEN
 66
     1
 10
0.0
 20
0.0
 30
0.0
  0
VERTEX
  5
2A823
  8
BUHIN-3
  6
HIDDEN
 10
289.16019705232509
 20
702.96664361812327
 30
0.0
  0
VERTEX
  5
2A824
  8
BUHIN-3
  6
HIDDEN
 10
289.57559505232518
 20
702.97801361812321
 30
0.0
  0
SEQEND
  5
2A825
  8
BUHIN-3
  6
HIDDEN
  0
POLYLINE
  5
28F7A
  8
BUHIN-3
  6
HIDDEN
 66
     1
 10
0.0
 20
0.0
 30
0.0
  0
VERTEX
  5
2A826
  8
BUHIN-3
  6
HIDDEN
 10
204.8559170523252
 20
703.10446161812308
 30
0.0
  0
VERTEX
  5
2A827
  8
BUHIN-3
  6
HIDDEN
 10
204.9467430523253
 20
703.06144361812312
 30
0.0
  0
VERTEX
  5
2A828
  8
BUHIN-3
  6
HIDDEN
 10
205.26158105232531
 20
703.01042561812324
 30
0.0
  0
VERTEX
  5
2A829
  8
BUHIN-3
  6
HIDDEN
 10
205.7783970523252
 20
702.97800161812324
 30
0.0
  0
SEQEND
  5
2A82A
  8
BUHIN-3
  6
HIDDEN
  0
LINE
  5
28F7B
  8
BUHIN-3
  6
HIDDEN
 10
212.84230705232531
 20
703.05510761812309
 30
0.0
 11
211.95092905232519
 21
703.05511161812308
 31
0.0
  0
LINE
  5
28F7C
  8
BUHIN-3
  6
HIDDEN
 10
204.78832905232539
 20
703.21664561812315
 30
0.0
 11
204.70658505232529
 21
703.46664361812316
 31
0.0
  0
LINE
  5
28F7D
  8
BUHIN-3
  6
HIDDEN
 10
204.84680505232529
 20
703.12501961812313
 30
0.0
 11
204.78832905232539
 21
703.21664561812315
 31
0.0
  0
LINE
  5
28F7E
  8
BUHIN-3
  6
HIDDEN
 10
283.40173305232508
 20
703.05511161812308
 30
0.0
 11
282.51172105232519
 21
703.05510761812309
 31
0.0
  0
LINE
  5
28F7F
  8
BUHIN-3
  6
HIDDEN
 10
290.56570105232538
 20
703.21664561812315
 30
0.0
 11
290.50722305232551
 21
703.12501961812313
 31
0.0
  0
LINE
  5
28F80
  8
BUHIN-3
  6
HIDDEN
 10
290.64744505232551
 20
703.46664361812316
 30
0.0
 11
290.56570105232538
 21
703.21664561812315
 31
0.0
  0
POLYLINE
  5
28F81
  8
BUHIN-3
  6
HIDDEN
 66
     1
 10
0.0
 20
0.0
 30
0.0
  0
VERTEX
  5
2A82B
  8
BUHIN-3
  6
HIDDEN
 10
284.7886370523255
 20
702.96667561812319
 30
0.0
  0
VERTEX
  5
2A82C
  8
BUHIN-3
  6
HIDDEN
 10
284.43403105232522
 20
702.93210361812305
 30
0.0
  0
VERTEX
  5
2A82D
  8
BUHIN-3
  6
HIDDEN
 10
284.09168905232531
 20
702.82951961812319
 30
0.0
  0
SEQEND
  5
2A82E
  8
BUHIN-3
  6
HIDDEN
  0
POLYLINE
  5
28F82
  8
BUHIN-3
  6
HIDDEN
 66
     1
 10
0.0
 20
0.0
 30
0.0
  0
VERTEX
  5
2A82F
  8
BUHIN-3
  6
HIDDEN
 10
283.45090705232531
 20
702.26401361812316
 30
0.0
  0
VERTEX
  5
2A830
  8
BUHIN-3
  6
HIDDEN
 10
283.45954705232532
 20
702.43262161812322
 30
0.0
  0
SEQEND
  5
2A831
  8
BUHIN-3
  6
HIDDEN
  0
LINE
  5
28F83
  8
BUHIN-3
  6
HIDDEN
 10
283.55269305232548
 20
702.37987361812316
 30
0.0
 11
283.5224710523251
 21
702.30889761812318
 31
0.0
  0
LINE
  5
28F84
  8
BUHIN-3
  6
HIDDEN
 10
283.5224710523251
 20
702.30889761812318
 30
0.0
 11
283.45089305232511
 21
702.14081161812317
 31
0.0
  0
LINE
  5
28F85
  8
BUHIN-3
  6
HIDDEN
 10
283.78035505232532
 20
702.59848561812316
 30
0.0
 11
283.5224710523251
 21
702.30889761812318
 31
0.0
  0
LINE
  5
28F86
  8
BUHIN-3
  6
HIDDEN
 10
284.11490305232508
 20
702.83704761812317
 30
0.0
 11
283.78035505232532
 21
702.59848561812316
 31
0.0
  0
LINE
  5
28F87
  8
BUHIN-3
  6
HIDDEN
 10
283.48444105232539
 20
702.3666676181233
 30
0.0
 11
283.45089305232511
 21
702.18173361812308
 31
0.0
  0
POLYLINE
  5
28F88
  8
BUHIN-3
  6
HIDDEN
 66
     1
 10
0.0
 20
0.0
 30
0.0
  0
VERTEX
  5
2A832
  8
BUHIN-3
  6
HIDDEN
 10
268.8027650523253
 20
690.11784161812329
 30
0.0
  0
VERTEX
  5
2A833
  8
BUHIN-3
  6
HIDDEN
 10
269.25684105232529
 20
689.62904361812321
 30
0.0
  0
VERTEX
  5
2A834
  8
BUHIN-3
  6
HIDDEN
 10
269.5651430523252
 20
689.26563161812317
 30
0.0
  0
VERTEX
  5
2A835
  8
BUHIN-3
  6
HIDDEN
 10
270.00571505232517
 20
688.64330161812313
 30
0.0
  0
VERTEX
  5
2A836
  8
BUHIN-3
  6
HIDDEN
 10
270.21241105232542
 20
688.29589561812327
 30
0.0
  0
VERTEX
  5
2A837
  8
BUHIN-3
  6
HIDDEN
 10
270.42218905232528
 20
687.89689561812315
 30
0.0
  0
VERTEX
  5
2A838
  8
BUHIN-3
  6
HIDDEN
 10
270.62078305232518
 20
687.46751961812333
 30
0.0
  0
VERTEX
  5
2A839
  8
BUHIN-3
  6
HIDDEN
 10
270.79393305232531
 20
687.02898361812322
 30
0.0
  0
VERTEX
  5
2A83A
  8
BUHIN-3
  6
HIDDEN
 10
270.94160105232538
 20
686.58324361812299
 30
0.0
  0
VERTEX
  5
2A83B
  8
BUHIN-3
  6
HIDDEN
 10
271.0637530523253
 20
686.13224561812331
 30
0.0
  0
VERTEX
  5
2A83C
  8
BUHIN-3
  6
HIDDEN
 10
271.16067705232518
 20
685.67778961812314
 30
0.0
  0
VERTEX
  5
2A83D
  8
BUHIN-3
  6
HIDDEN
 10
271.2326610523254
 20
685.2216656181231
 30
0.0
  0
VERTEX
  5
2A83E
  8
BUHIN-3
  6
HIDDEN
 10
271.28022705232507
 20
684.76544361812319
 30
0.0
  0
VERTEX
  5
2A83F
  8
BUHIN-3
  6
HIDDEN
 10
271.30389705232523
 20
684.31068361812322
 30
0.0
  0
VERTEX
  5
2A840
  8
BUHIN-3
  6
HIDDEN
 10
271.30433705232542
 20
683.8586936181232
 30
0.0
  0
VERTEX
  5
2A841
  8
BUHIN-3
  6
HIDDEN
 10
271.28221705232528
 20
683.41077561812313
 30
0.0
  0
VERTEX
  5
2A842
  8
BUHIN-3
  6
HIDDEN
 10
271.2382710523251
 20
682.96797561812332
 30
0.0
  0
VERTEX
  5
2A843
  8
BUHIN-3
  6
HIDDEN
 10
271.17323705232542
 20
682.53133561812319
 30
0.0
  0
VERTEX
  5
2A844
  8
BUHIN-3
  6
HIDDEN
 10
271.08784305232518
 20
682.10165961812322
 30
0.0
  0
VERTEX
  5
2A845
  8
BUHIN-3
  6
HIDDEN
 10
270.98282305232522
 20
681.6797496181232
 30
0.0
  0
VERTEX
  5
2A846
  8
BUHIN-3
  6
HIDDEN
 10
270.85881905232537
 20
681.26617161812317
 30
0.0
  0
VERTEX
  5
2A847
  8
BUHIN-3
  6
HIDDEN
 10
270.71647505232511
 20
680.86149761812317
 30
0.0
  0
VERTEX
  5
2A848
  8
BUHIN-3
  6
HIDDEN
 10
270.37854105232537
 20
680.08019961812329
 30
0.0
  0
VERTEX
  5
2A849
  8
BUHIN-3
  6
HIDDEN
 10
270.1328770523254
 20
679.59431361812312
 30
0.0
  0
VERTEX
  5
2A84A
  8
BUHIN-3
  6
HIDDEN
 10
269.81987905232501
 20
679.08116361812313
 30
0.0
  0
VERTEX
  5
2A84B
  8
BUHIN-3
  6
HIDDEN
 10
269.47313105232507
 20
678.59006761812304
 30
0.0
  0
VERTEX
  5
2A84C
  8
BUHIN-3
  6
HIDDEN
 10
269.09238305232509
 20
678.12225961812317
 30
0.0
  0
VERTEX
  5
2A84D
  8
BUHIN-3
  6
HIDDEN
 10
268.70015305232511
 20
677.70198361812311
 30
0.0
  0
VERTEX
  5
2A84E
  8
BUHIN-3
  6
HIDDEN
 10
268.30565505232551
 20
677.33279961812332
 30
0.0
  0
VERTEX
  5
2A84F
  8
BUHIN-3
  6
HIDDEN
 10
267.88071105232518
 20
676.98649361812318
 30
0.0
  0
VERTEX
  5
2A850
  8
BUHIN-3
  6
HIDDEN
 10
267.4225310523251
 20
676.66625361812316
 30
0.0
  0
VERTEX
  5
2A851
  8
BUHIN-3
  6
HIDDEN
 10
267.00733305232541
 20
676.41952561812332
 30
0.0
  0
VERTEX
  5
2A852
  8
BUHIN-3
  6
HIDDEN
 10
266.58016705232552
 20
676.20716561812333
 30
0.0
  0
VERTEX
  5
2A853
  8
BUHIN-3
  6
HIDDEN
 10
266.12403305232539
 20
676.02545161812316
 30
0.0
  0
VERTEX
  5
2A854
  8
BUHIN-3
  6
HIDDEN
 10
265.26386305232552
 20
675.78209961812331
 30
0.0
  0
VERTEX
  5
2A855
  8
BUHIN-3
  6
HIDDEN
 10
264.17701305232538
 20
675.5126476181232
 30
0.0
  0
SEQEND
  5
2A856
  8
BUHIN-3
  6
HIDDEN
  0
POLYLINE
  5
28F89
  8
BUHIN-3
  6
HIDDEN
 66
     1
 10
0.0
 20
0.0
 30
0.0
  0
VERTEX
  5
2A857
  8
BUHIN-3
  6
HIDDEN
 10
225.10886705232531
 20
682.96359161812325
 30
0.0
  0
VERTEX
  5
2A858
  8
BUHIN-3
  6
HIDDEN
 10
225.98254505232521
 20
682.76493561812322
 30
0.0
  0
VERTEX
  5
2A859
  8
BUHIN-3
  6
HIDDEN
 10
226.34889905232521
 20
682.66217561812323
 30
0.0
  0
VERTEX
  5
2A85A
  8
BUHIN-3
  6
HIDDEN
 10
226.7798570523253
 20
682.46448161812316
 30
0.0
  0
VERTEX
  5
2A85B
  8
BUHIN-3
  6
HIDDEN
 10
227.38809105232519
 20
682.11337561812309
 30
0.0
  0
VERTEX
  5
2A85C
  8
BUHIN-3
  6
HIDDEN
 10
228.00580905232539
 20
681.73858161812313
 30
0.0
  0
VERTEX
  5
2A85D
  8
BUHIN-3
  6
HIDDEN
 10
228.1197950523252
 20
681.67395161812317
 30
0.0
  0
SEQEND
  5
2A85E
  8
BUHIN-3
  6
HIDDEN
  0
POLYLINE
  5
28F8A
  8
BUHIN-3
  6
HIDDEN
 66
     1
 10
0.0
 20
0.0
 30
0.0
  0
VERTEX
  5
2A85F
  8
BUHIN-3
  6
HIDDEN
 10
283.43884905232551
 20
702.96664361812327
 30
0.0
  0
VERTEX
  5
2A860
  8
BUHIN-3
  6
HIDDEN
 10
283.46262305232528
 20
702.68170361812315
 30
0.0
  0
VERTEX
  5
2A861
  8
BUHIN-3
  6
HIDDEN
 10
283.45527705232541
 20
702.40906161812313
 30
0.0
  0
SEQEND
  5
2A862
  8
BUHIN-3
  6
HIDDEN
  0
POLYLINE
  5
28F8B
  8
BUHIN-3
  6
HIDDEN
 66
     1
 10
0.0
 20
0.0
 30
0.0
  0
VERTEX
  5
2A863
  8
BUHIN-3
  6
HIDDEN
 10
221.00343905232521
 20
681.77518161812327
 30
0.0
  0
VERTEX
  5
2A864
  8
BUHIN-3
  6
HIDDEN
 10
221.1842650523252
 20
682.31015961812307
 30
0.0
  0
VERTEX
  5
2A865
  8
BUHIN-3
  6
HIDDEN
 10
221.21558505232531
 20
682.43111561812304
 30
0.0
  0
SEQEND
  5
2A866
  8
BUHIN-3
  6
HIDDEN
  0
POLYLINE
  5
28F8C
  8
BUHIN-3
  6
HIDDEN
 66
     1
 10
0.0
 20
0.0
 30
0.0
  0
VERTEX
  5
2A867
  8
BUHIN-3
  6
HIDDEN
 10
216.9552030523254
 20
681.88887561812305
 30
0.0
  0
VERTEX
  5
2A868
  8
BUHIN-3
  6
HIDDEN
 10
216.2228230523252
 20
682.09046161812319
 30
0.0
  0
VERTEX
  5
2A869
  8
BUHIN-3
  6
HIDDEN
 10
215.48720905232531
 20
682.34242361812312
 30
0.0
  0
VERTEX
  5
2A86A
  8
BUHIN-3
  6
HIDDEN
 10
214.7691890523252
 20
682.64437161812305
 30
0.0
  0
VERTEX
  5
2A86B
  8
BUHIN-3
  6
HIDDEN
 10
214.07546105232529
 20
682.99637161812325
 30
0.0
  0
VERTEX
  5
2A86C
  8
BUHIN-3
  6
HIDDEN
 10
213.62975705232529
 20
683.25864361812307
 30
0.0
  0
VERTEX
  5
2A86D
  8
BUHIN-3
  6
HIDDEN
 10
213.19974305232529
 20
683.54267561812321
 30
0.0
  0
VERTEX
  5
2A86E
  8
BUHIN-3
  6
HIDDEN
 10
212.78732305232541
 20
683.84803561812316
 30
0.0
  0
VERTEX
  5
2A86F
  8
BUHIN-3
  6
HIDDEN
 10
212.25576905232521
 20
684.29674161812306
 30
0.0
  0
VERTEX
  5
2A870
  8
BUHIN-3
  6
HIDDEN
 10
211.86403705232519
 20
684.68714761812305
 30
0.0
  0
VERTEX
  5
2A871
  8
BUHIN-3
  6
HIDDEN
 10
211.50529705232529
 20
685.10596161812316
 30
0.0
  0
VERTEX
  5
2A872
  8
BUHIN-3
  6
HIDDEN
 10
211.1808170523253
 20
685.55016361812307
 30
0.0
  0
VERTEX
  5
2A873
  8
BUHIN-3
  6
HIDDEN
 10
210.89150705232521
 20
686.01678561812332
 30
0.0
  0
VERTEX
  5
2A874
  8
BUHIN-3
  6
HIDDEN
 10
210.6380110523254
 20
686.50299761812312
 30
0.0
  0
VERTEX
  5
2A875
  8
BUHIN-3
  6
HIDDEN
 10
210.4208090523253
 20
687.00620961812308
 30
0.0
  0
VERTEX
  5
2A876
  8
BUHIN-3
  6
HIDDEN
 10
210.24435305232521
 20
687.50407361812313
 30
0.0
  0
VERTEX
  5
2A877
  8
BUHIN-3
  6
HIDDEN
 10
210.0991030523254
 20
688.03530761812306
 30
0.0
  0
VERTEX
  5
2A878
  8
BUHIN-3
  6
HIDDEN
 10
209.97608305232541
 20
688.66604761812323
 30
0.0
  0
VERTEX
  5
2A879
  8
BUHIN-3
  6
HIDDEN
 10
209.8975730523253
 20
689.25678161812311
 30
0.0
  0
VERTEX
  5
2A87A
  8
BUHIN-3
  6
HIDDEN
 10
209.85442105232531
 20
689.85209161812315
 30
0.0
  0
VERTEX
  5
2A87B
  8
BUHIN-3
  6
HIDDEN
 10
209.8489650523253
 20
690.45136561812308
 30
0.0
  0
VERTEX
  5
2A87C
  8
BUHIN-3
  6
HIDDEN
 10
209.88038505232529
 20
690.9944556181232
 30
0.0
  0
VERTEX
  5
2A87D
  8
BUHIN-3
  6
HIDDEN
 10
209.96328305232521
 20
691.59931761812322
 30
0.0
  0
VERTEX
  5
2A87E
  8
BUHIN-3
  6
HIDDEN
 10
210.0607010523253
 20
692.04895161812317
 30
0.0
  0
VERTEX
  5
2A87F
  8
BUHIN-3
  6
HIDDEN
 10
210.1880210523253
 20
692.48973361812307
 30
0.0
  0
VERTEX
  5
2A880
  8
BUHIN-3
  6
HIDDEN
 10
210.3439090523253
 20
692.91608561812313
 30
0.0
  0
VERTEX
  5
2A881
  8
BUHIN-3
  6
HIDDEN
 10
210.52599905232529
 20
693.32274761812323
 30
0.0
  0
VERTEX
  5
2A882
  8
BUHIN-3
  6
HIDDEN
 10
210.7500210523252
 20
693.73985361812299
 30
0.0
  0
VERTEX
  5
2A883
  8
BUHIN-3
  6
HIDDEN
 10
211.0412670523252
 20
694.18586161812323
 30
0.0
  0
VERTEX
  5
2A884
  8
BUHIN-3
  6
HIDDEN
 10
211.3588410523254
 20
694.58979961812315
 30
0.0
  0
VERTEX
  5
2A885
  8
BUHIN-3
  6
HIDDEN
 10
211.67904905232521
 20
694.93399161812306
 30
0.0
  0
VERTEX
  5
2A886
  8
BUHIN-3
  6
HIDDEN
 10
211.90314305232539
 20
695.14922961812306
 30
0.0
  0
SEQEND
  5
2A887
  8
BUHIN-3
  6
HIDDEN
  0
POLYLINE
  5
28F8D
  8
BUHIN-3
  6
HIDDEN
 66
     1
 10
0.0
 20
0.0
 30
0.0
  0
VERTEX
  5
2A888
  8
BUHIN-3
  6
HIDDEN
 10
209.8567770523253
 20
690.6917276181232
 30
0.0
  0
VERTEX
  5
2A889
  8
BUHIN-3
  6
HIDDEN
 10
209.94140705232519
 20
691.39751761812317
 30
0.0
  0
VERTEX
  5
2A88A
  8
BUHIN-3
  6
HIDDEN
 10
210.05312905232529
 20
691.9747756181232
 30
0.0
  0
VERTEX
  5
2A88B
  8
BUHIN-3
  6
HIDDEN
 10
210.1890910523253
 20
692.46581761812331
 30
0.0
  0
VERTEX
  5
2A88C
  8
BUHIN-3
  6
HIDDEN
 10
210.32377105232521
 20
692.84568961812317
 30
0.0
  0
VERTEX
  5
2A88D
  8
BUHIN-3
  6
HIDDEN
 10
210.65933905232521
 20
693.58159961812305
 30
0.0
  0
SEQEND
  5
2A88E
  8
BUHIN-3
  6
HIDDEN
  0
LINE
  5
28F8E
  8
BUHIN-3
  6
HIDDEN
 10
220.9851210523253
 20
681.69495761812323
 30
0.0
 11
220.98367105232529
 21
681.68719761812315
 31
0.0
  0
LINE
  5
28F8F
  8
BUHIN-3
  6
HIDDEN
 10
220.9868590523252
 20
681.70383361812333
 30
0.0
 11
220.9851210523253
 21
681.69495761812323
 31
0.0
  0
LINE
  5
28F90
  8
BUHIN-3
  6
HIDDEN
 10
220.9886830523254
 20
681.71274961812333
 30
0.0
 11
220.9868590523252
 21
681.70383361812333
 31
0.0
  0
LINE
  5
28F91
  8
BUHIN-3
  6
HIDDEN
 10
220.99059305232541
 20
681.72170761812322
 30
0.0
 11
220.9886830523254
 21
681.71274961812333
 31
0.0
  0
LINE
  5
28F92
  8
BUHIN-3
  6
HIDDEN
 10
220.9925850523253
 20
681.73070761812323
 30
0.0
 11
220.99059305232541
 21
681.72170761812322
 31
0.0
  0
LINE
  5
28F93
  8
BUHIN-3
  6
HIDDEN
 10
220.99465905232529
 20
681.73974561812315
 30
0.0
 11
220.9925850523253
 21
681.73070761812323
 31
0.0
  0
LINE
  5
28F94
  8
BUHIN-3
  6
HIDDEN
 10
220.9968110523254
 20
681.74882361812308
 30
0.0
 11
220.99465905232529
 21
681.73974561812315
 31
0.0
  0
LINE
  5
28F95
  8
BUHIN-3
  6
HIDDEN
 10
220.9990410523254
 20
681.75794161812314
 30
0.0
 11
220.9968110523254
 21
681.74882361812308
 31
0.0
  0
LINE
  5
28F96
  8
BUHIN-3
  6
HIDDEN
 10
221.00134505232521
 20
681.76709761812322
 30
0.0
 11
220.9990410523254
 21
681.75794161812314
 31
0.0
  0
LINE
  5
28F97
  8
BUHIN-3
  6
HIDDEN
 10
221.00343305232519
 20
681.77517561812317
 30
0.0
 11
221.00134505232521
 21
681.76709761812322
 31
0.0
  0
LINE
  5
28F98
  8
BUHIN-3
  6
HIDDEN
 10
220.7834990523252
 20
681.70684161812324
 30
0.0
 11
220.7667290523253
 21
681.7046956181232
 31
0.0
  0
LINE
  5
28F99
  8
BUHIN-3
  6
HIDDEN
 10
220.7667290523253
 20
681.7046956181232
 30
0.0
 11
220.7400330523254
 21
681.70134761812324
 31
0.0
  0
LINE
  5
28F9A
  8
BUHIN-3
  6
HIDDEN
 10
220.7400330523254
 20
681.70134761812324
 30
0.0
 11
220.7132150523253
 21
681.69805161812315
 31
0.0
  0
LINE
  5
28F9B
  8
BUHIN-3
  6
HIDDEN
 10
220.7132150523253
 20
681.69805161812315
 30
0.0
 11
220.6862770523251
 21
681.69481161812314
 31
0.0
  0
LINE
  5
28F9C
  8
BUHIN-3
  6
HIDDEN
 10
220.6862770523251
 20
681.69481161812314
 30
0.0
 11
220.65922505232521
 21
681.69162961812322
 31
0.0
  0
LINE
  5
28F9D
  8
BUHIN-3
  6
HIDDEN
 10
220.65922505232521
 20
681.69162961812322
 30
0.0
 11
220.6320550523254
 21
681.68850961812313
 31
0.0
  0
LINE
  5
28F9E
  8
BUHIN-3
  6
HIDDEN
 10
220.6320550523254
 20
681.68850961812313
 30
0.0
 11
220.6047750523251
 21
681.68545361812312
 31
0.0
  0
LINE
  5
28F9F
  8
BUHIN-3
  6
HIDDEN
 10
220.54989105232531
 20
681.67954561812326
 30
0.0
 11
220.5326370523251
 21
681.6777656181232
 31
0.0
  0
LINE
  5
28FA0
  8
BUHIN-3
  6
HIDDEN
 10
220.6047750523251
 20
681.68545361812312
 30
0.0
 11
220.57738505232521
 21
681.68246561812305
 31
0.0
  0
LINE
  5
28FA1
  8
BUHIN-3
  6
HIDDEN
 10
220.57738505232521
 20
681.68246561812305
 30
0.0
 11
220.54989105232531
 21
681.67954561812326
 31
0.0
  0
ARC
  5
28FA2
  8
BUHIN-3
  6
HIDDEN
 10
219.6942950523252
 20
689.72183561812312
 30
0.0
 40
8.0875800000000009
 50
273.30717599999912
 51
275.94959700000032
  0
POLYLINE
  5
28FA3
  8
BUHIN-3
  6
HIDDEN
 66
     1
 10
0.0
 20
0.0
 30
0.0
  0
VERTEX
  5
2A88F
  8
BUHIN-3
  6
HIDDEN
 10
216.95528305232509
 20
681.8888636181232
 30
0.0
  0
VERTEX
  5
2A890
  8
BUHIN-3
  6
HIDDEN
 10
217.5791950523251
 20
681.76511361812322
 30
0.0
  0
VERTEX
  5
2A891
  8
BUHIN-3
  6
HIDDEN
 10
218.22186305232529
 20
681.67868161812305
 30
0.0
  0
VERTEX
  5
2A892
  8
BUHIN-3
  6
HIDDEN
 10
218.8702330523252
 20
681.63193361812318
 30
0.0
  0
VERTEX
  5
2A893
  8
BUHIN-3
  6
HIDDEN
 10
219.52088105232531
 20
681.62299761812324
 30
0.0
  0
VERTEX
  5
2A894
  8
BUHIN-3
  6
HIDDEN
 10
220.16085505232519
 20
681.64780361812313
 30
0.0
  0
SEQEND
  5
2A895
  8
BUHIN-3
  6
HIDDEN
  0
LINE
  5
28FA4
  8
BUHIN-3
  6
HIDDEN
 10
228.1004550523252
 20
702.79117761812313
 30
0.0
 11
228.09953905232521
 21
688.46704561812317
 31
0.0
  0
POLYLINE
  5
28FA5
  8
BUHIN-3
  6
HIDDEN
 66
     1
 10
0.0
 20
0.0
 30
0.0
  0
VERTEX
  5
2A896
  8
BUHIN-3
  6
HIDDEN
 10
227.79692105232519
 20
684.16454561812316
 30
0.0
  0
VERTEX
  5
2A897
  8
BUHIN-3
  6
HIDDEN
 10
227.80712905232519
 20
684.08303761812306
 30
0.0
  0
VERTEX
  5
2A898
  8
BUHIN-3
  6
HIDDEN
 10
227.8537650523252
 20
684.02333161812305
 30
0.0
  0
VERTEX
  5
2A899
  8
BUHIN-3
  6
HIDDEN
 10
227.95826705232531
 20
683.97631161812319
 30
0.0
  0
VERTEX
  5
2A89A
  8
BUHIN-3
  6
HIDDEN
 10
228.24517505232541
 20
683.94924961812319
 30
0.0
  0
VERTEX
  5
2A89B
  8
BUHIN-3
  6
HIDDEN
 10
229.74934105232529
 20
684.02805161812319
 30
0.0
  0
VERTEX
  5
2A89C
  8
BUHIN-3
  6
HIDDEN
 10
230.66182105232531
 20
684.04532361812335
 30
0.0
  0
VERTEX
  5
2A89D
  8
BUHIN-3
  6
HIDDEN
 10
231.34633505232529
 20
684.02203961812324
 30
0.0
  0
VERTEX
  5
2A89E
  8
BUHIN-3
  6
HIDDEN
 10
232.22032705232539
 20
683.94233961812324
 30
0.0
  0
SEQEND
  5
2A89F
  8
BUHIN-3
  6
HIDDEN
  0
LINE
  5
28FA6
  8
BUHIN-3
  6
HIDDEN
 10
228.09821905232531
 20
688.46603561812321
 30
0.0
 11
228.08929305232539
 21
687.97154761812317
 31
0.0
  0
LINE
  5
28FA7
  8
BUHIN-3
  6
HIDDEN
 10
227.79749305232539
 20
684.16481561812304
 30
0.0
 11
227.7972590523253
 21
684.16485761812316
 31
0.0
  0
POLYLINE
  5
28FA8
  8
BUHIN-3
  6
HIDDEN
 66
     1
 10
0.0
 20
0.0
 30
0.0
  0
VERTEX
  5
2A8A0
  8
BUHIN-3
  6
HIDDEN
 10
227.79749305232539
 20
684.16481561812304
 30
0.0
  0
VERTEX
  5
2A8A1
  8
BUHIN-3
  6
HIDDEN
 10
227.90179705232529
 20
684.87810761812318
 30
0.0
  0
VERTEX
  5
2A8A2
  8
BUHIN-3
  6
HIDDEN
 10
227.98712505232521
 20
685.77282161812332
 30
0.0
  0
VERTEX
  5
2A8A3
  8
BUHIN-3
  6
HIDDEN
 10
228.05038705232511
 20
686.81656561812315
 30
0.0
  0
VERTEX
  5
2A8A4
  8
BUHIN-3
  6
HIDDEN
 10
228.08929305232539
 20
687.97154761812317
 30
0.0
  0
SEQEND
  5
2A8A5
  8
BUHIN-3
  6
HIDDEN
  0
LINE
  5
28FA9
  8
BUHIN-3
  6
HIDDEN
 10
228.55627905232529
 20
703.23638561812322
 30
0.0
 11
228.49122105232539
 21
703.21462961812313
 31
0.0
  0
LINE
  5
28FAA
  8
BUHIN-3
  6
HIDDEN
 10
228.1093650523251
 20
702.85854161812313
 30
0.0
 11
228.1004610523253
 21
702.79121161812327
 31
0.0
  0
POLYLINE
  5
28FAB
  8
BUHIN-3
  6
HIDDEN
 66
     1
 10
0.0
 20
0.0
 30
0.0
  0
VERTEX
  5
2A8A6
  8
BUHIN-3
  6
HIDDEN
 10
228.1093650523251
 20
702.85854161812313
 30
0.0
  0
VERTEX
  5
2A8A7
  8
BUHIN-3
  6
HIDDEN
 10
228.1525890523252
 20
702.96816561812318
 30
0.0
  0
VERTEX
  5
2A8A8
  8
BUHIN-3
  6
HIDDEN
 10
228.22907705232529
 20
703.06328961812324
 30
0.0
  0
VERTEX
  5
2A8A9
  8
BUHIN-3
  6
HIDDEN
 10
228.3407850523252
 20
703.14518961812314
 30
0.0
  0
VERTEX
  5
2A8AA
  8
BUHIN-3
  6
HIDDEN
 10
228.49122105232539
 20
703.21462961812313
 30
0.0
  0
SEQEND
  5
2A8AB
  8
BUHIN-3
  6
HIDDEN
  0
LINE
  5
28FAC
  8
BUHIN-3
  6
HIDDEN
 10
259.59266905232499
 20
702.01660161812333
 30
0.0
 11
259.40844905232541
 21
702.34339561812305
 31
0.0
  0
LINE
  5
28FAD
  8
BUHIN-3
  6
HIDDEN
 10
259.1612430523254
 20
702.62712161812328
 30
0.0
 11
258.86052105232551
 21
702.85699361812317
 31
0.0
  0
LINE
  5
28FAE
  8
BUHIN-3
  6
HIDDEN
 10
259.40844905232541
 20
702.34339561812305
 30
0.0
 11
259.15602305232539
 21
702.64848761812323
 31
0.0
  0
LINE
  5
28FAF
  8
BUHIN-3
  6
HIDDEN
 10
258.86052105232551
 20
702.85699361812317
 30
0.0
 11
258.51342505232549
 21
703.06916561812318
 31
0.0
  0
POLYLINE
  5
28FB0
  8
BUHIN-3
  6
HIDDEN
 66
     1
 10
0.0
 20
0.0
 30
0.0
  0
VERTEX
  5
2A8AC
  8
BUHIN-3
  6
HIDDEN
 10
260.67601705232511
 20
702.96662961812331
 30
0.0
  0
VERTEX
  5
2A8AD
  8
BUHIN-3
  6
HIDDEN
 10
260.44281305232499
 20
702.93903361812306
 30
0.0
  0
VERTEX
  5
2A8AE
  8
BUHIN-3
  6
HIDDEN
 10
260.22247705232519
 20
702.85777561812324
 30
0.0
  0
VERTEX
  5
2A8AF
  8
BUHIN-3
  6
HIDDEN
 10
260.02717105232512
 20
702.72734161812332
 30
0.0
  0
VERTEX
  5
2A8B0
  8
BUHIN-3
  6
HIDDEN
 10
259.86767305232507
 20
702.55492561812321
 30
0.0
  0
VERTEX
  5
2A8B1
  8
BUHIN-3
  6
HIDDEN
 10
259.7527830523253
 20
702.35004561812309
 30
0.0
  0
VERTEX
  5
2A8B2
  8
BUHIN-3
  6
HIDDEN
 10
259.6888430523253
 20
702.12400761812307
 30
0.0
  0
VERTEX
  5
2A8B3
  8
BUHIN-3
  6
HIDDEN
 10
259.67937905232509
 20
701.88928361812316
 30
0.0
  0
VERTEX
  5
2A8B4
  8
BUHIN-3
  6
HIDDEN
 10
259.7249170523254
 20
701.65882961812315
 30
0.0
  0
SEQEND
  5
2A8B5
  8
BUHIN-3
  6
HIDDEN
  0
POLYLINE
  5
28FB1
  8
BUHIN-3
  6
HIDDEN
 66
     1
 10
0.0
 20
0.0
 30
0.0
  0
VERTEX
  5
2A8B6
  8
BUHIN-3
  6
HIDDEN
 10
282.67705305232528
 20
702.96663161812319
 30
0.0
  0
VERTEX
  5
2A8B7
  8
BUHIN-3
  6
HIDDEN
 10
282.51498705232541
 20
702.93954161812314
 30
0.0
  0
VERTEX
  5
2A8B8
  8
BUHIN-3
  6
HIDDEN
 10
282.37048505232531
 20
702.86119361812325
 30
0.0
  0
VERTEX
  5
2A8B9
  8
BUHIN-3
  6
HIDDEN
 10
282.25921105232538
 20
702.74007961812322
 30
0.0
  0
VERTEX
  5
2A8BA
  8
BUHIN-3
  6
HIDDEN
 10
282.19322105232538
 20
702.58932561812321
 30
0.0
  0
SEQEND
  5
2A8BB
  8
BUHIN-3
  6
HIDDEN
  0
LINE
  5
28FB2
  8
BUHIN-3
  6
HIDDEN
 10
236.1980050523253
 20
702.64848761812323
 30
0.0
 11
235.98851305232509
 21
702.39845761812319
 31
0.0
  0
LINE
  5
28FB3
  8
BUHIN-3
  6
HIDDEN
 10
235.98851305232509
 20
702.39845761812319
 30
0.0
 11
235.7614550523252
 21
702.01657561812306
 31
0.0
  0
LINE
  5
28FB4
  8
BUHIN-3
  6
HIDDEN
 10
290.64744505232551
 20
703.46664561812315
 30
0.0
 11
290.645801052325
 21
712.96664361812316
 31
0.0
  0
LINE
  5
28FB5
  8
BUHIN-3
  6
HIDDEN
 10
282.90889505232542
 20
702.96664361812327
 30
0.0
 11
282.77496305232529
 21
702.80544361812315
 31
0.0
  0
LINE
  5
28FB6
  8
BUHIN-3
  6
HIDDEN
 10
282.23518905232538
 20
702.26766361812315
 30
0.0
 11
282.19316705232529
 21
702.58933961812306
 31
0.0
  0
LINE
  5
28FB7
  8
BUHIN-3
  6
HIDDEN
 10
222.06840105232541
 20
676.2131596181232
 30
0.0
 11
221.9301750523253
 21
676.44490961812335
 31
0.0
  0
LINE
  5
28FB8
  8
BUHIN-3
  6
HIDDEN
 10
227.9157770523253
 20
684.06470361812319
 30
0.0
 11
227.82955505232519
 21
684.16309961812317
 31
0.0
  0
LINE
  5
28FB9
  8
BUHIN-3
  6
HIDDEN
 10
259.73331505232528
 20
701.65839161812323
 30
0.0
 11
259.68957505232532
 21
701.77995361812316
 31
0.0
  0
LINE
  5
28FBA
  8
BUHIN-3
  6
HIDDEN
 10
263.13523905232512
 20
689.58201961812324
 30
0.0
 11
263.0479010523253
 21
689.93790561812318
 31
0.0
  0
LINE
  5
28FBB
  8
BUHIN-3
  6
HIDDEN
 10
237.63238705232521
 20
693.89258361812313
 30
0.0
 11
237.42513905232531
 21
693.76307961812313
 31
0.0
  0
LINE
  5
28FBC
  8
BUHIN-3
  6
HIDDEN
 10
257.92888905232519
 20
693.76307961812313
 30
0.0
 11
257.72164305232519
 21
693.89258161812313
 31
0.0
  0
LINE
  5
28FBD
  8
BUHIN-3
  6
HIDDEN
 10
290.64744505232551
 20
703.46664361812316
 30
0.0
 11
290.64463305232528
 21
712.96664361812316
 31
0.0
  0
LINE
  5
28FBE
  8
BUHIN-3
  6
HIDDEN
 10
204.70822705232521
 20
712.96664361812316
 30
0.0
 11
204.70658505232529
 21
703.46664361812316
 31
0.0
  0
LINE
  5
28FBF
  8
BUHIN-3
  6
HIDDEN
 10
261.13031505232527
 20
693.32436361812324
 30
0.0
 11
259.21522705232508
 21
693.40748161812326
 31
0.0
  0
LINE
  5
28FC0
  8
BUHIN-3
  6
HIDDEN
 10
232.22035905232531
 20
688.96664361812316
 30
0.0
 11
232.22035905232531
 21
683.96664361812316
 31
0.0
  0
LINE
  5
28FC1
  8
BUHIN-3
  6
HIDDEN
 10
231.7742850523253
 20
663.46663961812317
 30
0.0
 11
231.77161505232519
 21
670.24680961812328
 31
0.0
  0
LINE
  5
28FC2
  8
BUHIN-3
  6
HIDDEN
 10
263.58241305232548
 20
670.24680961812328
 30
0.0
 11
263.57942905232528
 21
663.46663961812317
 31
0.0
  0
LINE
  5
28FC3
  8
BUHIN-3
  6
HIDDEN
 10
231.17701705232531
 20
676.96664361812316
 30
0.0
 11
231.17701705232531
 21
672.96664361812327
 31
0.0
  0
LINE
  5
28FC4
  8
BUHIN-3
  6
HIDDEN
 10
264.17701305232538
 20
676.96664361812316
 30
0.0
 11
264.17701305232538
 21
672.96664361812327
 31
0.0
  0
LINE
  5
28FC5
  8
BUHIN-3
  6
DASHDOT
 10
247.67701505232509
 20
639.60120961812322
 30
0.0
 11
247.67701505232509
 21
573.99333961812306
 31
0.0
  0
LINE
  5
28FC6
  8
BUHIN-3
  6
CONTINUOUS
 10
276.31617105232527
 20
575.44979561812318
 30
0.0
 11
275.62624905232531
 21
615.04234561812314
 31
0.0
  0
LINE
  5
28FC7
  8
BUHIN-3
  6
CONTINUOUS
 10
219.69380705232521
 20
615.3305536181233
 30
0.0
 11
218.99886305232519
 21
575.44979561812318
 31
0.0
  0
LINE
  5
28FC8
  8
BUHIN-3
  6
CONTINUOUS
 10
247.67701505232509
 20
574.04812761812298
 30
0.0
 11
247.67701505232509
 21
568.37699161812316
 31
0.0
  0
POLYLINE
  5
28FC9
  8
BUHIN-3
  6
CONTINUOUS
 66
     1
 10
0.0
 20
0.0
 30
0.0
  0
VERTEX
  5
2A8BC
  8
BUHIN-3
  6
CONTINUOUS
 10
275.36121305232552
 20
574.43272761812307
 30
0.0
  0
VERTEX
  5
2A8BD
  8
BUHIN-3
  6
CONTINUOUS
 10
275.5537850523254
 20
574.45627161812331
 30
0.0
  0
VERTEX
  5
2A8BE
  8
BUHIN-3
  6
CONTINUOUS
 10
275.74098705232552
 20
574.51934361812323
 30
0.0
  0
VERTEX
  5
2A8BF
  8
BUHIN-3
  6
CONTINUOUS
 10
275.91380905232512
 20
574.6189076181231
 30
0.0
  0
VERTEX
  5
2A8C0
  8
BUHIN-3
  6
CONTINUOUS
 10
276.06393505232552
 20
574.7501716181232
 30
0.0
  0
VERTEX
  5
2A8C1
  8
BUHIN-3
  6
CONTINUOUS
 10
276.18414105232512
 20
574.90681961812334
 30
0.0
  0
VERTEX
  5
2A8C2
  8
BUHIN-3
  6
CONTINUOUS
 10
276.26863905232528
 20
575.0813136181232
 30
0.0
  0
VERTEX
  5
2A8C3
  8
BUHIN-3
  6
CONTINUOUS
 10
276.31336705232508
 20
575.2652576181232
 30
0.0
  0
VERTEX
  5
2A8C4
  8
BUHIN-3
  6
CONTINUOUS
 10
276.31617105232527
 20
575.44979561812318
 30
0.0
  0
SEQEND
  5
2A8C5
  8
BUHIN-3
  6
CONTINUOUS
  0
POLYLINE
  5
28FCA
  8
BUHIN-3
  6
CONTINUOUS
 66
     1
 10
0.0
 20
0.0
 30
0.0
  0
VERTEX
  5
2A8C6
  8
BUHIN-3
  6
CONTINUOUS
 10
218.99886305232519
 20
575.44979561812318
 30
0.0
  0
VERTEX
  5
2A8C7
  8
BUHIN-3
  6
CONTINUOUS
 10
219.00166705232539
 20
575.2652576181232
 30
0.0
  0
VERTEX
  5
2A8C8
  8
BUHIN-3
  6
CONTINUOUS
 10
219.04639505232521
 20
575.0813136181232
 30
0.0
  0
VERTEX
  5
2A8C9
  8
BUHIN-3
  6
CONTINUOUS
 10
219.13089505232509
 20
574.90681961812334
 30
0.0
  0
VERTEX
  5
2A8CA
  8
BUHIN-3
  6
CONTINUOUS
 10
219.2510990523252
 20
574.7501716181232
 30
0.0
  0
VERTEX
  5
2A8CB
  8
BUHIN-3
  6
CONTINUOUS
 10
219.4012250523252
 20
574.6189076181231
 30
0.0
  0
VERTEX
  5
2A8CC
  8
BUHIN-3
  6
CONTINUOUS
 10
219.57404905232519
 20
574.51934361812323
 30
0.0
  0
VERTEX
  5
2A8CD
  8
BUHIN-3
  6
CONTINUOUS
 10
219.76125105232529
 20
574.45627161812331
 30
0.0
  0
VERTEX
  5
2A8CE
  8
BUHIN-3
  6
CONTINUOUS
 10
219.95382305232519
 20
574.43272761812307
 30
0.0
  0
SEQEND
  5
2A8CF
  8
BUHIN-3
  6
CONTINUOUS
  0
ARC
  5
28FCB
  8
BUHIN-3
  6
CONTINUOUS
 10
247.65751705232549
 20
1574.047793618123
 30
0.0
 40
999.99975800000004
 50
270.0
 51
271.58750999999921
  0
LINE
  5
28FCC
  8
BUHIN-3
  6
CONTINUOUS
 10
275.38073305232541
 20
574.4318576181231
 30
0.0
 11
275.38070905232541
 21
574.43272761812307
 31
0.0
  0
ARC
  5
28FCD
  8
BUHIN-3
  6
CONTINUOUS
 10
247.65751705232549
 20
1574.047793618123
 30
0.0
 40
999.99975800000004
 50
268.41249000000079
 51
270.0
  0
LINE
  5
28FCE
  8
BUHIN-3
  6
CONTINUOUS
 10
219.97331905232531
 20
574.43272761812307
 30
0.0
 11
219.9732950523252
 21
574.4318576181231
 31
0.0
  0
POLYLINE
  5
28FCF
  8
BUHIN-3
  6
CONTINUOUS
 66
     1
 10
0.0
 20
0.0
 30
0.0
  0
VERTEX
  5
2A8D0
  8
BUHIN-3
  6
CONTINUOUS
 10
251.40624305232529
 20
574.0550616181232
 30
0.0
  0
VERTEX
  5
2A8D1
  8
BUHIN-3
  6
CONTINUOUS
 10
251.57896705232531
 20
573.0452536181233
 30
0.0
  0
VERTEX
  5
2A8D2
  8
BUHIN-3
  6
CONTINUOUS
 10
251.6630330523252
 20
572.41951361812335
 30
0.0
  0
VERTEX
  5
2A8D3
  8
BUHIN-3
  6
CONTINUOUS
 10
251.71445305232541
 20
571.74209361812314
 30
0.0
  0
VERTEX
  5
2A8D4
  8
BUHIN-3
  6
CONTINUOUS
 10
251.7134570523252
 20
571.23910561812306
 30
0.0
  0
SEQEND
  5
2A8D5
  8
BUHIN-3
  6
CONTINUOUS
  0
POLYLINE
  5
28FD0
  8
BUHIN-3
  6
CONTINUOUS
 66
     1
 10
0.0
 20
0.0
 30
0.0
  0
VERTEX
  5
2A8D6
  8
BUHIN-3
  6
CONTINUOUS
 10
251.71234905232529
 20
571.23915361812317
 30
0.0
  0
VERTEX
  5
2A8D7
  8
BUHIN-3
  6
CONTINUOUS
 10
251.66455705232539
 20
570.39943961812332
 30
0.0
  0
VERTEX
  5
2A8D8
  8
BUHIN-3
  6
CONTINUOUS
 10
251.4762850523251
 20
569.38971361812332
 30
0.0
  0
VERTEX
  5
2A8D9
  8
BUHIN-3
  6
CONTINUOUS
 10
251.3664850523254
 20
569.06798561812309
 30
0.0
  0
VERTEX
  5
2A8DA
  8
BUHIN-3
  6
CONTINUOUS
 10
251.14087305232519
 20
568.58506561812328
 30
0.0
  0
VERTEX
  5
2A8DB
  8
BUHIN-3
  6
CONTINUOUS
 10
250.95139105232539
 20
568.27646561812321
 30
0.0
  0
VERTEX
  5
2A8DC
  8
BUHIN-3
  6
CONTINUOUS
 10
250.73602905232511
 20
567.99095361812329
 30
0.0
  0
VERTEX
  5
2A8DD
  8
BUHIN-3
  6
CONTINUOUS
 10
250.49777505232521
 20
567.73086961812317
 30
0.0
  0
VERTEX
  5
2A8DE
  8
BUHIN-3
  6
CONTINUOUS
 10
250.23914705232511
 20
567.49711161812309
 30
0.0
  0
VERTEX
  5
2A8DF
  8
BUHIN-3
  6
CONTINUOUS
 10
249.9626630523251
 20
567.29057761812305
 30
0.0
  0
VERTEX
  5
2A8E0
  8
BUHIN-3
  6
CONTINUOUS
 10
249.6703570523253
 20
567.11134161812322
 30
0.0
  0
VERTEX
  5
2A8E1
  8
BUHIN-3
  6
CONTINUOUS
 10
249.3642630523253
 20
566.95947361812307
 30
0.0
  0
VERTEX
  5
2A8E2
  8
BUHIN-3
  6
CONTINUOUS
 10
249.04592305232501
 20
566.83482961812319
 30
0.0
  0
VERTEX
  5
2A8E3
  8
BUHIN-3
  6
CONTINUOUS
 10
248.71688105232519
 20
566.73726561812327
 30
0.0
  0
VERTEX
  5
2A8E4
  8
BUHIN-3
  6
CONTINUOUS
 10
248.28958705232509
 20
566.65982561812325
 30
0.0
  0
VERTEX
  5
2A8E5
  8
BUHIN-3
  6
CONTINUOUS
 10
247.67648505232529
 20
566.59555561812317
 30
0.0
  0
SEQEND
  5
2A8E6
  8
BUHIN-3
  6
CONTINUOUS
  0
LINE
  5
28FD1
  8
BUHIN
  6
CONTINUOUS
 10
244.12844905232521
 20
267.30795509247332
 30
0.0
 11
247.12710505232539
 21
285.54622709247337
 31
0.0
  0
LINE
  5
28FD2
  8
BUHIN
  6
CONTINUOUS
 10
248.24723105232519
 20
285.66204709247341
 30
0.0
 11
251.3176130523251
 21
266.99754309247328
 31
0.0
  0
POLYLINE
  5
28FD4
  8
BUHIN
  6
CONTINUOUS
 66
     1
 10
0.0
 20
0.0
 30
0.0
  0
VERTEX
  5
2A8E7
  8
BUHIN
  6
CONTINUOUS
 10
250.7982050523255
 20
194.28464109247329
 30
0.0
  0
VERTEX
  5
2A8E8
  8
BUHIN
  6
CONTINUOUS
 10
250.6341750523255
 20
193.72027909247319
 30
0.0
  0
VERTEX
  5
2A8E9
  8
BUHIN
  6
CONTINUOUS
 10
250.45293705232541
 20
193.22662709247331
 30
0.0
  0
VERTEX
  5
2A8EA
  8
BUHIN
  6
CONTINUOUS
 10
250.15604105232509
 20
192.62322109247339
 30
0.0
  0
VERTEX
  5
2A8EB
  8
BUHIN
  6
CONTINUOUS
 10
249.97116705232509
 20
192.3317950924733
 30
0.0
  0
VERTEX
  5
2A8EC
  8
BUHIN
  6
CONTINUOUS
 10
249.7360210523251
 20
192.02793909247339
 30
0.0
  0
VERTEX
  5
2A8ED
  8
BUHIN
  6
CONTINUOUS
 10
249.5073170523255
 20
191.7843690924733
 30
0.0
  0
VERTEX
  5
2A8EE
  8
BUHIN
  6
CONTINUOUS
 10
249.25854105232551
 20
191.57021709247331
 30
0.0
  0
VERTEX
  5
2A8EF
  8
BUHIN
  6
CONTINUOUS
 10
248.99187905232509
 20
191.38952509247329
 30
0.0
  0
VERTEX
  5
2A8F0
  8
BUHIN
  6
CONTINUOUS
 10
248.70838905232529
 20
191.2442530924734
 30
0.0
  0
VERTEX
  5
2A8F1
  8
BUHIN
  6
CONTINUOUS
 10
248.42604705232529
 20
191.14833709247341
 30
0.0
  0
VERTEX
  5
2A8F2
  8
BUHIN
  6
CONTINUOUS
 10
247.93580505232549
 20
191.04568309247341
 30
0.0
  0
VERTEX
  5
2A8F3
  8
BUHIN
  6
CONTINUOUS
 10
247.69699105232519
 20
191.00998709247321
 30
0.0
  0
VERTEX
  5
2A8F4
  8
BUHIN
  6
CONTINUOUS
 10
247.69654105232519
 20
191.00160909247319
 30
0.0
  0
VERTEX
  5
2A8F5
  8
BUHIN
  6
CONTINUOUS
 10
247.32293905232501
 20
191.0349870924733
 30
0.0
  0
VERTEX
  5
2A8F6
  8
BUHIN
  6
CONTINUOUS
 10
246.9674510523254
 20
191.11535309247321
 30
0.0
  0
VERTEX
  5
2A8F7
  8
BUHIN
  6
CONTINUOUS
 10
246.63090905232539
 20
191.2425210924732
 30
0.0
  0
VERTEX
  5
2A8F8
  8
BUHIN
  6
CONTINUOUS
 10
246.31409505232509
 20
191.4161910924733
 30
0.0
  0
VERTEX
  5
2A8F9
  8
BUHIN
  6
CONTINUOUS
 10
246.0177510523252
 20
191.63595909247331
 30
0.0
  0
VERTEX
  5
2A8FA
  8
BUHIN
  6
CONTINUOUS
 10
245.7425670523252
 20
191.90131109247341
 30
0.0
  0
VERTEX
  5
2A8FB
  8
BUHIN
  6
CONTINUOUS
 10
245.48918705232549
 20
192.2116310924732
 30
0.0
  0
VERTEX
  5
2A8FC
  8
BUHIN
  6
CONTINUOUS
 10
245.25820105232549
 20
192.56619109247339
 30
0.0
  0
VERTEX
  5
2A8FD
  8
BUHIN
  6
CONTINUOUS
 10
245.05014905232511
 20
192.96416709247339
 30
0.0
  0
VERTEX
  5
2A8FE
  8
BUHIN
  6
CONTINUOUS
 10
244.8655130523251
 20
193.40462709247319
 30
0.0
  0
VERTEX
  5
2A8FF
  8
BUHIN
  6
CONTINUOUS
 10
244.7047290523254
 20
193.8865450924734
 30
0.0
  0
SEQEND
  5
2A900
  8
BUHIN
  6
CONTINUOUS
  0
LINE
  5
28FD9
  8
BUHIN
  6
DASHDOT
 10
228.6770150523254
 20
367.4063250924732
 30
0.0
 11
266.6770150523252
 21
367.4063250924732
 31
0.0
  0
LINE
  5
28FDA
  8
BUHIN
  6
DASHDOT
 10
247.6770150523252
 20
181.96325452777819
 30
0.0
 11
247.67701505232509
 21
420.4063250924732
 31
0.0
  0
CIRCLE
  5
28FDB
  8
BUHIN
  6
CONTINUOUS
 10
247.67701505232509
 20
367.4063250924732
 30
0.0
 40
18.0
  0
ARC
  5
28FDC
  8
BUHIN
  6
CONTINUOUS
 10
247.67701505232509
 20
327.4063250924732
 30
0.0
 40
85.0
 50
272.7358759999936
 51
0.0
  0
LINE
  5
28FDD
  8
BUHIN
  6
DASHDOT
 10
154.67701505232509
 20
327.4063250924732
 30
0.0
 11
340.67701505232509
 21
327.4063250924732
 31
0.0
  0
ARC
  5
28FDE
  8
BUHIN
  6
CONTINUOUS
 10
247.67701505232509
 20
327.4063250924732
 30
0.0
 40
85.0
 50
0.0
 51
267.29126500000331
  0
LINE
  5
28FDF
  8
BUHIN
  6
DASHDOT
 10
213.2283490523254
 20
293.40632509247331
 30
0.0
 11
282.12567905232521
 21
293.40632509247331
 31
0.0
  0
LINE
  5
28FE0
  8
BUHIN
  6
CONTINUOUS
 10
251.64900305232541
 20
264.80379309247343
 30
0.0
 11
251.73447705232539
 21
264.90188309247333
 31
0.0
  0
LINE
  5
28FE1
  8
BUHIN
  6
CONTINUOUS
 10
251.6490070523254
 20
264.80435309247332
 30
0.0
 11
251.82012905232509
 21
264.99961909247332
 31
0.0
  0
POLYLINE
  5
28FE2
  8
BUHIN
  6
CONTINUOUS
 66
     1
 10
0.0
 20
0.0
 30
0.0
  0
VERTEX
  5
2A901
  8
BUHIN
  6
CONTINUOUS
 10
243.74481305232521
 20
264.79803309247342
 30
0.0
  0
VERTEX
  5
2A902
  8
BUHIN
  6
CONTINUOUS
 10
243.7316770523251
 20
264.8672710924734
 30
0.0
  0
VERTEX
  5
2A903
  8
BUHIN
  6
CONTINUOUS
 10
243.69533505232531
 20
264.92765509247329
 30
0.0
  0
VERTEX
  5
2A904
  8
BUHIN
  6
CONTINUOUS
 10
243.6403010523253
 20
264.9716870924733
 30
0.0
  0
VERTEX
  5
2A905
  8
BUHIN
  6
CONTINUOUS
 10
243.5734090523255
 20
264.99389509247339
 30
0.0
  0
SEQEND
  5
2A906
  8
BUHIN
  6
CONTINUOUS
  0
ARC
  5
28FE3
  8
BUHIN
  6
CONTINUOUS
 10
247.6770730523252
 20
293.40632509247331
 30
0.0
 40
28.707222000000002
 50
277.95549800000163
 51
90.000058999998103
  0
ARC
  5
28FE4
  8
BUHIN
  6
CONTINUOUS
 10
247.67701505232509
 20
293.40632509247331
 30
0.0
 40
28.707222000000002
 50
89.999941000001883
 51
262.12549899999499
  0
POLYLINE
  5
28FE5
  8
BUHIN
  6
CONTINUOUS
 66
     1
 10
0.0
 20
0.0
 30
0.0
  0
VERTEX
  5
2A907
  8
BUHIN
  6
CONTINUOUS
 10
243.76363505232521
 20
261.40638509247327
 30
0.0
  0
VERTEX
  5
2A908
  8
BUHIN
  6
CONTINUOUS
 10
243.73856505232499
 20
256.46566909247332
 30
0.0
  0
VERTEX
  5
2A909
  8
BUHIN
  6
CONTINUOUS
 10
243.67172905232511
 20
251.4812070924734
 30
0.0
  0
VERTEX
  5
2A90A
  8
BUHIN
  6
CONTINUOUS
 10
243.6509950523253
 20
248.9696470924732
 30
0.0
  0
SEQEND
  5
2A90B
  8
BUHIN
  6
CONTINUOUS
  0
LINE
  5
28FE7
  8
BUHIN
  6
CONTINUOUS
 10
243.74401905232509
 20
264.9697970924733
 30
0.0
 11
243.7604470523255
 21
261.40637909247329
 31
0.0
  0
LINE
  5
28FE8
  8
BUHIN
  6
CONTINUOUS
 10
251.6354270523251
 20
262.95756309247332
 30
0.0
 11
251.65026505232521
 21
264.97538509247329
 31
0.0
  0
LINE
  5
28FE9
  8
BUHIN
  6
CONTINUOUS
 10
244.22304505232509
 20
197.0002350924733
 30
0.0
 11
244.24922705232521
 21
196.60043909247341
 31
0.0
  0
LINE
  5
28FEA
  8
BUHIN
  6
CONTINUOUS
 10
251.14490705232529
 20
196.6004590924733
 30
0.0
 11
251.17109305232529
 21
197.0002550924732
 31
0.0
  0
LINE
  5
28FEB
  8
BUHIN
  6
CONTINUOUS
 10
251.10429505232551
 20
196.17482909247329
 30
0.0
 11
251.14490705232529
 21
196.6004590924733
 31
0.0
  0
LINE
  5
28FEC
  8
BUHIN
  6
CONTINUOUS
 10
244.24922705232521
 20
196.60043909247341
 30
0.0
 11
244.28843105232539
 21
196.17481309247341
 31
0.0
  0
POLYLINE
  5
28FED
  8
BUHIN
  6
CONTINUOUS
 66
     1
 10
0.0
 20
0.0
 30
0.0
  0
VERTEX
  5
2A90C
  8
BUHIN
  6
CONTINUOUS
 10
251.1065670523252
 20
196.1986330924733
 30
0.0
  0
VERTEX
  5
2A90D
  8
BUHIN
  6
CONTINUOUS
 10
250.99291105232521
 20
195.2596290924732
 30
0.0
  0
SEQEND
  5
2A90E
  8
BUHIN
  6
CONTINUOUS
  0
POLYLINE
  5
28FEE
  8
BUHIN
  6
CONTINUOUS
 66
     1
 10
0.0
 20
0.0
 30
0.0
  0
VERTEX
  5
2A90F
  8
BUHIN
  6
CONTINUOUS
 10
250.97374905232519
 20
195.14028309247331
 30
0.0
  0
VERTEX
  5
2A910
  8
BUHIN
  6
CONTINUOUS
 10
251.0697530523251
 20
195.8295790924733
 30
0.0
  0
VERTEX
  5
2A911
  8
BUHIN
  6
CONTINUOUS
 10
251.1056070523253
 20
196.1747070924732
 30
0.0
  0
SEQEND
  5
2A912
  8
BUHIN
  6
CONTINUOUS
  0
ARC
  5
28FEF
  8
BUHIN
  6
CONTINUOUS
 10
241.39442705232511
 20
196.6348010924732
 30
0.0
 40
9.6929999999999996
 50
345.9682640000031
 51
347.7320389999997
  0
ARC
  5
28FF0
  8
BUHIN
  6
CONTINUOUS
 10
239.71053905232529
 20
196.99345509247331
 30
0.0
 40
11.414645999999999
 50
347.76885300000203
 51
350.65665200000001
  0
POLYLINE
  5
28FF1
  8
BUHIN
  6
CONTINUOUS
 66
     1
 10
0.0
 20
0.0
 30
0.0
  0
VERTEX
  5
2A913
  8
BUHIN
  6
CONTINUOUS
 10
247.69792105232531
 20
196.58997109247341
 30
0.0
  0
VERTEX
  5
2A914
  8
BUHIN
  6
CONTINUOUS
 10
250.96992505232529
 20
196.59679109247321
 30
0.0
  0
VERTEX
  5
2A915
  8
BUHIN
  6
CONTINUOUS
 10
251.14492705232519
 20
196.60045309247329
 30
0.0
  0
SEQEND
  5
2A916
  8
BUHIN
  6
CONTINUOUS
  0
LINE
  5
28FF2
  8
BUHIN
  6
CONTINUOUS
 10
251.70219505232521
 20
208.96369109247331
 30
0.0
 11
251.72602905232529
 21
210.96004909247341
 31
0.0
  0
LINE
  5
28FF3
  8
BUHIN
  6
CONTINUOUS
 10
251.72602905232529
 20
210.96004909247341
 30
0.0
 11
251.7342530523255
 21
211.95920709247341
 31
0.0
  0
POLYLINE
  5
28FF4
  8
BUHIN
  6
CONTINUOUS
 66
     1
 10
0.0
 20
0.0
 30
0.0
  0
VERTEX
  5
2A917
  8
BUHIN
  6
CONTINUOUS
 10
247.6978970523254
 20
196.9895470924732
 30
0.0
  0
VERTEX
  5
2A918
  8
BUHIN
  6
CONTINUOUS
 10
250.79424105232539
 20
196.99500909247331
 30
0.0
  0
VERTEX
  5
2A919
  8
BUHIN
  6
CONTINUOUS
 10
251.1624230523251
 20
196.9994030924733
 30
0.0
  0
VERTEX
  5
2A91A
  8
BUHIN
  6
CONTINUOUS
 10
251.17132705232541
 20
197.00021709247329
 30
0.0
  0
SEQEND
  5
2A91B
  8
BUHIN
  6
CONTINUOUS
  0
POLYLINE
  5
28FF5
  8
BUHIN
  6
CONTINUOUS
 66
     1
 10
0.0
 20
0.0
 30
0.0
  0
VERTEX
  5
2A91C
  8
BUHIN
  6
CONTINUOUS
 10
251.1713410523252
 20
197.00024309247331
 30
0.0
  0
VERTEX
  5
2A91D
  8
BUHIN
  6
CONTINUOUS
 10
251.4078210523252
 20
200.95109109247321
 30
0.0
  0
VERTEX
  5
2A91E
  8
BUHIN
  6
CONTINUOUS
 10
251.5566350523253
 20
203.95106709247329
 30
0.0
  0
VERTEX
  5
2A91F
  8
BUHIN
  6
CONTINUOUS
 10
251.6483250523255
 20
206.57062509247339
 30
0.0
  0
VERTEX
  5
2A920
  8
BUHIN
  6
CONTINUOUS
 10
251.7021930523255
 20
208.96369109247331
 30
0.0
  0
SEQEND
  5
2A921
  8
BUHIN
  6
CONTINUOUS
  0
POLYLINE
  5
28FF6
  8
BUHIN
  6
CONTINUOUS
 66
     1
 10
0.0
 20
0.0
 30
0.0
  0
VERTEX
  5
2A922
  8
BUHIN
  6
CONTINUOUS
 10
251.73425705232549
 20
211.95920709247341
 30
0.0
  0
VERTEX
  5
2A923
  8
BUHIN
  6
CONTINUOUS
 10
251.72489305232551
 20
217.35884109247331
 30
0.0
  0
VERTEX
  5
2A924
  8
BUHIN
  6
CONTINUOUS
 10
251.67701505232509
 20
224.68617309247341
 30
0.0
  0
VERTEX
  5
2A925
  8
BUHIN
  6
CONTINUOUS
 10
251.67617505232539
 20
232.11181509247331
 30
0.0
  0
VERTEX
  5
2A926
  8
BUHIN
  6
CONTINUOUS
 10
251.73760705232539
 20
243.30602709247341
 30
0.0
  0
VERTEX
  5
2A927
  8
BUHIN
  6
CONTINUOUS
 10
251.74296105232531
 20
248.9696690924734
 30
0.0
  0
SEQEND
  5
2A928
  8
BUHIN
  6
CONTINUOUS
  0
POLYLINE
  5
28FF7
  8
BUHIN
  6
CONTINUOUS
 66
     1
 10
0.0
 20
0.0
 30
0.0
  0
VERTEX
  5
2A929
  8
BUHIN
  6
CONTINUOUS
 10
251.63542905232529
 20
262.95756309247332
 30
0.0
  0
VERTEX
  5
2A92A
  8
BUHIN
  6
CONTINUOUS
 10
251.6305070523253
 20
260.18669109247338
 30
0.0
  0
VERTEX
  5
2A92B
  8
BUHIN
  6
CONTINUOUS
 10
251.6788570523253
 20
254.60817109247341
 30
0.0
  0
VERTEX
  5
2A92C
  8
BUHIN
  6
CONTINUOUS
 10
251.74314305232511
 20
248.96967109247339
 30
0.0
  0
SEQEND
  5
2A92D
  8
BUHIN
  6
CONTINUOUS
  0
LINE
  5
28FF8
  8
BUHIN
  6
CONTINUOUS
 10
244.59586705232539
 20
194.28462309247331
 30
0.0
 11
244.7047290523254
 21
193.8865450924734
 31
0.0
  0
LINE
  5
28FF9
  8
BUHIN
  6
CONTINUOUS
 10
247.69677505232531
 20
191.0016030924732
 30
0.0
 11
247.69699105232519
 21
191.00998709247321
 31
0.0
  0
POLYLINE
  5
28FFA
  8
BUHIN
  6
CONTINUOUS
 66
     1
 10
0.0
 20
0.0
 30
0.0
  0
VERTEX
  5
2A92E
  8
BUHIN
  6
CONTINUOUS
 10
244.4203290523254
 20
195.1402630924733
 30
0.0
  0
VERTEX
  5
2A92F
  8
BUHIN
  6
CONTINUOUS
 10
244.3243210523255
 20
195.82964709247329
 30
0.0
  0
VERTEX
  5
2A930
  8
BUHIN
  6
CONTINUOUS
 10
244.28847105232521
 20
196.1748170924734
 30
0.0
  0
SEQEND
  5
2A931
  8
BUHIN
  6
CONTINUOUS
  0
ARC
  5
28FFB
  8
BUHIN
  6
CONTINUOUS
 10
255.68319305232521
 20
196.9932790924733
 30
0.0
 40
11.41428
 50
189.34285499999791
 51
192.23074000000329
  0
ARC
  5
28FFC
  8
BUHIN
  6
CONTINUOUS
 10
253.99941305232539
 20
196.63466109247341
 30
0.0
 40
9.6927479999999981
 50
192.26755300000019
 51
194.03136899999981
  0
POLYLINE
  5
28FFD
  8
BUHIN
  6
CONTINUOUS
 66
     1
 10
0.0
 20
0.0
 30
0.0
  0
VERTEX
  5
2A932
  8
BUHIN
  6
CONTINUOUS
 10
247.69662105232541
 20
196.58997109247341
 30
0.0
  0
VERTEX
  5
2A933
  8
BUHIN
  6
CONTINUOUS
 10
244.4244050523252
 20
196.59677309247331
 30
0.0
  0
VERTEX
  5
2A934
  8
BUHIN
  6
CONTINUOUS
 10
244.2492070523252
 20
196.60043309247339
 30
0.0
  0
SEQEND
  5
2A935
  8
BUHIN
  6
CONTINUOUS
  0
LINE
  5
28FFE
  8
BUHIN
  6
CONTINUOUS
 10
243.6601530523252
 20
211.9591830924733
 30
0.0
 11
243.6683570523254
 21
210.96002509247339
 31
0.0
  0
LINE
  5
28FFF
  8
BUHIN
  6
CONTINUOUS
 10
243.6683570523254
 20
210.96002509247339
 30
0.0
 11
243.6921850523253
 21
208.96366709247329
 31
0.0
  0
POLYLINE
  5
29000
  8
BUHIN
  6
CONTINUOUS
 66
     1
 10
0.0
 20
0.0
 30
0.0
  0
VERTEX
  5
2A936
  8
BUHIN
  6
CONTINUOUS
 10
247.69665705232529
 20
196.9895470924732
 30
0.0
  0
VERTEX
  5
2A937
  8
BUHIN
  6
CONTINUOUS
 10
244.60010905232539
 20
196.9949910924733
 30
0.0
  0
VERTEX
  5
2A938
  8
BUHIN
  6
CONTINUOUS
 10
244.23175105232519
 20
196.99938109247341
 30
0.0
  0
VERTEX
  5
2A939
  8
BUHIN
  6
CONTINUOUS
 10
244.22281305232531
 20
197.0001970924734
 30
0.0
  0
SEQEND
  5
2A93A
  8
BUHIN
  6
CONTINUOUS
  0
POLYLINE
  5
29001
  8
BUHIN
  6
CONTINUOUS
 66
     1
 10
0.0
 20
0.0
 30
0.0
  0
VERTEX
  5
2A93B
  8
BUHIN
  6
CONTINUOUS
 10
244.22279705232529
 20
197.00022109247331
 30
0.0
  0
VERTEX
  5
2A93C
  8
BUHIN
  6
CONTINUOUS
 10
243.98642905232541
 20
200.95106909247329
 30
0.0
  0
VERTEX
  5
2A93D
  8
BUHIN
  6
CONTINUOUS
 10
243.8376750523251
 20
203.95104509247329
 30
0.0
  0
VERTEX
  5
2A93E
  8
BUHIN
  6
CONTINUOUS
 10
243.74602505232531
 20
206.57060309247319
 30
0.0
  0
VERTEX
  5
2A93F
  8
BUHIN
  6
CONTINUOUS
 10
243.69218705232549
 20
208.96366709247329
 30
0.0
  0
SEQEND
  5
2A940
  8
BUHIN
  6
CONTINUOUS
  0
POLYLINE
  5
29002
  8
BUHIN
  6
CONTINUOUS
 66
     1
 10
0.0
 20
0.0
 30
0.0
  0
VERTEX
  5
2A941
  8
BUHIN
  6
CONTINUOUS
 10
243.6601510523254
 20
211.9591830924733
 30
0.0
  0
VERTEX
  5
2A942
  8
BUHIN
  6
CONTINUOUS
 10
243.6695410523252
 20
217.3588170924734
 30
0.0
  0
VERTEX
  5
2A943
  8
BUHIN
  6
CONTINUOUS
 10
243.71740905232531
 20
224.68614909247319
 30
0.0
  0
VERTEX
  5
2A944
  8
BUHIN
  6
CONTINUOUS
 10
243.71819505232531
 20
232.11179109247331
 30
0.0
  0
VERTEX
  5
2A945
  8
BUHIN
  6
CONTINUOUS
 10
243.65662105232551
 20
243.30600309247319
 30
0.0
  0
VERTEX
  5
2A946
  8
BUHIN
  6
CONTINUOUS
 10
243.6511770523251
 20
248.9696450924732
 30
0.0
  0
SEQEND
  5
2A947
  8
BUHIN
  6
CONTINUOUS
  0
LINE
  5
29217
  8
BUHIN-3
  6
DASHDOT
 10
247.67701505232509
 20
568.37699161812316
 30
0.0
 11
247.67701505232509
 21
565.2645756181231
 31
0.0
  0
LINE
  5
2A1E1
  8
BUHIN-2
  6
CONTINUOUS
 10
479.92810947773739
 20
285.21174909247333
 30
0.0
 11
485.67842747773722
 21
266.34248109247329
 31
0.0
  0
LINE
  5
2A1E3
  8
BUHIN-2
  6
HIDDEN
 10
618.04122747773761
 20
286.77075109247329
 30
0.0
 11
608.04122747773749
 21
286.77075109247329
 31
0.0
  0
LINE
  5
2A1E4
  8
BUHIN-2
  6
HIDDEN
 10
618.04122747773761
 20
292.22611509247321
 30
0.0
 11
608.04122747773749
 21
292.22611509247321
 31
0.0
  0
LINE
  5
2A1E5
  8
BUHIN-2
  6
HIDDEN
 10
618.04122747773761
 20
367.88654109247318
 30
0.0
 11
608.04122747773749
 21
367.88654109247318
 31
0.0
  0
LINE
  5
2A1E6
  8
BUHIN-2
  6
HIDDEN
 10
618.04122747773761
 20
362.58654109247328
 30
0.0
 11
608.04122747773749
 21
362.58654109247328
 31
0.0
  0
POLYLINE
  5
2A1F7
  8
BUHIN-2
  6
CONTINUOUS
 66
     1
 10
0.0
 20
0.0
 30
0.0
  0
VERTEX
  5
2A948
  8
BUHIN-2
  6
CONTINUOUS
 10
515.02028947773749
 20
265.32224509247322
 30
0.0
  0
VERTEX
  5
2A949
  8
BUHIN-2
  6
CONTINUOUS
 10
515.29080547773754
 20
265.30595109247332
 30
0.0
  0
SEQEND
  5
2A94A
  8
BUHIN-2
  6
CONTINUOUS
  0
LINE
  5
2A1F9
  8
BUHIN-2
  6
CONTINUOUS
 10
544.67579347773733
 20
409.55672509247307
 30
0.0
 11
544.67579347773733
 21
247.50320909247321
 31
0.0
  0
LINE
  5
2A1FA
  8
BUHIN-2
  6
CONTINUOUS
 10
544.67579347773733
 20
247.50320909247321
 30
0.0
 11
542.04122747773749
 21
246.54430509247331
 31
0.0
  0
LINE
  5
2A1FB
  8
BUHIN-2
  6
CONTINUOUS
 10
542.04122747773749
 20
410.5156290924732
 30
0.0
 11
544.67579347773733
 21
409.55672509247307
 31
0.0
  0
LINE
  5
2A1FC
  8
BUHIN-2
  6
CONTINUOUS
 10
489.17942747773748
 20
382.9063250924732
 30
0.0
 11
489.17942747773748
 21
349.9063250924732
 31
0.0
  0
LINE
  5
2A1FD
  8
BUHIN-2
  6
HIDDEN
 10
544.67579347773733
 20
352.58405109247332
 30
0.0
 11
565.04122547773727
 21
352.4063250924732
 31
0.0
  0
LINE
  5
2A1FE
  8
BUHIN-2
  6
CONTINUOUS
 10
528.90910747773728
 20
382.09100509247332
 30
0.0
 11
525.71979147773743
 21
382.06317109247328
 31
0.0
  0
LINE
  5
2A1FF
  8
BUHIN-2
  6
HIDDEN
 10
568.54122547773727
 20
352.4063250924732
 30
0.0
 11
565.04122547773727
 21
352.4063250924732
 31
0.0
  0
LINE
  5
2A200
  8
BUHIN-2
  6
HIDDEN
 10
568.54122547773727
 20
382.4063250924732
 30
0.0
 11
565.04122547773727
 21
382.4063250924732
 31
0.0
  0
LINE
  5
2A201
  8
BUHIN-2
  6
HIDDEN
 10
565.04122547773727
 20
382.4063250924732
 30
0.0
 11
565.04122547773727
 21
352.4063250924732
 31
0.0
  0
LINE
  5
2A202
  8
BUHIN-2
  6
HIDDEN
 10
569.62494347773725
 20
300.90273309247328
 30
0.0
 11
569.61264947773748
 21
300.87123909247327
 31
0.0
  0
LINE
  5
2A203
  8
BUHIN-2
  6
CONTINUOUS
 10
529.16824947773716
 20
269.1563250924732
 30
0.0
 11
528.04122747773761
 21
269.1563250924732
 31
0.0
  0
ARC
  5
2A204
  8
BUHIN-2
  6
CONTINUOUS
 10
533.81491147773727
 20
245.00320909247321
 30
0.0
 40
2.5
 50
185.93427300000101
 51
270.0
  0
ARC
  5
2A205
  8
BUHIN-2
  6
CONTINUOUS
 10
533.81491147773727
 20
409.90632509247308
 30
0.0
 40
2.5
 50
90.0
 51
174.06572700000061
  0
ARC
  5
2A206
  8
BUHIN-2
  6
CONTINUOUS
 10
1327.041227477737
 20
327.45476709247328
 30
0.0
 40
800.0
 50
174.06572700000061
 51
185.93427300000101
  0
LINE
  5
2A207
  8
BUHIN-2
  6
DASHDOT
 10
544.67579347773733
 20
327.4063250924732
 30
0.0
 11
513.16751347773732
 21
327.4063250924732
 31
0.0
  0
LINE
  5
2A208
  8
BUHIN-2
  6
CONTINUOUS
 10
527.04122747773761
 20
332.34363709247327
 30
0.0
 11
527.04122747773761
 21
322.68850909247328
 31
0.0
  0
LINE
  5
2A209
  8
BUHIN-2
  6
CONTINUOUS
 10
542.04122747773749
 20
242.50320909247321
 30
0.0
 11
533.81491147773727
 21
242.50320909247321
 31
0.0
  0
LINE
  5
2A20A
  8
BUHIN-2
  6
CONTINUOUS
 10
542.04122747773749
 20
412.4063250924732
 30
0.0
 11
533.81491147773727
 21
412.4063250924732
 31
0.0
  0
LINE
  5
2A20B
  8
BUHIN-2
  6
CONTINUOUS
 10
542.04122747773749
 20
412.4063250924732
 30
0.0
 11
542.04122747773749
 21
242.50320909247321
 31
0.0
  0
LINE
  5
2A20E
  8
BUHIN-2
  6
DASHDOT
 10
602.38411547773728
 20
367.4063250924732
 30
0.0
 11
483.95025947773757
 21
367.4063250924732
 31
0.0
  0
ARC
  5
2A211
  8
BUHIN-2
  6
HIDDEN
 10
664.25540747773755
 20
326.56809309247319
 30
0.0
 40
78.835347999999996
 50
196.66510000000221
 51
197.26770099999919
  0
POLYLINE
  5
2A212
  8
BUHIN-2
  6
HIDDEN
 66
     1
 10
0.0
 20
0.0
 30
0.0
  0
VERTEX
  5
2A94B
  8
BUHIN-2
  6
HIDDEN
 10
607.58421947773718
 20
318.2708530924732
 30
0.0
  0
VERTEX
  5
2A94C
  8
BUHIN-2
  6
HIDDEN
 10
607.70542947773754
 20
318.24497909247327
 30
0.0
  0
VERTEX
  5
2A94D
  8
BUHIN-2
  6
HIDDEN
 10
607.81654947773745
 20
318.19008909247327
 30
0.0
  0
SEQEND
  5
2A94E
  8
BUHIN-2
  6
HIDDEN
  0
POLYLINE
  5
2A213
  8
BUHIN-2
  6
HIDDEN
 66
     1
 10
0.0
 20
0.0
 30
0.0
  0
VERTEX
  5
2A94F
  8
BUHIN-2
  6
HIDDEN
 10
607.98150347773742
 20
318.00972509247327
 30
0.0
  0
VERTEX
  5
2A950
  8
BUHIN-2
  6
HIDDEN
 10
608.02607747773743
 20
317.89492709247332
 30
0.0
  0
VERTEX
  5
2A951
  8
BUHIN-2
  6
HIDDEN
 10
608.04123347773725
 20
317.77271909247332
 30
0.0
  0
SEQEND
  5
2A952
  8
BUHIN-2
  6
HIDDEN
  0
LINE
  5
2A214
  8
BUHIN-2
  6
HIDDEN
 10
607.47520147773764
 20
318.28013309247319
 30
0.0
 11
607.58421747773752
 21
318.27084109247329
 31
0.0
  0
LINE
  5
2A215
  8
BUHIN-2
  6
HIDDEN
 10
607.81061547773731
 20
313.44422309247329
 30
0.0
 11
607.60050747773755
 21
313.38026909247333
 31
0.0
  0
LINE
  5
2A216
  8
BUHIN-2
  6
HIDDEN
 10
604.88143947773722
 20
313.2506150924732
 30
0.0
 11
604.8809174777374
 21
313.24860509247333
 31
0.0
  0
POLYLINE
  5
2A217
  8
BUHIN-2
  6
HIDDEN
 66
     1
 10
0.0
 20
0.0
 30
0.0
  0
VERTEX
  5
2A953
  8
BUHIN-2
  6
HIDDEN
 10
607.60050747773755
 20
313.38026909247333
 30
0.0
  0
VERTEX
  5
2A954
  8
BUHIN-2
  6
HIDDEN
 10
607.29127347773715
 20
313.27570509247329
 30
0.0
  0
VERTEX
  5
2A955
  8
BUHIN-2
  6
HIDDEN
 10
606.96361947773755
 20
313.19492509247328
 30
0.0
  0
VERTEX
  5
2A956
  8
BUHIN-2
  6
HIDDEN
 10
606.6221934777376
 20
313.13907309247332
 30
0.0
  0
VERTEX
  5
2A957
  8
BUHIN-2
  6
HIDDEN
 10
606.27183747773722
 20
313.10894109247317
 30
0.0
  0
VERTEX
  5
2A958
  8
BUHIN-2
  6
HIDDEN
 10
605.9175214777373
 20
313.10495709247328
 30
0.0
  0
VERTEX
  5
2A959
  8
BUHIN-2
  6
HIDDEN
 10
605.56427147773763
 20
313.12717709247318
 30
0.0
  0
VERTEX
  5
2A95A
  8
BUHIN-2
  6
HIDDEN
 10
605.21709347773765
 20
313.1752870924733
 30
0.0
  0
VERTEX
  5
2A95B
  8
BUHIN-2
  6
HIDDEN
 10
604.8809174777374
 20
313.24860509247333
 30
0.0
  0
SEQEND
  5
2A95C
  8
BUHIN-2
  6
HIDDEN
  0
LINE
  5
2A218
  8
BUHIN-2
  6
HIDDEN
 10
602.35724947773758
 20
338.12963309247328
 30
0.0
 11
602.35698347773757
 21
338.12958909247328
 31
0.0
  0
LINE
  5
2A219
  8
BUHIN-2
  6
HIDDEN
 10
602.42455347773728
 20
336.59154309247327
 30
0.0
 11
602.39761347773754
 21
336.48104909247331
 31
0.0
  0
POLYLINE
  5
2A21A
  8
BUHIN-2
  6
HIDDEN
 66
     1
 10
0.0
 20
0.0
 30
0.0
  0
VERTEX
  5
2A95D
  8
BUHIN-2
  6
HIDDEN
 10
602.35724947773758
 20
338.12963309247328
 30
0.0
  0
VERTEX
  5
2A95E
  8
BUHIN-2
  6
HIDDEN
 10
602.42348547773724
 20
337.66076309247319
 30
0.0
  0
VERTEX
  5
2A95F
  8
BUHIN-2
  6
HIDDEN
 10
602.45725347773748
 20
337.24058709247328
 30
0.0
  0
VERTEX
  5
2A960
  8
BUHIN-2
  6
HIDDEN
 10
602.45761347773737
 20
336.88083509247321
 30
0.0
  0
VERTEX
  5
2A961
  8
BUHIN-2
  6
HIDDEN
 10
602.42455347773728
 20
336.59154309247327
 30
0.0
  0
SEQEND
  5
2A962
  8
BUHIN-2
  6
HIDDEN
  0
ARC
  5
2A21B
  8
BUHIN-2
  6
HIDDEN
 10
587.84043347773718
 20
344.70966109247331
 30
0.0
 40
0.200814
 50
348.2101859999994
 51
359.57245100000119
  0
ARC
  5
2A21C
  8
BUHIN-2
  6
HIDDEN
 10
587.43504147773763
 20
344.70981309247321
 30
0.0
 40
0.6062020000000001
 50
351.0893529999999
 51
359.84399400000012
  0
ARC
  5
2A21D
  8
BUHIN-2
  6
HIDDEN
 10
587.56255947773741
 20
344.67050509247332
 30
0.0
 40
0.4745100000000001
 50
357.14771599999972
 51
359.77396900000059
  0
LINE
  5
2A21E
  8
BUHIN-2
  6
HIDDEN
 10
607.97987547773744
 20
318.02773109247329
 30
0.0
 11
607.98150547773764
 21
318.00972709247333
 31
0.0
  0
LINE
  5
2A21F
  8
BUHIN-2
  6
HIDDEN
 10
607.97987547773744
 20
318.02773109247329
 30
0.0
 11
608.04122747773749
 21
317.77271909247332
 31
0.0
  0
ARC
  5
2A220
  8
BUHIN-2
  6
HIDDEN
 10
620.38092147773739
 20
328.10927309247319
 30
0.0
 40
12.352312
 50
178.46817899999971
 51
182.06172299999969
  0
LINE
  5
2A221
  8
BUHIN-2
  6
HIDDEN
 10
607.68945547773762
 20
342.14208109247329
 30
0.0
 11
607.82868547773739
 21
341.6630610924733
 31
0.0
  0
LINE
  5
2A222
  8
BUHIN-2
  6
HIDDEN
 10
607.76104347773742
 20
345.40168309247332
 30
0.0
 11
607.67726147773726
 21
345.01314709247328
 31
0.0
  0
POLYLINE
  5
2A223
  8
BUHIN-2
  6
HIDDEN
 66
     1
 10
0.0
 20
0.0
 30
0.0
  0
VERTEX
  5
2A963
  8
BUHIN-2
  6
HIDDEN
 10
607.67726147773726
 20
345.01314709247328
 30
0.0
  0
VERTEX
  5
2A964
  8
BUHIN-2
  6
HIDDEN
 10
607.55933547773736
 20
344.19895909247327
 30
0.0
  0
VERTEX
  5
2A965
  8
BUHIN-2
  6
HIDDEN
 10
607.52568547773751
 20
343.45827909247322
 30
0.0
  0
VERTEX
  5
2A966
  8
BUHIN-2
  6
HIDDEN
 10
607.53840947773722
 20
343.11083509247322
 30
0.0
  0
VERTEX
  5
2A967
  8
BUHIN-2
  6
HIDDEN
 10
607.57012547773763
 20
342.7765570924733
 30
0.0
  0
VERTEX
  5
2A968
  8
BUHIN-2
  6
HIDDEN
 10
607.62052547773715
 20
342.45405909247319
 30
0.0
  0
VERTEX
  5
2A969
  8
BUHIN-2
  6
HIDDEN
 10
607.68945547773762
 20
342.14208109247329
 30
0.0
  0
SEQEND
  5
2A96A
  8
BUHIN-2
  6
HIDDEN
  0
POLYLINE
  5
2A224
  8
BUHIN-2
  6
HIDDEN
 66
     1
 10
0.0
 20
0.0
 30
0.0
  0
VERTEX
  5
2A96B
  8
BUHIN-2
  6
HIDDEN
 10
607.76085947773743
 20
345.40173509247319
 30
0.0
  0
VERTEX
  5
2A96C
  8
BUHIN-2
  6
HIDDEN
 10
608.13390747773735
 20
346.89458909247332
 30
0.0
  0
VERTEX
  5
2A96D
  8
BUHIN-2
  6
HIDDEN
 10
608.22520947773762
 20
347.33067109247321
 30
0.0
  0
VERTEX
  5
2A96E
  8
BUHIN-2
  6
HIDDEN
 10
608.26599547773765
 20
347.65636509247332
 30
0.0
  0
VERTEX
  5
2A96F
  8
BUHIN-2
  6
HIDDEN
 10
608.26882747773732
 20
347.96893109247333
 30
0.0
  0
VERTEX
  5
2A970
  8
BUHIN-2
  6
HIDDEN
 10
608.21983347773755
 20
348.38269909247327
 30
0.0
  0
VERTEX
  5
2A971
  8
BUHIN-2
  6
HIDDEN
 10
607.85874547773744
 20
349.91729109247331
 30
0.0
  0
SEQEND
  5
2A972
  8
BUHIN-2
  6
HIDDEN
  0
POLYLINE
  5
2A225
  8
BUHIN-2
  6
HIDDEN
 66
     1
 10
0.0
 20
0.0
 30
0.0
  0
VERTEX
  5
2A973
  8
BUHIN-2
  6
HIDDEN
 10
607.69621547773738
 20
353.15532909247321
 30
0.0
  0
VERTEX
  5
2A974
  8
BUHIN-2
  6
HIDDEN
 10
607.60692947773748
 20
352.65186909247331
 30
0.0
  0
VERTEX
  5
2A975
  8
BUHIN-2
  6
HIDDEN
 10
607.5693274777376
 20
352.12589509247329
 30
0.0
  0
VERTEX
  5
2A976
  8
BUHIN-2
  6
HIDDEN
 10
607.59096347773755
 20
351.5142170924733
 30
0.0
  0
VERTEX
  5
2A977
  8
BUHIN-2
  6
HIDDEN
 10
607.66429947773736
 20
350.90759509247329
 30
0.0
  0
VERTEX
  5
2A978
  8
BUHIN-2
  6
HIDDEN
 10
607.81884947773767
 20
350.09979909247318
 30
0.0
  0
VERTEX
  5
2A979
  8
BUHIN-2
  6
HIDDEN
 10
607.85884347773731
 20
349.91733509247331
 30
0.0
  0
SEQEND
  5
2A97A
  8
BUHIN-2
  6
HIDDEN
  0
POLYLINE
  5
2A226
  8
BUHIN-2
  6
HIDDEN
 66
     1
 10
0.0
 20
0.0
 30
0.0
  0
VERTEX
  5
2A97B
  8
BUHIN-2
  6
HIDDEN
 10
607.06078147773758
 20
294.91415309247321
 30
0.0
  0
VERTEX
  5
2A97C
  8
BUHIN-2
  6
HIDDEN
 10
607.27443547773726
 20
294.76823909247321
 30
0.0
  0
VERTEX
  5
2A97D
  8
BUHIN-2
  6
HIDDEN
 10
607.46743747773723
 20
294.59598509247331
 30
0.0
  0
VERTEX
  5
2A97E
  8
BUHIN-2
  6
HIDDEN
 10
607.63655947773736
 20
294.4002730924733
 30
0.0
  0
VERTEX
  5
2A97F
  8
BUHIN-2
  6
HIDDEN
 10
607.77896747773764
 20
294.1843830924733
 30
0.0
  0
VERTEX
  5
2A980
  8
BUHIN-2
  6
HIDDEN
 10
607.89227747773737
 20
293.95193109247327
 30
0.0
  0
VERTEX
  5
2A981
  8
BUHIN-2
  6
HIDDEN
 10
607.97459147773759
 20
293.70680509247319
 30
0.0
  0
VERTEX
  5
2A982
  8
BUHIN-2
  6
HIDDEN
 10
608.02453347773724
 20
293.4531130924733
 30
0.0
  0
VERTEX
  5
2A983
  8
BUHIN-2
  6
HIDDEN
 10
608.04126547773717
 20
293.19510309247329
 30
0.0
  0
SEQEND
  5
2A984
  8
BUHIN-2
  6
HIDDEN
  0
ARC
  5
2A227
  8
BUHIN-2
  6
HIDDEN
 10
606.03616147773744
 20
293.1975510924733
 30
0.0
 40
2.0050659999999989
 50
19.597909999999199
 51
20.443783999999301
  0
POLYLINE
  5
2A228
  8
BUHIN-2
  6
HIDDEN
 66
     1
 10
0.0
 20
0.0
 30
0.0
  0
VERTEX
  5
2A985
  8
BUHIN-2
  6
HIDDEN
 10
607.07092747773765
 20
294.90585309247319
 30
0.0
  0
VERTEX
  5
2A986
  8
BUHIN-2
  6
HIDDEN
 10
607.0419234777371
 20
294.92240909247329
 30
0.0
  0
SEQEND
  5
2A987
  8
BUHIN-2
  6
HIDDEN
  0
ARC
  5
2A229
  8
BUHIN-2
  6
HIDDEN
 10
588.75226547773752
 20
303.88989709247329
 30
0.0
 40
0.1
 50
129.0020479999975
 51
164.65182300000211
  0
POLYLINE
  5
2A22A
  8
BUHIN-2
  6
HIDDEN
 66
     1
 10
0.0
 20
0.0
 30
0.0
  0
VERTEX
  5
2A988
  8
BUHIN-2
  6
HIDDEN
 10
593.01179147773735
 20
314.91038109247319
 30
0.0
  0
VERTEX
  5
2A989
  8
BUHIN-2
  6
HIDDEN
 10
592.53121547773731
 20
314.14907709247331
 30
0.0
  0
VERTEX
  5
2A98A
  8
BUHIN-2
  6
HIDDEN
 10
592.23025347773762
 20
313.63421309247332
 30
0.0
  0
SEQEND
  5
2A98B
  8
BUHIN-2
  6
HIDDEN
  0
POLYLINE
  5
2A22B
  8
BUHIN-2
  6
HIDDEN
 66
     1
 10
0.0
 20
0.0
 30
0.0
  0
VERTEX
  5
2A98C
  8
BUHIN-2
  6
HIDDEN
 10
590.94648147773739
 20
310.95344909247319
 30
0.0
  0
VERTEX
  5
2A98D
  8
BUHIN-2
  6
HIDDEN
 10
591.34706547773726
 20
311.87396509247333
 30
0.0
  0
VERTEX
  5
2A98E
  8
BUHIN-2
  6
HIDDEN
 10
591.94852147773724
 20
313.10907109247319
 30
0.0
  0
VERTEX
  5
2A98F
  8
BUHIN-2
  6
HIDDEN
 10
592.27363147773735
 20
313.70824709247319
 30
0.0
  0
SEQEND
  5
2A990
  8
BUHIN-2
  6
HIDDEN
  0
POLYLINE
  5
2A22C
  8
BUHIN-2
  6
HIDDEN
 66
     1
 10
0.0
 20
0.0
 30
0.0
  0
VERTEX
  5
2A991
  8
BUHIN-2
  6
HIDDEN
 10
589.69601747773766
 20
307.5119230924733
 30
0.0
  0
VERTEX
  5
2A992
  8
BUHIN-2
  6
HIDDEN
 10
589.70418347773727
 20
307.53748909247332
 30
0.0
  0
SEQEND
  5
2A993
  8
BUHIN-2
  6
HIDDEN
  0
POLYLINE
  5
2A22D
  8
BUHIN-2
  6
HIDDEN
 66
     1
 10
0.0
 20
0.0
 30
0.0
  0
VERTEX
  5
2A994
  8
BUHIN-2
  6
HIDDEN
 10
586.38035347773734
 20
296.07810909247331
 30
0.0
  0
VERTEX
  5
2A995
  8
BUHIN-2
  6
HIDDEN
 10
586.80966147773722
 20
297.32330709247333
 30
0.0
  0
VERTEX
  5
2A996
  8
BUHIN-2
  6
HIDDEN
 10
587.00600147773707
 20
297.93757509247331
 30
0.0
  0
SEQEND
  5
2A997
  8
BUHIN-2
  6
HIDDEN
  0
POLYLINE
  5
2A22E
  8
BUHIN-2
  6
HIDDEN
 66
     1
 10
0.0
 20
0.0
 30
0.0
  0
VERTEX
  5
2A998
  8
BUHIN-2
  6
HIDDEN
 10
587.54640947773748
 20
299.77084709247328
 30
0.0
  0
VERTEX
  5
2A999
  8
BUHIN-2
  6
HIDDEN
 10
588.7832034777374
 20
304.38795309247331
 30
0.0
  0
VERTEX
  5
2A99A
  8
BUHIN-2
  6
HIDDEN
 10
589.08053347773728
 20
305.45992909247332
 30
0.0
  0
SEQEND
  5
2A99B
  8
BUHIN-2
  6
HIDDEN
  0
POLYLINE
  5
2A22F
  8
BUHIN-2
  6
HIDDEN
 66
     1
 10
0.0
 20
0.0
 30
0.0
  0
VERTEX
  5
2A99C
  8
BUHIN-2
  6
HIDDEN
 10
583.71007147773742
 20
290.57339309247328
 30
0.0
  0
VERTEX
  5
2A99D
  8
BUHIN-2
  6
HIDDEN
 10
584.25456147773764
 20
291.46615709247322
 30
0.0
  0
VERTEX
  5
2A99E
  8
BUHIN-2
  6
HIDDEN
 10
584.75393947773762
 20
292.36837909247328
 30
0.0
  0
VERTEX
  5
2A99F
  8
BUHIN-2
  6
HIDDEN
 10
585.21177347773744
 20
293.27912709247329
 30
0.0
  0
VERTEX
  5
2A9A0
  8
BUHIN-2
  6
HIDDEN
 10
585.52931747773744
 20
293.96584509247327
 30
0.0
  0
SEQEND
  5
2A9A1
  8
BUHIN-2
  6
HIDDEN
  0
POLYLINE
  5
2A230
  8
BUHIN-2
  6
HIDDEN
 66
     1
 10
0.0
 20
0.0
 30
0.0
  0
VERTEX
  5
2A9A2
  8
BUHIN-2
  6
HIDDEN
 10
582.62839747773739
 20
289.0246590924732
 30
0.0
  0
VERTEX
  5
2A9A3
  8
BUHIN-2
  6
HIDDEN
 10
583.13323747773745
 20
289.7143670924732
 30
0.0
  0
VERTEX
  5
2A9A4
  8
BUHIN-2
  6
HIDDEN
 10
583.71444547773751
 20
290.58022909247319
 30
0.0
  0
VERTEX
  5
2A9A5
  8
BUHIN-2
  6
HIDDEN
 10
584.25456147773764
 20
291.46615709247322
 30
0.0
  0
VERTEX
  5
2A9A6
  8
BUHIN-2
  6
HIDDEN
 10
584.75393947773762
 20
292.36837909247328
 30
0.0
  0
VERTEX
  5
2A9A7
  8
BUHIN-2
  6
HIDDEN
 10
585.33020947773764
 20
293.52959309247319
 30
0.0
  0
VERTEX
  5
2A9A8
  8
BUHIN-2
  6
HIDDEN
 10
585.65031547773731
 20
294.2407530924732
 30
0.0
  0
VERTEX
  5
2A9A9
  8
BUHIN-2
  6
HIDDEN
 10
586.23203947773743
 20
295.67787109247331
 30
0.0
  0
VERTEX
  5
2A9AA
  8
BUHIN-2
  6
HIDDEN
 10
586.75140547773742
 20
297.14652909247332
 30
0.0
  0
VERTEX
  5
2A9AB
  8
BUHIN-2
  6
HIDDEN
 10
587.21859947773714
 20
298.6346470924733
 30
0.0
  0
VERTEX
  5
2A9AC
  8
BUHIN-2
  6
HIDDEN
 10
587.81935347773731
 20
300.76461709247332
 30
0.0
  0
VERTEX
  5
2A9AD
  8
BUHIN-2
  6
HIDDEN
 10
588.7832034777374
 20
304.38795309247331
 30
0.0
  0
VERTEX
  5
2A9AE
  8
BUHIN-2
  6
HIDDEN
 10
589.28017547773732
 20
306.15190909247332
 30
0.0
  0
VERTEX
  5
2A9AF
  8
BUHIN-2
  6
HIDDEN
 10
589.72376547773763
 20
307.59861509247332
 30
0.0
  0
VERTEX
  5
2A9B0
  8
BUHIN-2
  6
HIDDEN
 10
590.15794747773759
 20
308.89121109247333
 30
0.0
  0
SEQEND
  5
2A9B1
  8
BUHIN-2
  6
HIDDEN
  0
POLYLINE
  5
2A231
  8
BUHIN-2
  6
HIDDEN
 66
     1
 10
0.0
 20
0.0
 30
0.0
  0
VERTEX
  5
2A9B2
  8
BUHIN-2
  6
HIDDEN
 10
586.38033147773717
 20
296.07811709247329
 30
0.0
  0
VERTEX
  5
2A9B3
  8
BUHIN-2
  6
HIDDEN
 10
585.76452747773726
 20
294.51616509247327
 30
0.0
  0
VERTEX
  5
2A9B4
  8
BUHIN-2
  6
HIDDEN
 10
585.52931147773722
 20
293.96584909247332
 30
0.0
  0
SEQEND
  5
2A9B5
  8
BUHIN-2
  6
HIDDEN
  0
LINE
  5
2A232
  8
BUHIN-2
  6
HIDDEN
 10
590.42451147773761
 20
309.62837709247327
 30
0.0
 11
590.38215747773745
 21
309.51414909247319
 31
0.0
  0
LINE
  5
2A233
  8
BUHIN-2
  6
HIDDEN
 10
583.7099914777375
 20
290.57344309247333
 30
0.0
 11
583.57576747773714
 21
290.37028509247318
 31
0.0
  0
LINE
  5
2A234
  8
BUHIN-2
  6
HIDDEN
 10
590.38215747773745
 20
309.51414909247319
 30
0.0
 11
589.62094747773733
 21
307.29471509247333
 31
0.0
  0
LINE
  5
2A235
  8
BUHIN-2
  6
HIDDEN
 10
583.57576747773714
 20
290.37028509247318
 30
0.0
 11
582.98217947773753
 21
289.50231709247328
 31
0.0
  0
LINE
  5
2A236
  8
BUHIN-2
  6
HIDDEN
 10
608.54122747773749
 20
368.94044109247329
 30
0.0
 11
608.54122747773749
 21
368.59492109247333
 31
0.0
  0
LINE
  5
2A237
  8
BUHIN-2
  6
HIDDEN
 10
608.04122747773749
 20
368.8894810924732
 30
0.0
 11
608.04122747773749
 21
365.2365410924732
 31
0.0
  0
LINE
  5
2A238
  8
BUHIN-2
  6
HIDDEN
 10
608.04122747773749
 20
365.2365410924732
 30
0.0
 11
608.04122747773749
 21
361.82248309247331
 31
0.0
  0
POLYLINE
  5
2A239
  8
BUHIN-2
  6
HIDDEN
 66
     1
 10
0.0
 20
0.0
 30
0.0
  0
VERTEX
  5
2A9B6
  8
BUHIN-2
  6
HIDDEN
 10
608.05259947773754
 20
362.32997109247327
 30
0.0
  0
VERTEX
  5
2A9B7
  8
BUHIN-2
  6
HIDDEN
 10
608.04122747773749
 20
361.82248309247331
 30
0.0
  0
SEQEND
  5
2A9B8
  8
BUHIN-2
  6
HIDDEN
  0
POLYLINE
  5
2A23A
  8
BUHIN-2
  6
HIDDEN
 66
     1
 10
0.0
 20
0.0
 30
0.0
  0
VERTEX
  5
2A9B9
  8
BUHIN-2
  6
HIDDEN
 10
608.54122747773749
 20
368.94105909247332
 30
0.0
  0
VERTEX
  5
2A9BA
  8
BUHIN-2
  6
HIDDEN
 10
608.35034147773717
 20
369.88872709247329
 30
0.0
  0
VERTEX
  5
2A9BB
  8
BUHIN-2
  6
HIDDEN
 10
608.26404547773734
 20
370.16306709247323
 30
0.0
  0
VERTEX
  5
2A9BC
  8
BUHIN-2
  6
HIDDEN
 10
608.22068347773745
 20
370.2279710924733
 30
0.0
  0
VERTEX
  5
2A9BD
  8
BUHIN-2
  6
HIDDEN
 10
608.18104147773715
 20
370.22914709247328
 30
0.0
  0
VERTEX
  5
2A9BE
  8
BUHIN-2
  6
HIDDEN
 10
608.14550547773729
 20
370.16656709247331
 30
0.0
  0
VERTEX
  5
2A9BF
  8
BUHIN-2
  6
HIDDEN
 10
608.08836347773718
 20
369.85385509247322
 30
0.0
  0
VERTEX
  5
2A9C0
  8
BUHIN-2
  6
HIDDEN
 10
608.05258547773735
 20
369.30494109247331
 30
0.0
  0
SEQEND
  5
2A9C1
  8
BUHIN-2
  6
HIDDEN
  0
POLYLINE
  5
2A23B
  8
BUHIN-2
  6
HIDDEN
 66
     1
 10
0.0
 20
0.0
 30
0.0
  0
VERTEX
  5
2A9C2
  8
BUHIN-2
  6
HIDDEN
 10
608.19960547773724
 20
365.2365410924732
 30
0.0
  0
VERTEX
  5
2A9C3
  8
BUHIN-2
  6
HIDDEN
 10
608.10719947773737
 20
363.71126709247329
 30
0.0
  0
VERTEX
  5
2A9C4
  8
BUHIN-2
  6
HIDDEN
 10
608.05258347773747
 20
362.32997109247327
 30
0.0
  0
SEQEND
  5
2A9C5
  8
BUHIN-2
  6
HIDDEN
  0
POLYLINE
  5
2A23C
  8
BUHIN-2
  6
HIDDEN
 66
     1
 10
0.0
 20
0.0
 30
0.0
  0
VERTEX
  5
2A9C6
  8
BUHIN-2
  6
HIDDEN
 10
608.54122747773749
 20
368.5945950924733
 30
0.0
  0
VERTEX
  5
2A9C7
  8
BUHIN-2
  6
HIDDEN
 10
608.4692634777374
 20
368.17342509247322
 30
0.0
  0
VERTEX
  5
2A9C8
  8
BUHIN-2
  6
HIDDEN
 10
608.31467747773729
 20
366.6849690924733
 30
0.0
  0
VERTEX
  5
2A9C9
  8
BUHIN-2
  6
HIDDEN
 10
608.19960547773724
 20
365.2365410924732
 30
0.0
  0
SEQEND
  5
2A9CA
  8
BUHIN-2
  6
HIDDEN
  0
POLYLINE
  5
2A23D
  8
BUHIN-2
  6
HIDDEN
 66
     1
 10
0.0
 20
0.0
 30
0.0
  0
VERTEX
  5
2A9CB
  8
BUHIN-2
  6
HIDDEN
 10
608.04122747773749
 20
368.8894810924732
 30
0.0
  0
VERTEX
  5
2A9CC
  8
BUHIN-2
  6
HIDDEN
 10
608.0526014777372
 20
369.3049250924733
 30
0.0
  0
SEQEND
  5
2A9CD
  8
BUHIN-2
  6
HIDDEN
  0
POLYLINE
  5
2A23E
  8
BUHIN-2
  6
HIDDEN
 66
     1
 10
0.0
 20
0.0
 30
0.0
  0
VERTEX
  5
2A9CE
  8
BUHIN-2
  6
HIDDEN
 10
571.86458547773725
 20
309.84691109247331
 30
0.0
  0
VERTEX
  5
2A9CF
  8
BUHIN-2
  6
HIDDEN
 10
571.86458547773725
 20
309.84691109247331
 30
0.0
  0
SEQEND
  5
2A9D0
  8
BUHIN-2
  6
HIDDEN
  0
POLYLINE
  5
2A23F
  8
BUHIN-2
  6
HIDDEN
 66
     1
 10
0.0
 20
0.0
 30
0.0
  0
VERTEX
  5
2A9D1
  8
BUHIN-2
  6
HIDDEN
 10
574.57045147773749
 20
318.67415709247319
 30
0.0
  0
VERTEX
  5
2A9D2
  8
BUHIN-2
  6
HIDDEN
 10
574.54164347773735
 20
318.60187709247327
 30
0.0
  0
SEQEND
  5
2A9D3
  8
BUHIN-2
  6
HIDDEN
  0
POLYLINE
  5
2A240
  8
BUHIN-2
  6
HIDDEN
 66
     1
 10
0.0
 20
0.0
 30
0.0
  0
VERTEX
  5
2A9D4
  8
BUHIN-2
  6
HIDDEN
 10
571.94722147773734
 20
310.21403709247329
 30
0.0
  0
VERTEX
  5
2A9D5
  8
BUHIN-2
  6
HIDDEN
 10
571.96058747773736
 20
310.26921509247319
 30
0.0
  0
SEQEND
  5
2A9D6
  8
BUHIN-2
  6
HIDDEN
  0
LINE
  5
2A241
  8
BUHIN-2
  6
HIDDEN
 10
573.38676947773763
 20
315.38188909247327
 30
0.0
 11
573.26008947773732
 21
314.98486509247329
 31
0.0
  0
LINE
  5
2A242
  8
BUHIN-2
  6
HIDDEN
 10
572.6744614777374
 20
313.0087190924732
 30
0.0
 11
572.67117547773728
 21
312.99777309247321
 31
0.0
  0
LINE
  5
2A243
  8
BUHIN-2
  6
HIDDEN
 10
573.63895347773757
 20
316.1409250924732
 30
0.0
 11
573.58707947773735
 21
315.99029709247333
 31
0.0
  0
LINE
  5
2A244
  8
BUHIN-2
  6
HIDDEN
 10
571.97425347773731
 20
310.32163709247328
 30
0.0
 11
571.95292947773737
 21
310.23537109247332
 31
0.0
  0
LINE
  5
2A245
  8
BUHIN-2
  6
HIDDEN
 10
576.93532747773747
 20
323.64314909247332
 30
0.0
 11
576.91180347773741
 21
323.59943709247318
 31
0.0
  0
LINE
  5
2A246
  8
BUHIN-2
  6
HIDDEN
 10
576.93532747773747
 20
323.64314909247332
 30
0.0
 11
576.88955947773763
 21
323.56075309247319
 31
0.0
  0
LINE
  5
2A247
  8
BUHIN-2
  6
HIDDEN
 10
574.59606347773729
 20
318.73444909247331
 30
0.0
 11
574.57045147773749
 21
318.67415709247319
 31
0.0
  0
LINE
  5
2A248
  8
BUHIN-2
  6
HIDDEN
 10
575.33965147773722
 20
320.48492509247319
 30
0.0
 11
575.2736194777375
 21
320.32947909247332
 31
0.0
  0
LINE
  5
2A249
  8
BUHIN-2
  6
HIDDEN
 10
575.33965147773722
 20
320.48492509247319
 30
0.0
 11
575.27660347773724
 21
320.33631909247327
 31
0.0
  0
LINE
  5
2A24A
  8
BUHIN-2
  6
HIDDEN
 10
574.57382747773761
 20
318.67986109247329
 30
0.0
 11
574.55923747773727
 21
318.64546909247332
 31
0.0
  0
LINE
  5
2A24B
  8
BUHIN-2
  6
HIDDEN
 10
574.5591394777374
 20
318.64582509247327
 30
0.0
 11
574.5399134777374
 21
318.59462509247328
 31
0.0
  0
LINE
  5
2A24C
  8
BUHIN-2
  6
HIDDEN
 10
574.14828947773765
 20
317.56995509247332
 30
0.0
 11
574.05337347773764
 21
317.3214050924733
 31
0.0
  0
LINE
  5
2A24D
  8
BUHIN-2
  6
HIDDEN
 10
574.5591394777374
 20
318.64582509247327
 30
0.0
 11
574.52685147773752
 21
318.56127109247331
 31
0.0
  0
POLYLINE
  5
2A24E
  8
BUHIN-2
  6
HIDDEN
 66
     1
 10
0.0
 20
0.0
 30
0.0
  0
VERTEX
  5
2A9D7
  8
BUHIN-2
  6
HIDDEN
 10
569.56001147773736
 20
280.20827709247322
 30
0.0
  0
VERTEX
  5
2A9D8
  8
BUHIN-2
  6
HIDDEN
 10
570.01589547773744
 20
280.3524730924733
 30
0.0
  0
SEQEND
  5
2A9D9
  8
BUHIN-2
  6
HIDDEN
  0
POLYLINE
  5
2A24F
  8
BUHIN-2
  6
HIDDEN
 66
     1
 10
0.0
 20
0.0
 30
0.0
  0
VERTEX
  5
2A9DA
  8
BUHIN-2
  6
HIDDEN
 10
567.90211147773732
 20
279.75143309247329
 30
0.0
  0
VERTEX
  5
2A9DB
  8
BUHIN-2
  6
HIDDEN
 10
567.90211147773732
 20
279.75143309247329
 30
0.0
  0
SEQEND
  5
2A9DC
  8
BUHIN-2
  6
HIDDEN
  0
POLYLINE
  5
2A250
  8
BUHIN-2
  6
HIDDEN
 66
     1
 10
0.0
 20
0.0
 30
0.0
  0
VERTEX
  5
2A9DD
  8
BUHIN-2
  6
HIDDEN
 10
574.13149547773753
 20
282.05383909247331
 30
0.0
  0
VERTEX
  5
2A9DE
  8
BUHIN-2
  6
HIDDEN
 10
574.13149547773753
 20
282.05383909247331
 30
0.0
  0
SEQEND
  5
2A9DF
  8
BUHIN-2
  6
HIDDEN
  0
POLYLINE
  5
2A251
  8
BUHIN-2
  6
HIDDEN
 66
     1
 10
0.0
 20
0.0
 30
0.0
  0
VERTEX
  5
2A9E0
  8
BUHIN-2
  6
HIDDEN
 10
576.78497347773725
 20
283.59703309247328
 30
0.0
  0
VERTEX
  5
2A9E1
  8
BUHIN-2
  6
HIDDEN
 10
576.80838347773749
 20
283.61252709247327
 30
0.0
  0
SEQEND
  5
2A9E2
  8
BUHIN-2
  6
HIDDEN
  0
POLYLINE
  5
2A252
  8
BUHIN-2
  6
HIDDEN
 66
     1
 10
0.0
 20
0.0
 30
0.0
  0
VERTEX
  5
2A9E3
  8
BUHIN-2
  6
HIDDEN
 10
575.10129547773727
 20
282.57170509247322
 30
0.0
  0
VERTEX
  5
2A9E4
  8
BUHIN-2
  6
HIDDEN
 10
575.20307347773758
 20
282.6289750924733
 30
0.0
  0
SEQEND
  5
2A9E5
  8
BUHIN-2
  6
HIDDEN
  0
POLYLINE
  5
2A253
  8
BUHIN-2
  6
HIDDEN
 66
     1
 10
0.0
 20
0.0
 30
0.0
  0
VERTEX
  5
2A9E6
  8
BUHIN-2
  6
HIDDEN
 10
582.01400547773744
 20
288.25215909247328
 30
0.0
  0
VERTEX
  5
2A9E7
  8
BUHIN-2
  6
HIDDEN
 10
582.52924147773763
 20
288.89527509247318
 30
0.0
  0
SEQEND
  5
2A9E8
  8
BUHIN-2
  6
HIDDEN
  0
POLYLINE
  5
2A254
  8
BUHIN-2
  6
HIDDEN
 66
     1
 10
0.0
 20
0.0
 30
0.0
  0
VERTEX
  5
2A9E9
  8
BUHIN-2
  6
HIDDEN
 10
585.82098547773717
 20
294.6418750924733
 30
0.0
  0
VERTEX
  5
2A9EA
  8
BUHIN-2
  6
HIDDEN
 10
585.8935154777372
 20
294.8172830924733
 30
0.0
  0
SEQEND
  5
2A9EB
  8
BUHIN-2
  6
HIDDEN
  0
POLYLINE
  5
2A255
  8
BUHIN-2
  6
HIDDEN
 66
     1
 10
0.0
 20
0.0
 30
0.0
  0
VERTEX
  5
2A9EC
  8
BUHIN-2
  6
HIDDEN
 10
585.79901547773738
 20
294.58933309247328
 30
0.0
  0
VERTEX
  5
2A9ED
  8
BUHIN-2
  6
HIDDEN
 10
585.81758347773734
 20
294.63372309247319
 30
0.0
  0
SEQEND
  5
2A9EE
  8
BUHIN-2
  6
HIDDEN
  0
POLYLINE
  5
2A256
  8
BUHIN-2
  6
HIDDEN
 66
     1
 10
0.0
 20
0.0
 30
0.0
  0
VERTEX
  5
2A9EF
  8
BUHIN-2
  6
HIDDEN
 10
578.34305947773726
 20
284.71300309247317
 30
0.0
  0
VERTEX
  5
2A9F0
  8
BUHIN-2
  6
HIDDEN
 10
578.33927147773716
 20
284.7100670924732
 30
0.0
  0
SEQEND
  5
2A9F1
  8
BUHIN-2
  6
HIDDEN
  0
POLYLINE
  5
2A257
  8
BUHIN-2
  6
HIDDEN
 66
     1
 10
0.0
 20
0.0
 30
0.0
  0
VERTEX
  5
2A9F2
  8
BUHIN-2
  6
HIDDEN
 10
577.14271147773741
 20
283.83789709247333
 30
0.0
  0
VERTEX
  5
2A9F3
  8
BUHIN-2
  6
HIDDEN
 10
576.99584547773725
 20
283.73799509247323
 30
0.0
  0
SEQEND
  5
2A9F4
  8
BUHIN-2
  6
HIDDEN
  0
ARC
  5
2A258
  8
BUHIN-2
  6
HIDDEN
 10
550.99740947773739
 20
308.94922109247318
 30
0.0
 40
37.651232
 50
340.53361700000102
 51
340.61823000000049
  0
LINE
  5
2A259
  8
BUHIN-2
  6
HIDDEN
 10
585.89225347773743
 20
294.83165909247327
 30
0.0
 11
585.7990374777371
 21
294.58939309247319
 31
0.0
  0
LINE
  5
2A25A
  8
BUHIN-2
  6
HIDDEN
 10
585.91255947773732
 20
294.88443509247332
 30
0.0
 11
585.89225347773743
 21
294.83165909247327
 31
0.0
  0
LINE
  5
2A25B
  8
BUHIN-2
  6
HIDDEN
 10
586.08402947773754
 20
295.31926509247319
 30
0.0
 11
585.7990374777371
 21
294.58939309247319
 31
0.0
  0
LINE
  5
2A25C
  8
BUHIN-2
  6
HIDDEN
 10
585.89225347773743
 20
294.83165909247327
 30
0.0
 11
585.79759747773721
 21
294.58992709247332
 31
0.0
  0
LINE
  5
2A25D
  8
BUHIN-2
  6
HIDDEN
 10
585.7990374777371
 20
294.58939309247319
 30
0.0
 11
585.76637947773747
 21
294.51826309247332
 31
0.0
  0
LINE
  5
2A25E
  8
BUHIN-2
  6
HIDDEN
 10
584.37870747773729
 20
291.6824250924733
 30
0.0
 11
583.79940747773742
 21
290.7217270924732
 31
0.0
  0
LINE
  5
2A25F
  8
BUHIN-2
  6
HIDDEN
 10
585.7990374777371
 20
294.58939309247319
 30
0.0
 11
585.64744147773752
 21
294.23445709247329
 31
0.0
  0
LINE
  5
2A260
  8
BUHIN-2
  6
HIDDEN
 10
579.62157147773758
 20
285.7765110924733
 30
0.0
 11
579.07686147773745
 21
285.3051210924732
 31
0.0
  0
LINE
  5
2A261
  8
BUHIN-2
  6
HIDDEN
 10
569.50622147773754
 20
280.19180509247332
 30
0.0
 11
569.28243147773753
 21
280.12447909247328
 31
0.0
  0
LINE
  5
2A262
  8
BUHIN-2
  6
HIDDEN
 10
584.37870747773729
 20
291.6824250924733
 30
0.0
 11
583.71444547773751
 21
290.58022909247319
 31
0.0
  0
LINE
  5
2A263
  8
BUHIN-2
  6
HIDDEN
 10
576.9958794777375
 20
283.73794509247318
 30
0.0
 11
576.80838347773749
 21
283.61252909247332
 31
0.0
  0
LINE
  5
2A264
  8
BUHIN-2
  6
HIDDEN
 10
577.49049347773757
 20
284.08912109247319
 30
0.0
 11
577.21562747773737
 21
283.8879750924732
 31
0.0
  0
LINE
  5
2A265
  8
BUHIN-2
  6
HIDDEN
 10
574.13031347773745
 20
282.05323309247319
 30
0.0
 11
574.13002747773749
 21
282.05309709247319
 31
0.0
  0
LINE
  5
2A266
  8
BUHIN-2
  6
HIDDEN
 10
575.58899347773718
 20
282.8514370924733
 30
0.0
 11
575.20306947773747
 21
282.62898109247323
 31
0.0
  0
LINE
  5
2A267
  8
BUHIN-2
  6
HIDDEN
 10
572.62644547773732
 20
281.34348709247331
 30
0.0
 11
572.62222147773753
 21
281.34178909247328
 31
0.0
  0
LINE
  5
2A268
  8
BUHIN-2
  6
HIDDEN
 10
572.62644547773732
 20
281.34348709247331
 30
0.0
 11
572.47360947773757
 21
281.27731709247331
 31
0.0
  0
LINE
  5
2A269
  8
BUHIN-2
  6
HIDDEN
 10
586.24246147773715
 20
295.7210370924733
 30
0.0
 11
585.89351947773764
 21
294.81728109247331
 31
0.0
  0
LINE
  5
2A26A
  8
BUHIN-2
  6
HIDDEN
 10
574.13031347773745
 20
282.05323309247319
 30
0.0
 11
574.12990347773734
 21
282.05303509247329
 31
0.0
  0
LINE
  5
2A26B
  8
BUHIN-2
  6
HIDDEN
 10
578.34304747773729
 20
284.71301909247319
 30
0.0
 11
578.33864147773716
 21
284.70979309247321
 31
0.0
  0
LINE
  5
2A26C
  8
BUHIN-2
  6
HIDDEN
 10
568.38407747773761
 20
279.8715670924733
 30
0.0
 11
568.04122747773761
 21
279.78672309247332
 31
0.0
  0
LINE
  5
2A26D
  8
BUHIN-2
  6
HIDDEN
 10
579.07686147773745
 20
285.3051210924732
 30
0.0
 11
578.95128947773753
 21
285.20050709247329
 31
0.0
  0
LINE
  5
2A26E
  8
BUHIN-2
  6
HIDDEN
 10
578.95128947773753
 20
285.20050709247329
 30
0.0
 11
578.40817547773736
 21
284.7674330924732
 31
0.0
  0
LINE
  5
2A26F
  8
BUHIN-2
  6
HIDDEN
 10
577.2449694777373
 20
283.90944909247332
 30
0.0
 11
577.19642347773731
 21
283.87381709247319
 31
0.0
  0
LINE
  5
2A270
  8
BUHIN-2
  6
HIDDEN
 10
569.28243147773753
 20
280.12447909247328
 30
0.0
 11
568.38407747773761
 21
279.8715670924733
 31
0.0
  0
LINE
  5
2A271
  8
BUHIN-2
  6
HIDDEN
 10
577.19642347773731
 20
283.87381709247319
 30
0.0
 11
577.01245947773737
 21
283.7499430924733
 31
0.0
  0
LINE
  5
2A272
  8
BUHIN-2
  6
HIDDEN
 10
586.37897547773753
 20
296.07411109247329
 30
0.0
 11
586.33230147773725
 21
295.94563109247321
 31
0.0
  0
LINE
  5
2A273
  8
BUHIN-2
  6
HIDDEN
 10
586.33230147773725
 20
295.94563109247321
 30
0.0
 11
585.89351947773764
 21
294.81728109247331
 31
0.0
  0
POLYLINE
  5
2A274
  8
BUHIN-2
  6
HIDDEN
 66
     1
 10
0.0
 20
0.0
 30
0.0
  0
VERTEX
  5
2A9F5
  8
BUHIN-2
  6
HIDDEN
 10
606.41817947773757
 20
295.15719909247332
 30
0.0
  0
VERTEX
  5
2A9F6
  8
BUHIN-2
  6
HIDDEN
 10
604.99574347773739
 20
295.47630509247318
 30
0.0
  0
VERTEX
  5
2A9F7
  8
BUHIN-2
  6
HIDDEN
 10
604.52716147773742
 20
295.59480309247323
 30
0.0
  0
SEQEND
  5
2A9F8
  8
BUHIN-2
  6
HIDDEN
  0
POLYLINE
  5
2A275
  8
BUHIN-2
  6
HIDDEN
 66
     1
 10
0.0
 20
0.0
 30
0.0
  0
VERTEX
  5
2A9F9
  8
BUHIN-2
  6
HIDDEN
 10
588.81852547773758
 20
303.96479309247331
 30
0.0
  0
VERTEX
  5
2A9FA
  8
BUHIN-2
  6
HIDDEN
 10
589.36260947773724
 20
303.4919730924733
 30
0.0
  0
SEQEND
  5
2A9FB
  8
BUHIN-2
  6
HIDDEN
  0
POLYLINE
  5
2A276
  8
BUHIN-2
  6
HIDDEN
 66
     1
 10
0.0
 20
0.0
 30
0.0
  0
VERTEX
  5
2A9FC
  8
BUHIN-2
  6
HIDDEN
 10
573.04350747773731
 20
352.42094909247322
 30
0.0
  0
VERTEX
  5
2A9FD
  8
BUHIN-2
  6
HIDDEN
 10
573.04122747773761
 20
351.45636109247329
 30
0.0
  0
SEQEND
  5
2A9FE
  8
BUHIN-2
  6
HIDDEN
  0
POLYLINE
  5
2A277
  8
BUHIN-2
  6
HIDDEN
 66
     1
 10
0.0
 20
0.0
 30
0.0
  0
VERTEX
  5
2A9FF
  8
BUHIN-2
  6
HIDDEN
 10
597.13891747773755
 20
298.32301909247332
 30
0.0
  0
VERTEX
  5
2AA00
  8
BUHIN-2
  6
HIDDEN
 10
599.1806294777374
 20
297.40175509247319
 30
0.0
  0
VERTEX
  5
2AA01
  8
BUHIN-2
  6
HIDDEN
 10
600.33823747773727
 20
296.91364509247319
 30
0.0
  0
VERTEX
  5
2AA02
  8
BUHIN-2
  6
HIDDEN
 10
602.01332347773746
 20
296.3248650924732
 30
0.0
  0
VERTEX
  5
2AA03
  8
BUHIN-2
  6
HIDDEN
 10
603.56816947773746
 20
295.83240909247331
 30
0.0
  0
SEQEND
  5
2AA04
  8
BUHIN-2
  6
HIDDEN
  0
POLYLINE
  5
2A278
  8
BUHIN-2
  6
HIDDEN
 66
     1
 10
0.0
 20
0.0
 30
0.0
  0
VERTEX
  5
2AA05
  8
BUHIN-2
  6
HIDDEN
 10
593.63293547773753
 20
300.34511509247318
 30
0.0
  0
VERTEX
  5
2AA06
  8
BUHIN-2
  6
HIDDEN
 10
591.98340347773762
 20
301.44958709247328
 30
0.0
  0
VERTEX
  5
2AA07
  8
BUHIN-2
  6
HIDDEN
 10
591.29926747773732
 20
301.94936509247327
 30
0.0
  0
VERTEX
  5
2AA08
  8
BUHIN-2
  6
HIDDEN
 10
590.25183147773737
 20
302.78518509247328
 30
0.0
  0
VERTEX
  5
2AA09
  8
BUHIN-2
  6
HIDDEN
 10
588.82051547773733
 20
303.97646909247328
 30
0.0
  0
SEQEND
  5
2AA0A
  8
BUHIN-2
  6
HIDDEN
  0
LINE
  5
2A279
  8
BUHIN-2
  6
HIDDEN
 10
603.89143347773722
 20
295.75473109247321
 30
0.0
 11
604.52716347773764
 21
295.59480509247328
 31
0.0
  0
POLYLINE
  5
2A27A
  8
BUHIN-2
  6
HIDDEN
 66
     1
 10
0.0
 20
0.0
 30
0.0
  0
VERTEX
  5
2AA0B
  8
BUHIN-2
  6
HIDDEN
 10
576.11943547773751
 20
323.46700909247329
 30
0.0
  0
VERTEX
  5
2AA0C
  8
BUHIN-2
  6
HIDDEN
 10
575.65105947773725
 20
324.90781909247329
 30
0.0
  0
VERTEX
  5
2AA0D
  8
BUHIN-2
  6
HIDDEN
 10
575.26471947773723
 20
326.19654309247329
 30
0.0
  0
VERTEX
  5
2AA0E
  8
BUHIN-2
  6
HIDDEN
 10
574.67280147773749
 20
328.50036309247332
 30
0.0
  0
VERTEX
  5
2AA0F
  8
BUHIN-2
  6
HIDDEN
 10
574.41570347773757
 20
329.63852509247329
 30
0.0
  0
VERTEX
  5
2AA10
  8
BUHIN-2
  6
HIDDEN
 10
574.17710147773721
 20
330.80698109247328
 30
0.0
  0
VERTEX
  5
2AA11
  8
BUHIN-2
  6
HIDDEN
 10
573.96386347773739
 20
331.97356309247328
 30
0.0
  0
VERTEX
  5
2AA12
  8
BUHIN-2
  6
HIDDEN
 10
573.7745494777372
 20
333.13862509247332
 30
0.0
  0
VERTEX
  5
2AA13
  8
BUHIN-2
  6
HIDDEN
 10
573.53083747773758
 20
334.9042790924733
 30
0.0
  0
VERTEX
  5
2AA14
  8
BUHIN-2
  6
HIDDEN
 10
573.31122747773759
 20
336.95075309247318
 30
0.0
  0
VERTEX
  5
2AA15
  8
BUHIN-2
  6
HIDDEN
 10
573.18542147773746
 20
338.43852909247329
 30
0.0
  0
VERTEX
  5
2AA16
  8
BUHIN-2
  6
HIDDEN
 10
573.08979147773732
 20
339.93202509247322
 30
0.0
  0
VERTEX
  5
2AA17
  8
BUHIN-2
  6
HIDDEN
 10
573.02357947773748
 20
341.43077509247331
 30
0.0
  0
VERTEX
  5
2AA18
  8
BUHIN-2
  6
HIDDEN
 10
572.9860254777376
 20
342.93431509247318
 30
0.0
  0
VERTEX
  5
2AA19
  8
BUHIN-2
  6
HIDDEN
 10
572.97328747773724
 20
344.43960909247329
 30
0.0
  0
VERTEX
  5
2AA1A
  8
BUHIN-2
  6
HIDDEN
 10
573.0095174777374
 20
348.14180509247319
 30
0.0
  0
SEQEND
  5
2AA1B
  8
BUHIN-2
  6
HIDDEN
  0
POLYLINE
  5
2A27B
  8
BUHIN-2
  6
HIDDEN
 66
     1
 10
0.0
 20
0.0
 30
0.0
  0
VERTEX
  5
2AA1C
  8
BUHIN-2
  6
HIDDEN
 10
573.04085547773764
 20
351.6480390924732
 30
0.0
  0
VERTEX
  5
2AA1D
  8
BUHIN-2
  6
HIDDEN
 10
573.00233147773747
 20
347.55587509247329
 30
0.0
  0
SEQEND
  5
2AA1E
  8
BUHIN-2
  6
HIDDEN
  0
LINE
  5
2A27C
  8
BUHIN-2
  6
HIDDEN
 10
574.65941147773754
 20
328.52697109247327
 30
0.0
 11
575.21606347773718
 21
326.38019309247318
 31
0.0
  0
LINE
  5
2A27D
  8
BUHIN-2
  6
HIDDEN
 10
573.0295634777375
 20
350.0337830924733
 30
0.0
 11
573.01464347773742
 21
348.1641630924733
 31
0.0
  0
LINE
  5
2A27E
  8
BUHIN-2
  6
HIDDEN
 10
573.03845947773732
 20
351.14838309247318
 30
0.0
 11
573.02679747773743
 21
348.71566509247322
 31
0.0
  0
POLYLINE
  5
2A27F
  8
BUHIN-2
  6
HIDDEN
 66
     1
 10
0.0
 20
0.0
 30
0.0
  0
VERTEX
  5
2AA1F
  8
BUHIN-2
  6
HIDDEN
 10
573.04122747773761
 20
355.16551309247319
 30
0.0
  0
VERTEX
  5
2AA20
  8
BUHIN-2
  6
HIDDEN
 10
573.04350747773731
 20
352.42095309247333
 30
0.0
  0
SEQEND
  5
2AA21
  8
BUHIN-2
  6
HIDDEN
  0
LINE
  5
2A280
  8
BUHIN-2
  6
HIDDEN
 10
573.04122747773761
 20
356.21810709247319
 30
0.0
 11
573.04122747773761
 21
355.16551309247319
 31
0.0
  0
POLYLINE
  5
2A281
  8
BUHIN-2
  6
HIDDEN
 66
     1
 10
0.0
 20
0.0
 30
0.0
  0
VERTEX
  5
2AA22
  8
BUHIN-2
  6
HIDDEN
 10
597.28239547773762
 20
298.25187709247331
 30
0.0
  0
VERTEX
  5
2AA23
  8
BUHIN-2
  6
HIDDEN
 10
597.27575347773734
 20
298.25515909247332
 30
0.0
  0
SEQEND
  5
2AA24
  8
BUHIN-2
  6
HIDDEN
  0
POLYLINE
  5
2A282
  8
BUHIN-2
  6
HIDDEN
 66
     1
 10
0.0
 20
0.0
 30
0.0
  0
VERTEX
  5
2AA25
  8
BUHIN-2
  6
HIDDEN
 10
600.45788347773737
 20
296.86449109247332
 30
0.0
  0
VERTEX
  5
2AA26
  8
BUHIN-2
  6
HIDDEN
 10
600.43955547773726
 20
296.87149909247319
 30
0.0
  0
SEQEND
  5
2AA27
  8
BUHIN-2
  6
HIDDEN
  0
POLYLINE
  5
2A283
  8
BUHIN-2
  6
HIDDEN
 66
     1
 10
0.0
 20
0.0
 30
0.0
  0
VERTEX
  5
2AA28
  8
BUHIN-2
  6
HIDDEN
 10
593.61751147773725
 20
300.35531509247329
 30
0.0
  0
VERTEX
  5
2AA29
  8
BUHIN-2
  6
HIDDEN
 10
594.18073747773758
 20
299.97259909247327
 30
0.0
  0
VERTEX
  5
2AA2A
  8
BUHIN-2
  6
HIDDEN
 10
597.0875494777373
 20
298.35411309247331
 30
0.0
  0
VERTEX
  5
2AA2B
  8
BUHIN-2
  6
HIDDEN
 10
597.56664547773732
 20
298.12725309247332
 30
0.0
  0
SEQEND
  5
2AA2C
  8
BUHIN-2
  6
HIDDEN
  0
LINE
  5
2A284
  8
BUHIN-2
  6
HIDDEN
 10
603.56816947773746
 20
295.83240909247331
 30
0.0
 11
603.68364347773729
 21
295.80018509247333
 31
0.0
  0
LINE
  5
2A285
  8
BUHIN-2
  6
HIDDEN
 10
604.26684547773755
 20
295.64232709247318
 30
0.0
 11
606.43120347773754
 21
295.14442909247327
 31
0.0
  0
LINE
  5
2A286
  8
BUHIN-2
  6
HIDDEN
 10
591.34325947773755
 20
301.90756509247331
 30
0.0
 11
591.36267547773718
 21
301.89263709247331
 31
0.0
  0
LINE
  5
2A287
  8
BUHIN-2
  6
HIDDEN
 10
594.2469994777374
 20
299.93111109247332
 30
0.0
 11
595.43835347773745
 21
299.27039509247328
 31
0.0
  0
LINE
  5
2A288
  8
BUHIN-2
  6
HIDDEN
 10
591.38116747773745
 20
301.87842109247327
 30
0.0
 11
591.41845347773722
 21
301.85305309247332
 31
0.0
  0
LINE
  5
2A289
  8
BUHIN-2
  6
HIDDEN
 10
591.36267547773718
 20
301.89263709247331
 30
0.0
 11
591.38242947773756
 21
301.87916909247332
 31
0.0
  0
LINE
  5
2A28A
  8
BUHIN-2
  6
HIDDEN
 10
591.36267547773718
 20
301.89263709247331
 30
0.0
 11
591.38116747773745
 21
301.87842109247327
 31
0.0
  0
LINE
  5
2A28B
  8
BUHIN-2
  6
HIDDEN
 10
600.45790547773765
 20
296.86454709247329
 30
0.0
 11
600.54547347773757
 21
296.83562309247333
 31
0.0
  0
LINE
  5
2A28C
  8
BUHIN-2
  6
HIDDEN
 10
600.37048547773736
 20
296.89782109247329
 30
0.0
 11
600.45790547773765
 21
296.86454709247329
 31
0.0
  0
LINE
  5
2A28D
  8
BUHIN-2
  6
HIDDEN
 10
600.28025747773734
 20
296.93220309247329
 30
0.0
 11
600.37048547773736
 21
296.89782109247329
 31
0.0
  0
LINE
  5
2A28E
  8
BUHIN-2
  6
HIDDEN
 10
600.37048547773736
 20
296.89782109247329
 30
0.0
 11
600.41969947773737
 21
296.88142309247331
 31
0.0
  0
POLYLINE
  5
2A28F
  8
BUHIN-2
  6
HIDDEN
 66
     1
 10
0.0
 20
0.0
 30
0.0
  0
VERTEX
  5
2AA2D
  8
BUHIN-2
  6
HIDDEN
 10
570.52739747773717
 20
303.96593709247333
 30
0.0
  0
VERTEX
  5
2AA2E
  8
BUHIN-2
  6
HIDDEN
 10
570.24426347773749
 20
302.8499970924733
 30
0.0
  0
VERTEX
  5
2AA2F
  8
BUHIN-2
  6
HIDDEN
 10
569.9446274777373
 20
301.81892709247319
 30
0.0
  0
VERTEX
  5
2AA30
  8
BUHIN-2
  6
HIDDEN
 10
569.62494347773725
 20
300.90273309247328
 30
0.0
  0
SEQEND
  5
2AA31
  8
BUHIN-2
  6
HIDDEN
  0
POLYLINE
  5
2A290
  8
BUHIN-2
  6
HIDDEN
 66
     1
 10
0.0
 20
0.0
 30
0.0
  0
VERTEX
  5
2AA32
  8
BUHIN-2
  6
HIDDEN
 10
577.71579147773753
 20
324.95759709247318
 30
0.0
  0
VERTEX
  5
2AA33
  8
BUHIN-2
  6
HIDDEN
 10
577.5525254777375
 20
324.6931830924733
 30
0.0
  0
SEQEND
  5
2AA34
  8
BUHIN-2
  6
HIDDEN
  0
POLYLINE
  5
2A291
  8
BUHIN-2
  6
HIDDEN
 66
     1
 10
0.0
 20
0.0
 30
0.0
  0
VERTEX
  5
2AA35
  8
BUHIN-2
  6
HIDDEN
 10
581.6684214777373
 20
330.03951109247328
 30
0.0
  0
VERTEX
  5
2AA36
  8
BUHIN-2
  6
HIDDEN
 10
580.92404347773743
 20
329.24490309247329
 30
0.0
  0
VERTEX
  5
2AA37
  8
BUHIN-2
  6
HIDDEN
 10
580.2312734777372
 20
328.44592909247331
 30
0.0
  0
VERTEX
  5
2AA38
  8
BUHIN-2
  6
HIDDEN
 10
579.60158747773755
 20
327.66487109247328
 30
0.0
  0
VERTEX
  5
2AA39
  8
BUHIN-2
  6
HIDDEN
 10
578.88329547773753
 20
326.70357909247332
 30
0.0
  0
VERTEX
  5
2AA3A
  8
BUHIN-2
  6
HIDDEN
 10
578.38694947773763
 20
325.99094909247327
 30
0.0
  0
SEQEND
  5
2AA3B
  8
BUHIN-2
  6
HIDDEN
  0
POLYLINE
  5
2A292
  8
BUHIN-2
  6
HIDDEN
 66
     1
 10
0.0
 20
0.0
 30
0.0
  0
VERTEX
  5
2AA3C
  8
BUHIN-2
  6
HIDDEN
 10
586.76876547773725
 20
334.08337509247332
 30
0.0
  0
VERTEX
  5
2AA3D
  8
BUHIN-2
  6
HIDDEN
 10
585.85748347773722
 20
333.51225509247331
 30
0.0
  0
VERTEX
  5
2AA3E
  8
BUHIN-2
  6
HIDDEN
 10
585.21054747773746
 20
333.07122309247319
 30
0.0
  0
SEQEND
  5
2AA3F
  8
BUHIN-2
  6
HIDDEN
  0
POLYLINE
  5
2A293
  8
BUHIN-2
  6
HIDDEN
 66
     1
 10
0.0
 20
0.0
 30
0.0
  0
VERTEX
  5
2AA40
  8
BUHIN-2
  6
HIDDEN
 10
584.03945147773754
 20
332.19120909247317
 30
0.0
  0
VERTEX
  5
2AA41
  8
BUHIN-2
  6
HIDDEN
 10
583.22394547773763
 20
331.5110430924733
 30
0.0
  0
VERTEX
  5
2AA42
  8
BUHIN-2
  6
HIDDEN
 10
582.43136147773725
 20
330.79131909247332
 30
0.0
  0
VERTEX
  5
2AA43
  8
BUHIN-2
  6
HIDDEN
 10
582.20046547773734
 20
330.57015909247332
 30
0.0
  0
SEQEND
  5
2AA44
  8
BUHIN-2
  6
HIDDEN
  0
POLYLINE
  5
2A294
  8
BUHIN-2
  6
HIDDEN
 66
     1
 10
0.0
 20
0.0
 30
0.0
  0
VERTEX
  5
2AA45
  8
BUHIN-2
  6
HIDDEN
 10
586.97417147773717
 20
334.20442509247329
 30
0.0
  0
VERTEX
  5
2AA46
  8
BUHIN-2
  6
HIDDEN
 10
586.12810947773767
 20
333.68781109247328
 30
0.0
  0
VERTEX
  5
2AA47
  8
BUHIN-2
  6
HIDDEN
 10
585.32288947773736
 20
333.1500210924732
 30
0.0
  0
VERTEX
  5
2AA48
  8
BUHIN-2
  6
HIDDEN
 10
584.54571547773764
 20
332.5849350924733
 30
0.0
  0
VERTEX
  5
2AA49
  8
BUHIN-2
  6
HIDDEN
 10
583.72755347773762
 20
331.93790109247328
 30
0.0
  0
VERTEX
  5
2AA4A
  8
BUHIN-2
  6
HIDDEN
 10
582.93036747773726
 20
331.25148309247328
 30
0.0
  0
VERTEX
  5
2AA4B
  8
BUHIN-2
  6
HIDDEN
 10
582.10656947773748
 20
330.47867909247333
 30
0.0
  0
VERTEX
  5
2AA4C
  8
BUHIN-2
  6
HIDDEN
 10
581.41495747773729
 20
329.77599709247318
 30
0.0
  0
VERTEX
  5
2AA4D
  8
BUHIN-2
  6
HIDDEN
 10
580.68391747773728
 20
328.9747490924733
 30
0.0
  0
VERTEX
  5
2AA4E
  8
BUHIN-2
  6
HIDDEN
 10
580.01827747773746
 20
328.18783309247328
 30
0.0
  0
VERTEX
  5
2AA4F
  8
BUHIN-2
  6
HIDDEN
 10
579.3863274777375
 20
327.3849630924733
 30
0.0
  0
VERTEX
  5
2AA50
  8
BUHIN-2
  6
HIDDEN
 10
578.72001947773731
 20
326.47377309247321
 30
0.0
  0
VERTEX
  5
2AA51
  8
BUHIN-2
  6
HIDDEN
 10
578.06285547773757
 20
325.5024190924733
 30
0.0
  0
VERTEX
  5
2AA52
  8
BUHIN-2
  6
HIDDEN
 10
577.35874747773721
 20
324.3723490924732
 30
0.0
  0
VERTEX
  5
2AA53
  8
BUHIN-2
  6
HIDDEN
 10
576.66719547773744
 20
323.16008909247319
 30
0.0
  0
VERTEX
  5
2AA54
  8
BUHIN-2
  6
HIDDEN
 10
576.21570947773751
 20
322.30603309247323
 30
0.0
  0
VERTEX
  5
2AA55
  8
BUHIN-2
  6
HIDDEN
 10
575.66436347773731
 20
321.18695309247329
 30
0.0
  0
VERTEX
  5
2AA56
  8
BUHIN-2
  6
HIDDEN
 10
575.15036947773729
 20
320.05955109247333
 30
0.0
  0
VERTEX
  5
2AA57
  8
BUHIN-2
  6
HIDDEN
 10
574.68398947773755
 20
318.95570109247319
 30
0.0
  0
VERTEX
  5
2AA58
  8
BUHIN-2
  6
HIDDEN
 10
574.2606034777375
 20
317.87801509247328
 30
0.0
  0
VERTEX
  5
2AA59
  8
BUHIN-2
  6
HIDDEN
 10
573.73678347773716
 20
316.43020509247327
 30
0.0
  0
VERTEX
  5
2AA5A
  8
BUHIN-2
  6
HIDDEN
 10
573.27716547773741
 20
315.03898109247319
 30
0.0
  0
VERTEX
  5
2AA5B
  8
BUHIN-2
  6
HIDDEN
 10
572.86262347773743
 20
313.67252509247328
 30
0.0
  0
VERTEX
  5
2AA5C
  8
BUHIN-2
  6
HIDDEN
 10
572.36590947773755
 20
311.8759810924733
 30
0.0
  0
VERTEX
  5
2AA5D
  8
BUHIN-2
  6
HIDDEN
 10
571.86337547773735
 20
309.86480509247332
 30
0.0
  0
VERTEX
  5
2AA5E
  8
BUHIN-2
  6
HIDDEN
 10
571.21692147773763
 20
307.02302909247328
 30
0.0
  0
VERTEX
  5
2AA5F
  8
BUHIN-2
  6
HIDDEN
 10
570.64309347773747
 20
304.45460509247329
 30
0.0
  0
VERTEX
  5
2AA60
  8
BUHIN-2
  6
HIDDEN
 10
570.24210147773715
 20
302.84197309247332
 30
0.0
  0
VERTEX
  5
2AA61
  8
BUHIN-2
  6
HIDDEN
 10
569.93771147773748
 20
301.79709909247327
 30
0.0
  0
VERTEX
  5
2AA62
  8
BUHIN-2
  6
HIDDEN
 10
569.61264947773748
 20
300.87123909247327
 30
0.0
  0
VERTEX
  5
2AA63
  8
BUHIN-2
  6
HIDDEN
 10
569.32944947773717
 20
300.21621709247319
 30
0.0
  0
VERTEX
  5
2AA64
  8
BUHIN-2
  6
HIDDEN
 10
569.0548114777373
 20
299.69712309247319
 30
0.0
  0
VERTEX
  5
2AA65
  8
BUHIN-2
  6
HIDDEN
 10
569.0216894777376
 20
299.64114509247332
 30
0.0
  0
VERTEX
  5
2AA66
  8
BUHIN-2
  6
HIDDEN
 10
568.80020347773723
 20
299.29914309247317
 30
0.0
  0
VERTEX
  5
2AA67
  8
BUHIN-2
  6
HIDDEN
 10
568.50391347773746
 20
298.91459909247328
 30
0.0
  0
VERTEX
  5
2AA68
  8
BUHIN-2
  6
HIDDEN
 10
568.17574147773735
 20
298.55920909247328
 30
0.0
  0
VERTEX
  5
2AA69
  8
BUHIN-2
  6
HIDDEN
 10
567.79521547773754
 20
298.21153909247329
 30
0.0
  0
VERTEX
  5
2AA6A
  8
BUHIN-2
  6
HIDDEN
 10
567.36605347773707
 20
297.8772810924732
 30
0.0
  0
VERTEX
  5
2AA6B
  8
BUHIN-2
  6
HIDDEN
 10
567.04122547773738
 20
297.65451109247329
 30
0.0
  0
SEQEND
  5
2AA6C
  8
BUHIN-2
  6
HIDDEN
  0
POLYLINE
  5
2A295
  8
BUHIN-2
  6
HIDDEN
 66
     1
 10
0.0
 20
0.0
 30
0.0
  0
VERTEX
  5
2AA6D
  8
BUHIN-2
  6
HIDDEN
 10
576.67784347773727
 20
323.17960309247331
 30
0.0
  0
VERTEX
  5
2AA6E
  8
BUHIN-2
  6
HIDDEN
 10
576.2156154777374
 20
322.30585109247318
 30
0.0
  0
VERTEX
  5
2AA6F
  8
BUHIN-2
  6
HIDDEN
 10
575.66437147773718
 20
321.18696709247331
 30
0.0
  0
VERTEX
  5
2AA70
  8
BUHIN-2
  6
HIDDEN
 10
575.15036947773729
 20
320.05955109247333
 30
0.0
  0
VERTEX
  5
2AA71
  8
BUHIN-2
  6
HIDDEN
 10
574.65971547773722
 20
318.89594909247319
 30
0.0
  0
VERTEX
  5
2AA72
  8
BUHIN-2
  6
HIDDEN
 10
574.30626147773762
 20
317.99798709247329
 30
0.0
  0
SEQEND
  5
2AA73
  8
BUHIN-2
  6
HIDDEN
  0
POLYLINE
  5
2A296
  8
BUHIN-2
  6
HIDDEN
 66
     1
 10
0.0
 20
0.0
 30
0.0
  0
VERTEX
  5
2AA74
  8
BUHIN-2
  6
HIDDEN
 10
569.00296547773746
 20
299.61004909247328
 30
0.0
  0
VERTEX
  5
2AA75
  8
BUHIN-2
  6
HIDDEN
 10
568.93336947773719
 20
299.49817909247332
 30
0.0
  0
SEQEND
  5
2AA76
  8
BUHIN-2
  6
HIDDEN
  0
ARC
  5
2A297
  8
BUHIN-2
  6
HIDDEN
 10
561.37511547773715
 20
307.14455109247319
 30
0.0
 40
28.147507999999998
 50
293.62596999999658
 51
296.7380909999975
  0
ARC
  5
2A298
  8
BUHIN-2
  6
HIDDEN
 10
605.89689547773719
 20
306.29981709247318
 30
0.0
 40
15.497482
 50
143.75757899999951
 51
145.63612399999911
  0
ARC
  5
2A299
  8
BUHIN-2
  6
HIDDEN
 10
561.23611547773748
 20
307.45465309247328
 30
0.0
 40
28.487331999999999
 50
293.23303700000599
 51
293.63214799999929
  0
POLYLINE
  5
2A29A
  8
BUHIN-2
  6
HIDDEN
 66
     1
 10
0.0
 20
0.0
 30
0.0
  0
VERTEX
  5
2AA77
  8
BUHIN-2
  6
HIDDEN
 10
595.69858947773753
 20
317.76647709247328
 30
0.0
  0
VERTEX
  5
2AA78
  8
BUHIN-2
  6
HIDDEN
 10
595.55632547773735
 20
317.67220909247328
 30
0.0
  0
SEQEND
  5
2AA79
  8
BUHIN-2
  6
HIDDEN
  0
POLYLINE
  5
2A29B
  8
BUHIN-2
  6
HIDDEN
 66
     1
 10
0.0
 20
0.0
 30
0.0
  0
VERTEX
  5
2AA7A
  8
BUHIN-2
  6
HIDDEN
 10
597.07124747773719
 20
318.40967709247332
 30
0.0
  0
VERTEX
  5
2AA7B
  8
BUHIN-2
  6
HIDDEN
 10
596.95234347773726
 20
318.37022909247332
 30
0.0
  0
SEQEND
  5
2AA7C
  8
BUHIN-2
  6
HIDDEN
  0
POLYLINE
  5
2A29C
  8
BUHIN-2
  6
HIDDEN
 66
     1
 10
0.0
 20
0.0
 30
0.0
  0
VERTEX
  5
2AA7D
  8
BUHIN-2
  6
HIDDEN
 10
574.03894947773722
 20
282.00696509247319
 30
0.0
  0
VERTEX
  5
2AA7E
  8
BUHIN-2
  6
HIDDEN
 10
575.02500347773719
 20
282.52915109247328
 30
0.0
  0
VERTEX
  5
2AA7F
  8
BUHIN-2
  6
HIDDEN
 10
575.86002947773727
 20
283.01278509247328
 30
0.0
  0
VERTEX
  5
2AA80
  8
BUHIN-2
  6
HIDDEN
 10
576.65611947773755
 20
283.5123930924733
 30
0.0
  0
SEQEND
  5
2AA81
  8
BUHIN-2
  6
HIDDEN
  0
POLYLINE
  5
2A29D
  8
BUHIN-2
  6
HIDDEN
 66
     1
 10
0.0
 20
0.0
 30
0.0
  0
VERTEX
  5
2AA82
  8
BUHIN-2
  6
HIDDEN
 10
578.34340347773718
 20
284.71329509247329
 30
0.0
  0
VERTEX
  5
2AA83
  8
BUHIN-2
  6
HIDDEN
 10
578.99291747773736
 20
285.23497309247318
 30
0.0
  0
VERTEX
  5
2AA84
  8
BUHIN-2
  6
HIDDEN
 10
579.72596347773731
 20
285.87021109247331
 30
0.0
  0
VERTEX
  5
2AA85
  8
BUHIN-2
  6
HIDDEN
 10
579.82977347773726
 20
285.96450509247319
 30
0.0
  0
SEQEND
  5
2AA86
  8
BUHIN-2
  6
HIDDEN
  0
POLYLINE
  5
2A29E
  8
BUHIN-2
  6
HIDDEN
 66
     1
 10
0.0
 20
0.0
 30
0.0
  0
VERTEX
  5
2AA87
  8
BUHIN-2
  6
HIDDEN
 10
580.83118947773744
 20
286.93590109247327
 30
0.0
  0
VERTEX
  5
2AA88
  8
BUHIN-2
  6
HIDDEN
 10
581.25335947773715
 20
287.38256109247328
 30
0.0
  0
SEQEND
  5
2AA89
  8
BUHIN-2
  6
HIDDEN
  0
POLYLINE
  5
2A29F
  8
BUHIN-2
  6
HIDDEN
 66
     1
 10
0.0
 20
0.0
 30
0.0
  0
VERTEX
  5
2AA8A
  8
BUHIN-2
  6
HIDDEN
 10
581.95363547773729
 20
288.17982709247332
 30
0.0
  0
VERTEX
  5
2AA8B
  8
BUHIN-2
  6
HIDDEN
 10
582.62837347773745
 20
289.02462909247322
 30
0.0
  0
SEQEND
  5
2AA8C
  8
BUHIN-2
  6
HIDDEN
  0
POLYLINE
  5
2A2A0
  8
BUHIN-2
  6
HIDDEN
 66
     1
 10
0.0
 20
0.0
 30
0.0
  0
VERTEX
  5
2AA8D
  8
BUHIN-2
  6
HIDDEN
 10
576.99595347773754
 20
283.73799309247318
 30
0.0
  0
VERTEX
  5
2AA8E
  8
BUHIN-2
  6
HIDDEN
 10
577.9076694777375
 20
284.3829590924733
 30
0.0
  0
SEQEND
  5
2AA8F
  8
BUHIN-2
  6
HIDDEN
  0
POLYLINE
  5
2A2A1
  8
BUHIN-2
  6
HIDDEN
 66
     1
 10
0.0
 20
0.0
 30
0.0
  0
VERTEX
  5
2AA90
  8
BUHIN-2
  6
HIDDEN
 10
594.02380947773725
 20
316.25607909247333
 30
0.0
  0
VERTEX
  5
2AA91
  8
BUHIN-2
  6
HIDDEN
 10
594.1188494777374
 20
316.36601509247328
 30
0.0
  0
SEQEND
  5
2AA92
  8
BUHIN-2
  6
HIDDEN
  0
POLYLINE
  5
2A2A2
  8
BUHIN-2
  6
HIDDEN
 66
     1
 10
0.0
 20
0.0
 30
0.0
  0
VERTEX
  5
2AA93
  8
BUHIN-2
  6
HIDDEN
 10
594.6939474777372
 20
316.9691150924732
 30
0.0
  0
VERTEX
  5
2AA94
  8
BUHIN-2
  6
HIDDEN
 10
595.08551347773744
 20
317.31745509247332
 30
0.0
  0
VERTEX
  5
2AA95
  8
BUHIN-2
  6
HIDDEN
 10
595.4813374777375
 20
317.61973109247327
 30
0.0
  0
VERTEX
  5
2AA96
  8
BUHIN-2
  6
HIDDEN
 10
595.51192347773747
 20
317.64109709247327
 30
0.0
  0
SEQEND
  5
2AA97
  8
BUHIN-2
  6
HIDDEN
  0
POLYLINE
  5
2A2A3
  8
BUHIN-2
  6
HIDDEN
 66
     1
 10
0.0
 20
0.0
 30
0.0
  0
VERTEX
  5
2AA98
  8
BUHIN-2
  6
HIDDEN
 10
569.50617947773742
 20
280.1917890924733
 30
0.0
  0
VERTEX
  5
2AA99
  8
BUHIN-2
  6
HIDDEN
 10
570.69475947773742
 20
280.5826170924733
 30
0.0
  0
VERTEX
  5
2AA9A
  8
BUHIN-2
  6
HIDDEN
 10
571.62425347773728
 20
280.9285970924733
 30
0.0
  0
VERTEX
  5
2AA9B
  8
BUHIN-2
  6
HIDDEN
 10
572.47357347773755
 20
281.27730109247329
 30
0.0
  0
SEQEND
  5
2AA9C
  8
BUHIN-2
  6
HIDDEN
  0
ARC
  5
2A2A4
  8
BUHIN-2
  6
HIDDEN
 10
599.47183147773717
 20
310.57805309247323
 30
0.0
 40
8.1928800000000006
 50
106.0885920000004
 51
107.065781000001
  0
POLYLINE
  5
2A2A5
  8
BUHIN-2
  6
HIDDEN
 66
     1
 10
0.0
 20
0.0
 30
0.0
  0
VERTEX
  5
2AA9D
  8
BUHIN-2
  6
HIDDEN
 10
597.32277947773753
 20
318.48408309247333
 30
0.0
  0
VERTEX
  5
2AA9E
  8
BUHIN-2
  6
HIDDEN
 10
597.20139347773716
 20
318.45005309247318
 30
0.0
  0
SEQEND
  5
2AA9F
  8
BUHIN-2
  6
HIDDEN
  0
POLYLINE
  5
2A2A6
  8
BUHIN-2
  6
HIDDEN
 66
     1
 10
0.0
 20
0.0
 30
0.0
  0
VERTEX
  5
2AAA0
  8
BUHIN-2
  6
HIDDEN
 10
598.18547147773722
 20
318.67790909247333
 30
0.0
  0
VERTEX
  5
2AAA1
  8
BUHIN-2
  6
HIDDEN
 10
597.75212747773764
 20
318.5903410924733
 30
0.0
  0
SEQEND
  5
2AAA2
  8
BUHIN-2
  6
HIDDEN
  0
POLYLINE
  5
2A2A7
  8
BUHIN-2
  6
HIDDEN
 66
     1
 10
0.0
 20
0.0
 30
0.0
  0
VERTEX
  5
2AAA3
  8
BUHIN-2
  6
HIDDEN
 10
577.55251747773752
 20
324.69318909247329
 30
0.0
  0
VERTEX
  5
2AAA4
  8
BUHIN-2
  6
HIDDEN
 10
576.85538747773739
 20
323.50051309247328
 30
0.0
  0
VERTEX
  5
2AAA5
  8
BUHIN-2
  6
HIDDEN
 10
576.67784347773727
 20
323.1796050924732
 30
0.0
  0
SEQEND
  5
2AAA6
  8
BUHIN-2
  6
HIDDEN
  0
POLYLINE
  5
2A2A8
  8
BUHIN-2
  6
HIDDEN
 66
     1
 10
0.0
 20
0.0
 30
0.0
  0
VERTEX
  5
2AAA7
  8
BUHIN-2
  6
HIDDEN
 10
573.54930947773744
 20
315.87738509247328
 30
0.0
  0
VERTEX
  5
2AAA8
  8
BUHIN-2
  6
HIDDEN
 10
573.97616147773749
 20
317.10043909247321
 30
0.0
  0
VERTEX
  5
2AAA9
  8
BUHIN-2
  6
HIDDEN
 10
574.30626347773728
 20
317.99798709247329
 30
0.0
  0
SEQEND
  5
2AAAA
  8
BUHIN-2
  6
HIDDEN
  0
LINE
  5
2A2A9
  8
BUHIN-2
  6
HIDDEN
 10
568.75207147773733
 20
299.23538509247328
 30
0.0
 11
568.46071747773726
 21
298.86545709247332
 31
0.0
  0
LINE
  5
2A2AA
  8
BUHIN-2
  6
HIDDEN
 10
568.75207147773733
 20
299.23538509247328
 30
0.0
 11
568.69751947773727
 21
299.15630909247318
 31
0.0
  0
LINE
  5
2A2AB
  8
BUHIN-2
  6
HIDDEN
 10
568.93336947773719
 20
299.49817909247332
 30
0.0
 11
568.75207147773733
 21
299.23538509247328
 31
0.0
  0
LINE
  5
2A2AC
  8
BUHIN-2
  6
HIDDEN
 10
569.61264947773748
 20
300.87123909247327
 30
0.0
 11
569.42940947773718
 21
300.45509909247329
 31
0.0
  0
LINE
  5
2A2AD
  8
BUHIN-2
  6
HIDDEN
 10
578.34327547773762
 20
284.71346109247332
 30
0.0
 11
578.27575147773746
 21
284.66001909247319
 31
0.0
  0
LINE
  5
2A2AE
  8
BUHIN-2
  6
HIDDEN
 10
578.27575147773746
 20
284.66001909247319
 30
0.0
 11
577.9076694777375
 21
284.38295709247319
 31
0.0
  0
LINE
  5
2A2AF
  8
BUHIN-2
  6
HIDDEN
 10
568.46071747773726
 20
298.86545709247332
 30
0.0
 11
568.04122747773761
 21
298.40321909247319
 31
0.0
  0
LINE
  5
2A2B0
  8
BUHIN-2
  6
HIDDEN
 10
571.32110347773721
 20
307.49361109247332
 30
0.0
 11
570.90753747773738
 21
305.6221230924732
 31
0.0
  0
ARC
  5
2A2B1
  8
BUHIN-2
  6
HIDDEN
 10
580.76588347773748
 20
372.96225909247329
 30
0.0
 40
17.775392
 50
1.3878250000002259
 51
6.2789220000004944
  0
ARC
  5
2A2B2
  8
BUHIN-2
  6
HIDDEN
 10
535.47591147773744
 20
370.72853109247319
 30
0.0
 40
63.647834000000003
 50
353.84683700000102
 51
354.56558100000069
  0
POLYLINE
  5
2A2B3
  8
BUHIN-2
  6
HIDDEN
 66
     1
 10
0.0
 20
0.0
 30
0.0
  0
VERTEX
  5
2AAAB
  8
BUHIN-2
  6
HIDDEN
 10
598.53605547773748
 20
373.39277309247331
 30
0.0
  0
VERTEX
  5
2AAAC
  8
BUHIN-2
  6
HIDDEN
 10
598.58133347773753
 20
372.61636509247319
 30
0.0
  0
VERTEX
  5
2AAAD
  8
BUHIN-2
  6
HIDDEN
 10
598.83766547773746
 20
370.1119750924733
 30
0.0
  0
SEQEND
  5
2AAAE
  8
BUHIN-2
  6
HIDDEN
  0
POLYLINE
  5
2A2B4
  8
BUHIN-2
  6
HIDDEN
 66
     1
 10
0.0
 20
0.0
 30
0.0
  0
VERTEX
  5
2AAAF
  8
BUHIN-2
  6
HIDDEN
 10
598.83766547773746
 20
364.70067709247331
 30
0.0
  0
VERTEX
  5
2AAB0
  8
BUHIN-2
  6
HIDDEN
 10
598.93424547773725
 20
366.04971909247331
 30
0.0
  0
VERTEX
  5
2AAB1
  8
BUHIN-2
  6
HIDDEN
 10
598.96716547773735
 20
367.40632709247319
 30
0.0
  0
VERTEX
  5
2AAB2
  8
BUHIN-2
  6
HIDDEN
 10
598.93424947773735
 20
368.76293309247319
 30
0.0
  0
VERTEX
  5
2AAB3
  8
BUHIN-2
  6
HIDDEN
 10
598.83766547773746
 20
370.1119750924733
 30
0.0
  0
SEQEND
  5
2AAB4
  8
BUHIN-2
  6
HIDDEN
  0
ARC
  5
2A2B5
  8
BUHIN-2
  6
HIDDEN
 10
610.29123347773725
 20
373.40633309247329
 30
0.0
 40
2.0000079999999998
 50
247.49986199999699
 51
252.03214500000291
  0
ARC
  5
2A2B6
  8
BUHIN-2
  6
HIDDEN
 10
610.29123347773725
 20
373.40633309247329
 30
0.0
 40
2.0000079999999998
 50
195.67261900000139
 51
241.12795700000001
  0
LINE
  5
2A2B7
  8
BUHIN-2
  6
HIDDEN
 10
609.52730347773718
 20
371.55808309247328
 30
0.0
 11
609.79122747773749
 21
371.46983309247332
 31
0.0
  0
LINE
  5
2A2B8
  8
BUHIN-2
  6
HIDDEN
 10
608.29122547773727
 20
373.4063250924732
 30
0.0
 11
608.44346547773716
 21
372.64095709247317
 31
0.0
  0
LINE
  5
2A2B9
  8
BUHIN-2
  6
HIDDEN
 10
609.07574147773755
 20
371.8195570924733
 30
0.0
 11
609.52585747773753
 21
371.55856509247332
 31
0.0
  0
LINE
  5
2A2BA
  8
BUHIN-2
  6
HIDDEN
 10
608.29122547773727
 20
374.9063250924732
 30
0.0
 11
608.29122547773727
 21
373.4063250924732
 31
0.0
  0
POLYLINE
  5
2A2BB
  8
BUHIN-2
  6
HIDDEN
 66
     1
 10
0.0
 20
0.0
 30
0.0
  0
VERTEX
  5
2AAB5
  8
BUHIN-2
  6
HIDDEN
 10
598.53605547773748
 20
376.73937909247331
 30
0.0
  0
VERTEX
  5
2AAB6
  8
BUHIN-2
  6
HIDDEN
 10
598.44478147773748
 20
376.44721709247329
 30
0.0
  0
VERTEX
  5
2AAB7
  8
BUHIN-2
  6
HIDDEN
 10
598.39447547773739
 20
376.10180309247329
 30
0.0
  0
VERTEX
  5
2AAB8
  8
BUHIN-2
  6
HIDDEN
 10
598.3832174777375
 20
375.58782509247322
 30
0.0
  0
VERTEX
  5
2AAB9
  8
BUHIN-2
  6
HIDDEN
 10
598.43466747773743
 20
374.90633109247329
 30
0.0
  0
SEQEND
  5
2AABA
  8
BUHIN-2
  6
HIDDEN
  0
ARC
  5
2A2BC
  8
BUHIN-2
  6
HIDDEN
 10
594.04138147773745
 20
378.40646909247329
 30
0.0
 40
4.4998800000000001
 50
2.7486410000004668
 51
90.001953999993802
  0
LINE
  5
2A2BD
  8
BUHIN-2
  6
HIDDEN
 10
606.2911814777375
 20
376.9063250924732
 30
0.0
 11
599.29122747773761
 21
376.9063250924732
 31
0.0
  0
POLYLINE
  5
2A2BE
  8
BUHIN-2
  6
HIDDEN
 66
     1
 10
0.0
 20
0.0
 30
0.0
  0
VERTEX
  5
2AABB
  8
BUHIN-2
  6
HIDDEN
 10
573.98042947773763
 20
317.17927109247319
 30
0.0
  0
VERTEX
  5
2AABC
  8
BUHIN-2
  6
HIDDEN
 10
573.10712547773744
 20
316.07463309247328
 30
0.0
  0
VERTEX
  5
2AABD
  8
BUHIN-2
  6
HIDDEN
 10
572.20051547773744
 20
315.0243650924732
 30
0.0
  0
VERTEX
  5
2AABE
  8
BUHIN-2
  6
HIDDEN
 10
571.25821147773718
 20
314.03140709247327
 30
0.0
  0
VERTEX
  5
2AABF
  8
BUHIN-2
  6
HIDDEN
 10
570.27674947773755
 20
313.09956909247319
 30
0.0
  0
SEQEND
  5
2AAC0
  8
BUHIN-2
  6
HIDDEN
  0
POLYLINE
  5
2A2BF
  8
BUHIN-2
  6
HIDDEN
 66
     1
 10
0.0
 20
0.0
 30
0.0
  0
VERTEX
  5
2AAC1
  8
BUHIN-2
  6
HIDDEN
 10
590.88229747773755
 20
362.46920709247331
 30
0.0
  0
VERTEX
  5
2AAC2
  8
BUHIN-2
  6
HIDDEN
 10
591.23303747773741
 20
362.98428109247328
 30
0.0
  0
VERTEX
  5
2AAC3
  8
BUHIN-2
  6
HIDDEN
 10
591.37405747773744
 20
363.22175109247331
 30
0.0
  0
VERTEX
  5
2AAC4
  8
BUHIN-2
  6
HIDDEN
 10
591.40922147773733
 20
363.30555309247319
 30
0.0
  0
VERTEX
  5
2AAC5
  8
BUHIN-2
  6
HIDDEN
 10
591.42453347773733
 20
363.39462909247328
 30
0.0
  0
SEQEND
  5
2AAC6
  8
BUHIN-2
  6
HIDDEN
  0
LINE
  5
2A2C0
  8
BUHIN-2
  6
HIDDEN
 10
591.6578394777373
 20
363.39462909247328
 30
0.0
 11
591.42462147773745
 21
363.39462909247328
 31
0.0
  0
POLYLINE
  5
2A2C1
  8
BUHIN-2
  6
HIDDEN
 66
     1
 10
0.0
 20
0.0
 30
0.0
  0
VERTEX
  5
2AAC7
  8
BUHIN-2
  6
HIDDEN
 10
591.90660947773756
 20
362.89406109247329
 30
0.0
  0
VERTEX
  5
2AAC8
  8
BUHIN-2
  6
HIDDEN
 10
591.72652147773738
 20
363.18722309247329
 30
0.0
  0
VERTEX
  5
2AAC9
  8
BUHIN-2
  6
HIDDEN
 10
591.66587347773736
 20
363.33123109247327
 30
0.0
  0
VERTEX
  5
2AACA
  8
BUHIN-2
  6
HIDDEN
 10
591.65792347773765
 20
363.39463109247328
 30
0.0
  0
SEQEND
  5
2AACB
  8
BUHIN-2
  6
HIDDEN
  0
LINE
  5
2A2C2
  8
BUHIN-2
  6
HIDDEN
 10
594.04122747773761
 20
382.9063230924732
 30
0.0
 11
589.04122747773761
 21
382.9063230924732
 31
0.0
  0
LINE
  5
2A2C3
  8
BUHIN-2
  6
HIDDEN
 10
583.85140147773734
 20
365.25656509247329
 30
0.0
 11
583.85140147773734
 21
364.37765709247333
 31
0.0
  0
POLYLINE
  5
2A2C4
  8
BUHIN-2
  6
HIDDEN
 66
     1
 10
0.0
 20
0.0
 30
0.0
  0
VERTEX
  5
2AACC
  8
BUHIN-2
  6
HIDDEN
 10
582.04122747773761
 20
366.59386309247333
 30
0.0
  0
VERTEX
  5
2AACD
  8
BUHIN-2
  6
HIDDEN
 10
581.55383347773727
 20
366.92743909247332
 30
0.0
  0
VERTEX
  5
2AACE
  8
BUHIN-2
  6
HIDDEN
 10
581.29524947773723
 20
367.07005709247329
 30
0.0
  0
VERTEX
  5
2AACF
  8
BUHIN-2
  6
HIDDEN
 10
581.02625147773722
 20
367.19187709247331
 30
0.0
  0
VERTEX
  5
2AAD0
  8
BUHIN-2
  6
HIDDEN
 10
580.78790147773759
 20
367.2763310924733
 30
0.0
  0
VERTEX
  5
2AAD1
  8
BUHIN-2
  6
HIDDEN
 10
580.54313147773735
 20
367.33936909247331
 30
0.0
  0
VERTEX
  5
2AAD2
  8
BUHIN-2
  6
HIDDEN
 10
580.29357947773758
 20
367.37849309247321
 30
0.0
  0
VERTEX
  5
2AAD3
  8
BUHIN-2
  6
HIDDEN
 10
580.04122747773761
 20
367.3919370924732
 30
0.0
  0
SEQEND
  5
2AAD4
  8
BUHIN-2
  6
HIDDEN
  0
POLYLINE
  5
2A2C5
  8
BUHIN-2
  6
HIDDEN
 66
     1
 10
0.0
 20
0.0
 30
0.0
  0
VERTEX
  5
2AAD5
  8
BUHIN-2
  6
HIDDEN
 10
582.04122747773761
 20
366.59386309247333
 30
0.0
  0
VERTEX
  5
2AAD6
  8
BUHIN-2
  6
HIDDEN
 10
582.85551947773763
 20
366.01154509247328
 30
0.0
  0
VERTEX
  5
2AAD7
  8
BUHIN-2
  6
HIDDEN
 10
583.67361347773738
 20
365.48662909247332
 30
0.0
  0
VERTEX
  5
2AAD8
  8
BUHIN-2
  6
HIDDEN
 10
585.1764914777375
 20
364.58578709247331
 30
0.0
  0
SEQEND
  5
2AAD9
  8
BUHIN-2
  6
HIDDEN
  0
POLYLINE
  5
2A2C6
  8
BUHIN-2
  6
HIDDEN
 66
     1
 10
0.0
 20
0.0
 30
0.0
  0
VERTEX
  5
2AADA
  8
BUHIN-2
  6
HIDDEN
 10
585.1764914777375
 20
364.58578709247331
 30
0.0
  0
VERTEX
  5
2AADB
  8
BUHIN-2
  6
HIDDEN
 10
585.2878934777375
 20
364.5025550924733
 30
0.0
  0
VERTEX
  5
2AADC
  8
BUHIN-2
  6
HIDDEN
 10
585.4868254777374
 20
364.27936309247332
 30
0.0
  0
VERTEX
  5
2AADD
  8
BUHIN-2
  6
HIDDEN
 10
585.6682474777374
 20
364.00250709247319
 30
0.0
  0
VERTEX
  5
2AADE
  8
BUHIN-2
  6
HIDDEN
 10
585.91410547773728
 20
363.52695109247333
 30
0.0
  0
SEQEND
  5
2AADF
  8
BUHIN-2
  6
HIDDEN
  0
LINE
  5
2A2C7
  8
BUHIN-2
  6
HIDDEN
 10
573.04335747773735
 20
357.79168909247329
 30
0.0
 11
573.04335747773735
 21
356.27642509247329
 31
0.0
  0
POLYLINE
  5
2A2C8
  8
BUHIN-2
  6
HIDDEN
 66
     1
 10
0.0
 20
0.0
 30
0.0
  0
VERTEX
  5
2AAE0
  8
BUHIN-2
  6
HIDDEN
 10
575.32139347773762
 20
364.3582390924733
 30
0.0
  0
VERTEX
  5
2AAE1
  8
BUHIN-2
  6
HIDDEN
 10
574.82907547773755
 20
363.46027909247329
 30
0.0
  0
VERTEX
  5
2AAE2
  8
BUHIN-2
  6
HIDDEN
 10
574.38086147773754
 20
362.55424509247331
 30
0.0
  0
VERTEX
  5
2AAE3
  8
BUHIN-2
  6
HIDDEN
 10
573.98221347773767
 20
361.64482309247319
 30
0.0
  0
VERTEX
  5
2AAE4
  8
BUHIN-2
  6
HIDDEN
 10
573.64041147773719
 20
360.73689909247332
 30
0.0
  0
VERTEX
  5
2AAE5
  8
BUHIN-2
  6
HIDDEN
 10
573.39214747773735
 20
359.93737109247331
 30
0.0
  0
VERTEX
  5
2AAE6
  8
BUHIN-2
  6
HIDDEN
 10
573.20361747773745
 20
359.14884509247321
 30
0.0
  0
VERTEX
  5
2AAE7
  8
BUHIN-2
  6
HIDDEN
 10
573.08353747773742
 20
358.3776850924732
 30
0.0
  0
VERTEX
  5
2AAE8
  8
BUHIN-2
  6
HIDDEN
 10
573.05205547773755
 20
358.0008210924733
 30
0.0
  0
VERTEX
  5
2AAE9
  8
BUHIN-2
  6
HIDDEN
 10
573.04122747773761
 20
357.63103709247332
 30
0.0
  0
SEQEND
  5
2AAEA
  8
BUHIN-2
  6
HIDDEN
  0
POLYLINE
  5
2A2C9
  8
BUHIN-2
  6
HIDDEN
 66
     1
 10
0.0
 20
0.0
 30
0.0
  0
VERTEX
  5
2AAEB
  8
BUHIN-2
  6
HIDDEN
 10
576.09848947773742
 20
365.29704909247329
 30
0.0
  0
VERTEX
  5
2AAEC
  8
BUHIN-2
  6
HIDDEN
 10
575.91035947773742
 20
365.15282709247327
 30
0.0
  0
VERTEX
  5
2AAED
  8
BUHIN-2
  6
HIDDEN
 10
575.74247747773722
 20
364.97600309247332
 30
0.0
  0
VERTEX
  5
2AAEE
  8
BUHIN-2
  6
HIDDEN
 10
575.45084747773751
 20
364.57302509247319
 30
0.0
  0
VERTEX
  5
2AAEF
  8
BUHIN-2
  6
HIDDEN
 10
575.32139347773762
 20
364.3582390924733
 30
0.0
  0
SEQEND
  5
2AAF0
  8
BUHIN-2
  6
HIDDEN
  0
POLYLINE
  5
2A2CA
  8
BUHIN-2
  6
HIDDEN
 66
     1
 10
0.0
 20
0.0
 30
0.0
  0
VERTEX
  5
2AAF1
  8
BUHIN-2
  6
HIDDEN
 10
576.09848947773742
 20
365.29704909247329
 30
0.0
  0
VERTEX
  5
2AAF2
  8
BUHIN-2
  6
HIDDEN
 10
576.74056347773728
 20
365.69427509247322
 30
0.0
  0
VERTEX
  5
2AAF3
  8
BUHIN-2
  6
HIDDEN
 10
577.39461347773727
 20
366.1254390924733
 30
0.0
  0
VERTEX
  5
2AAF4
  8
BUHIN-2
  6
HIDDEN
 10
578.04122747773761
 20
366.59386309247333
 30
0.0
  0
SEQEND
  5
2AAF5
  8
BUHIN-2
  6
HIDDEN
  0
POLYLINE
  5
2A2CB
  8
BUHIN-2
  6
HIDDEN
 66
     1
 10
0.0
 20
0.0
 30
0.0
  0
VERTEX
  5
2AAF6
  8
BUHIN-2
  6
HIDDEN
 10
578.04122747773761
 20
366.59386309247333
 30
0.0
  0
VERTEX
  5
2AAF7
  8
BUHIN-2
  6
HIDDEN
 10
578.5286234777376
 20
366.92743909247332
 30
0.0
  0
VERTEX
  5
2AAF8
  8
BUHIN-2
  6
HIDDEN
 10
578.78720747773718
 20
367.07005709247329
 30
0.0
  0
VERTEX
  5
2AAF9
  8
BUHIN-2
  6
HIDDEN
 10
579.05620547773731
 20
367.19187709247331
 30
0.0
  0
VERTEX
  5
2AAFA
  8
BUHIN-2
  6
HIDDEN
 10
579.29455547773728
 20
367.2763310924733
 30
0.0
  0
VERTEX
  5
2AAFB
  8
BUHIN-2
  6
HIDDEN
 10
579.53932547773763
 20
367.33936909247331
 30
0.0
  0
VERTEX
  5
2AAFC
  8
BUHIN-2
  6
HIDDEN
 10
579.7888774777374
 20
367.37849309247321
 30
0.0
  0
VERTEX
  5
2AAFD
  8
BUHIN-2
  6
HIDDEN
 10
580.04122747773761
 20
367.3919370924732
 30
0.0
  0
SEQEND
  5
2AAFE
  8
BUHIN-2
  6
HIDDEN
  0
LINE
  5
2A2CC
  8
BUHIN-2
  6
HIDDEN
 10
573.04122747773761
 20
357.63103709247332
 30
0.0
 11
573.04122747773761
 21
356.21810709247319
 31
0.0
  0
LINE
  5
2A2CD
  8
BUHIN-2
  6
HIDDEN
 10
568.54122547773727
 20
383.35632509247318
 30
0.0
 11
568.54122547773727
 21
351.45632509247332
 31
0.0
  0
LINE
  5
2A2CE
  8
BUHIN-2
  6
HIDDEN
 10
575.32139347773762
 20
383.35632509247318
 30
0.0
 11
568.54122547773727
 21
383.35632509247318
 31
0.0
  0
LINE
  5
2A2CF
  8
BUHIN-2
  6
HIDDEN
 10
573.03993547773723
 20
351.45632509247332
 30
0.0
 11
568.54122547773727
 21
351.45632509247332
 31
0.0
  0
ARC
  5
2A2D0
  8
BUHIN-2
  6
HIDDEN
 10
575.32139347773762
 20
385.35632509247318
 30
0.0
 40
2.0
 50
270.0
 51
292.8641690000008
  0
ARC
  5
2A2D1
  8
BUHIN-2
  6
HIDDEN
 10
578.04122747773761
 20
378.9063250924732
 30
0.0
 40
5.0
 50
90.0
 51
112.8641690000008
  0
LINE
  5
2A2D2
  8
BUHIN-2
  6
HIDDEN
 10
582.04122747773761
 20
383.9063250924732
 30
0.0
 11
578.04122747773761
 21
383.9063250924732
 31
0.0
  0
ARC
  5
2A2D3
  8
BUHIN-2
  6
HIDDEN
 10
582.04122747773761
 20
378.9063250924732
 30
0.0
 40
5.0
 50
51.167009000004768
 51
90.0
  0
POLYLINE
  5
2A2D4
  8
BUHIN-2
  6
HIDDEN
 66
     1
 10
0.0
 20
0.0
 30
0.0
  0
VERTEX
  5
2AAFF
  8
BUHIN-2
  6
HIDDEN
 10
587.23392747773767
 20
361.5159250924732
 30
0.0
  0
VERTEX
  5
2AB00
  8
BUHIN-2
  6
HIDDEN
 10
586.7004814777373
 20
362.22870109247327
 30
0.0
  0
VERTEX
  5
2AB01
  8
BUHIN-2
  6
HIDDEN
 10
586.36422347773737
 20
362.72868709247331
 30
0.0
  0
VERTEX
  5
2AB02
  8
BUHIN-2
  6
HIDDEN
 10
586.05079747773732
 20
363.2556570924732
 30
0.0
  0
VERTEX
  5
2AB03
  8
BUHIN-2
  6
HIDDEN
 10
585.91434547773758
 20
363.52706109247328
 30
0.0
  0
SEQEND
  5
2AB04
  8
BUHIN-2
  6
HIDDEN
  0
ARC
  5
2A2D5
  8
BUHIN-2
  6
HIDDEN
 10
586.43059547773726
 20
384.35916309247318
 30
0.0
 40
2.0
 50
231.16700900000481
 51
293.68238999999761
  0
POLYLINE
  5
2A2D6
  8
BUHIN-2
  6
HIDDEN
 66
     1
 10
0.0
 20
0.0
 30
0.0
  0
VERTEX
  5
2AB05
  8
BUHIN-2
  6
HIDDEN
 10
587.37962747773724
 20
361.34237909247321
 30
0.0
  0
VERTEX
  5
2AB06
  8
BUHIN-2
  6
HIDDEN
 10
587.23392747773767
 20
361.5159250924732
 30
0.0
  0
SEQEND
  5
2AB07
  8
BUHIN-2
  6
HIDDEN
  0
ARC
  5
2A2D7
  8
BUHIN-2
  6
HIDDEN
 10
589.04022347773741
 20
378.40933709247332
 30
0.0
 40
4.4969919999999988
 50
89.987199000004338
 51
113.68259999999709
  0
LINE
  5
2A2D8
  8
BUHIN-2
  6
HIDDEN
 10
588.04122747773761
 20
357.6686670924733
 30
0.0
 11
588.04122747773761
 21
349.68020709247332
 31
0.0
  0
LINE
  5
2A2D9
  8
BUHIN-2
  6
HIDDEN
 10
588.04122747773761
 20
349.68020709247332
 30
0.0
 11
588.04122747773761
 21
344.36222109247331
 31
0.0
  0
POLYLINE
  5
2A2DA
  8
BUHIN-2
  6
HIDDEN
 66
     1
 10
0.0
 20
0.0
 30
0.0
  0
VERTEX
  5
2AB08
  8
BUHIN-2
  6
HIDDEN
 10
571.21783147773726
 20
307.02715909247331
 30
0.0
  0
VERTEX
  5
2AB09
  8
BUHIN-2
  6
HIDDEN
 10
570.66199947773737
 20
304.53592509247329
 30
0.0
  0
VERTEX
  5
2AB0A
  8
BUHIN-2
  6
HIDDEN
 10
570.34887547773747
 20
303.2475950924732
 30
0.0
  0
VERTEX
  5
2AB0B
  8
BUHIN-2
  6
HIDDEN
 10
570.22870547773744
 20
302.79244909247319
 30
0.0
  0
SEQEND
  5
2AB0C
  8
BUHIN-2
  6
HIDDEN
  0
POLYLINE
  5
2A2DB
  8
BUHIN-2
  6
HIDDEN
 66
     1
 10
0.0
 20
0.0
 30
0.0
  0
VERTEX
  5
2AB0D
  8
BUHIN-2
  6
HIDDEN
 10
585.3549314777373
 20
333.17214309247328
 30
0.0
  0
VERTEX
  5
2AB0E
  8
BUHIN-2
  6
HIDDEN
 10
585.32225747773725
 20
333.14939909247329
 30
0.0
  0
SEQEND
  5
2AB0F
  8
BUHIN-2
  6
HIDDEN
  0
POLYLINE
  5
2A2DC
  8
BUHIN-2
  6
HIDDEN
 66
     1
 10
0.0
 20
0.0
 30
0.0
  0
VERTEX
  5
2AB10
  8
BUHIN-2
  6
HIDDEN
 10
578.3749734777374
 20
325.97325109247328
 30
0.0
  0
VERTEX
  5
2AB11
  8
BUHIN-2
  6
HIDDEN
 10
577.74265947773745
 20
325.00065109247328
 30
0.0
  0
VERTEX
  5
2AB12
  8
BUHIN-2
  6
HIDDEN
 10
577.6614474777374
 20
324.87023509247331
 30
0.0
  0
SEQEND
  5
2AB13
  8
BUHIN-2
  6
HIDDEN
  0
POLYLINE
  5
2A2DD
  8
BUHIN-2
  6
HIDDEN
 66
     1
 10
0.0
 20
0.0
 30
0.0
  0
VERTEX
  5
2AB14
  8
BUHIN-2
  6
HIDDEN
 10
577.22685947773732
 20
324.14943309247332
 30
0.0
  0
VERTEX
  5
2AB15
  8
BUHIN-2
  6
HIDDEN
 10
576.88729747773721
 20
323.55788309247328
 30
0.0
  0
SEQEND
  5
2AB16
  8
BUHIN-2
  6
HIDDEN
  0
LINE
  5
2A2DE
  8
BUHIN-2
  6
HIDDEN
 10
582.20046347773757
 20
330.57016109247331
 30
0.0
 11
581.82171347773726
 21
330.19547109247333
 31
0.0
  0
LINE
  5
2A2DF
  8
BUHIN-2
  6
HIDDEN
 10
581.82171347773726
 20
330.19547109247333
 30
0.0
 11
581.6684214777373
 21
330.03951109247328
 31
0.0
  0
LINE
  5
2A2E0
  8
BUHIN-2
  6
HIDDEN
 10
584.10147547773738
 20
332.23988109247318
 30
0.0
 11
584.03947347773726
 21
332.1912270924733
 31
0.0
  0
LINE
  5
2A2E1
  8
BUHIN-2
  6
HIDDEN
 10
585.21054747773746
 20
333.07122109247319
 30
0.0
 11
584.10147547773738
 21
332.23988109247318
 31
0.0
  0
LINE
  5
2A2E2
  8
BUHIN-2
  6
HIDDEN
 10
577.48138347773715
 20
324.57420709247327
 30
0.0
 11
577.22728547773738
 21
324.14918309247332
 31
0.0
  0
LINE
  5
2A2E3
  8
BUHIN-2
  6
HIDDEN
 10
578.38694747773741
 20
325.99095109247332
 30
0.0
 11
577.86872147773715
 21
325.20013709247331
 31
0.0
  0
LINE
  5
2A2E4
  8
BUHIN-2
  6
HIDDEN
 10
568.7699214777374
 20
299.26125709247327
 30
0.0
 11
568.43597347773755
 21
298.83819309247332
 31
0.0
  0
LINE
  5
2A2E5
  8
BUHIN-2
  6
HIDDEN
 10
569.00939947773747
 20
299.6215610924732
 30
0.0
 11
568.91790147773725
 21
299.47575909247331
 31
0.0
  0
LINE
  5
2A2E6
  8
BUHIN-2
  6
HIDDEN
 10
569.42940947773718
 20
300.45509909247329
 30
0.0
 11
569.02429347773739
 21
299.64634509247321
 31
0.0
  0
POLYLINE
  5
2A2E7
  8
BUHIN-2
  6
HIDDEN
 66
     1
 10
0.0
 20
0.0
 30
0.0
  0
VERTEX
  5
2AB17
  8
BUHIN-2
  6
HIDDEN
 10
607.58421747773752
 20
318.27084309247329
 30
0.0
  0
VERTEX
  5
2AB18
  8
BUHIN-2
  6
HIDDEN
 10
604.71583747773764
 20
318.52905709247329
 30
0.0
  0
SEQEND
  5
2AB19
  8
BUHIN-2
  6
HIDDEN
  0
POLYLINE
  5
2A2E8
  8
BUHIN-2
  6
HIDDEN
 66
     1
 10
0.0
 20
0.0
 30
0.0
  0
VERTEX
  5
2AB1A
  8
BUHIN-2
  6
HIDDEN
 10
603.24204947773728
 20
318.65534109247329
 30
0.0
  0
VERTEX
  5
2AB1B
  8
BUHIN-2
  6
HIDDEN
 10
601.91771747773726
 20
318.74061909247331
 30
0.0
  0
SEQEND
  5
2AB1C
  8
BUHIN-2
  6
HIDDEN
  0
POLYLINE
  5
2A2E9
  8
BUHIN-2
  6
HIDDEN
 66
     1
 10
0.0
 20
0.0
 30
0.0
  0
VERTEX
  5
2AB1D
  8
BUHIN-2
  6
HIDDEN
 10
601.73639947773734
 20
318.74931709247329
 30
0.0
  0
VERTEX
  5
2AB1E
  8
BUHIN-2
  6
HIDDEN
 10
600.58641147773756
 20
318.78472709247319
 30
0.0
  0
VERTEX
  5
2AB1F
  8
BUHIN-2
  6
HIDDEN
 10
600.20316147773735
 20
318.78715509247331
 30
0.0
  0
SEQEND
  5
2AB20
  8
BUHIN-2
  6
HIDDEN
  0
POLYLINE
  5
2A2EA
  8
BUHIN-2
  6
HIDDEN
 66
     1
 10
0.0
 20
0.0
 30
0.0
  0
VERTEX
  5
2AB21
  8
BUHIN-2
  6
HIDDEN
 10
589.07508747773761
 20
305.44064709247328
 30
0.0
  0
VERTEX
  5
2AB22
  8
BUHIN-2
  6
HIDDEN
 10
589.08183947773728
 20
305.46446509247329
 30
0.0
  0
SEQEND
  5
2AB23
  8
BUHIN-2
  6
HIDDEN
  0
POLYLINE
  5
2A2EB
  8
BUHIN-2
  6
HIDDEN
 66
     1
 10
0.0
 20
0.0
 30
0.0
  0
VERTEX
  5
2AB24
  8
BUHIN-2
  6
HIDDEN
 10
592.97205747773728
 20
314.8508090924733
 30
0.0
  0
VERTEX
  5
2AB25
  8
BUHIN-2
  6
HIDDEN
 10
593.07203347773725
 20
314.99968709247332
 30
0.0
  0
SEQEND
  5
2AB26
  8
BUHIN-2
  6
HIDDEN
  0
POLYLINE
  5
2A2EC
  8
BUHIN-2
  6
HIDDEN
 66
     1
 10
0.0
 20
0.0
 30
0.0
  0
VERTEX
  5
2AB27
  8
BUHIN-2
  6
HIDDEN
 10
593.0724674777374
 20
315.00032709247319
 30
0.0
  0
VERTEX
  5
2AB28
  8
BUHIN-2
  6
HIDDEN
 10
593.18387547773762
 20
315.16223709247328
 30
0.0
  0
SEQEND
  5
2AB29
  8
BUHIN-2
  6
HIDDEN
  0
POLYLINE
  5
2A2ED
  8
BUHIN-2
  6
HIDDEN
 66
     1
 10
0.0
 20
0.0
 30
0.0
  0
VERTEX
  5
2AB2A
  8
BUHIN-2
  6
HIDDEN
 10
593.3113094777375
 20
315.34244109247328
 30
0.0
  0
VERTEX
  5
2AB2B
  8
BUHIN-2
  6
HIDDEN
 10
593.31473547773726
 20
315.34721309247328
 30
0.0
  0
SEQEND
  5
2AB2C
  8
BUHIN-2
  6
HIDDEN
  0
POLYLINE
  5
2A2EE
  8
BUHIN-2
  6
HIDDEN
 66
     1
 10
0.0
 20
0.0
 30
0.0
  0
VERTEX
  5
2AB2D
  8
BUHIN-2
  6
HIDDEN
 10
597.12671347773755
 20
318.42896109247329
 30
0.0
  0
VERTEX
  5
2AB2E
  8
BUHIN-2
  6
HIDDEN
 10
596.6509994777374
 20
318.25887109247333
 30
0.0
  0
VERTEX
  5
2AB2F
  8
BUHIN-2
  6
HIDDEN
 10
596.53898947773746
 20
318.21202109247332
 30
0.0
  0
SEQEND
  5
2AB30
  8
BUHIN-2
  6
HIDDEN
  0
POLYLINE
  5
2A2EF
  8
BUHIN-2
  6
HIDDEN
 66
     1
 10
0.0
 20
0.0
 30
0.0
  0
VERTEX
  5
2AB31
  8
BUHIN-2
  6
HIDDEN
 10
595.54036147773729
 20
317.66067309247319
 30
0.0
  0
VERTEX
  5
2AB32
  8
BUHIN-2
  6
HIDDEN
 10
595.22411947773742
 20
317.42883509247332
 30
0.0
  0
SEQEND
  5
2AB33
  8
BUHIN-2
  6
HIDDEN
  0
POLYLINE
  5
2A2F0
  8
BUHIN-2
  6
HIDDEN
 66
     1
 10
0.0
 20
0.0
 30
0.0
  0
VERTEX
  5
2AB34
  8
BUHIN-2
  6
HIDDEN
 10
595.1492454777374
 20
317.36769709247329
 30
0.0
  0
VERTEX
  5
2AB35
  8
BUHIN-2
  6
HIDDEN
 10
594.6946774777374
 20
316.96909109247332
 30
0.0
  0
VERTEX
  5
2AB36
  8
BUHIN-2
  6
HIDDEN
 10
594.17920347773759
 20
316.41406309247333
 30
0.0
  0
VERTEX
  5
2AB37
  8
BUHIN-2
  6
HIDDEN
 10
593.54812347773736
 20
315.62807909247329
 30
0.0
  0
VERTEX
  5
2AB38
  8
BUHIN-2
  6
HIDDEN
 10
593.03343747773738
 20
314.94121709247332
 30
0.0
  0
VERTEX
  5
2AB39
  8
BUHIN-2
  6
HIDDEN
 10
593.01179147773735
 20
314.91038109247319
 30
0.0
  0
SEQEND
  5
2AB3A
  8
BUHIN-2
  6
HIDDEN
  0
LINE
  5
2A2F1
  8
BUHIN-2
  6
HIDDEN
 10
569.50622147773754
 20
280.19180509247332
 30
0.0
 11
568.41005347773751
 21
279.88037109247318
 31
0.0
  0
LINE
  5
2A2F2
  8
BUHIN-2
  6
HIDDEN
 10
589.71371947773719
 20
307.56520509247332
 30
0.0
 11
589.08061947773729
 21
305.45990309247333
 31
0.0
  0
LINE
  5
2A2F3
  8
BUHIN-2
  6
HIDDEN
 10
587.54641947773723
 20
299.77084509247328
 30
0.0
 11
587.20095547773724
 21
298.57681909247327
 31
0.0
  0
LINE
  5
2A2F4
  8
BUHIN-2
  6
HIDDEN
 10
587.20095547773724
 20
298.57681909247327
 30
0.0
 11
587.00602547773747
 21
297.93756909247332
 31
0.0
  0
LINE
  5
2A2F5
  8
BUHIN-2
  6
HIDDEN
 10
581.95361147773735
 20
288.17980109247321
 30
0.0
 11
581.25335347773751
 21
287.38256709247332
 31
0.0
  0
LINE
  5
2A2F6
  8
BUHIN-2
  6
HIDDEN
 10
580.83118147773746
 20
286.93589709247323
 30
0.0
 11
579.8297654777374
 21
285.96451509247328
 31
0.0
  0
LINE
  5
2A2F7
  8
BUHIN-2
  6
HIDDEN
 10
591.01574947773759
 20
311.11712309247332
 30
0.0
 11
590.36384947773718
 21
309.46077309247329
 31
0.0
  0
LINE
  5
2A2F8
  8
BUHIN-2
  6
HIDDEN
 10
602.88770147773755
 20
318.67913509247319
 30
0.0
 11
604.71583747773764
 21
318.52905709247329
 31
0.0
  0
LINE
  5
2A2F9
  8
BUHIN-2
  6
HIDDEN
 10
600.52909347773755
 20
318.78066909247332
 30
0.0
 11
599.93663947773734
 21
318.78053109247332
 31
0.0
  0
LINE
  5
2A2FA
  8
BUHIN-2
  6
HIDDEN
 10
601.14685347773764
 20
318.76495309247332
 30
0.0
 11
602.18663347773725
 21
318.72635509247328
 31
0.0
  0
LINE
  5
2A2FB
  8
BUHIN-2
  6
HIDDEN
 10
596.53773547773721
 20
318.21565109247331
 30
0.0
 11
595.96092547773719
 21
317.92417909247331
 31
0.0
  0
LINE
  5
2A2FC
  8
BUHIN-2
  6
HIDDEN
 10
595.55646147773746
 20
317.67200909247327
 30
0.0
 11
595.41810947773763
 21
317.57467509247329
 31
0.0
  0
LINE
  5
2A2FD
  8
BUHIN-2
  6
HIDDEN
 10
595.69793547773747
 20
317.76749709247332
 30
0.0
 11
595.54051147773748
 21
317.66045509247323
 31
0.0
  0
LINE
  5
2A2FE
  8
BUHIN-2
  6
HIDDEN
 10
576.9958794777375
 20
283.73794509247318
 30
0.0
 11
576.65611947773755
 21
283.5123950924733
 31
0.0
  0
LINE
  5
2A2FF
  8
BUHIN-2
  6
HIDDEN
 10
588.59229947773736
 20
294.97432509247329
 30
0.0
 11
588.59229147773726
 21
294.73534109247328
 31
0.0
  0
POLYLINE
  5
2A300
  8
BUHIN-2
  6
HIDDEN
 66
     1
 10
0.0
 20
0.0
 30
0.0
  0
VERTEX
  5
2AB3B
  8
BUHIN-2
  6
HIDDEN
 10
588.2174234777375
 20
295.96558909247329
 30
0.0
  0
VERTEX
  5
2AB3C
  8
BUHIN-2
  6
HIDDEN
 10
588.21072947773735
 20
295.99063309247327
 30
0.0
  0
SEQEND
  5
2AB3D
  8
BUHIN-2
  6
HIDDEN
  0
POLYLINE
  5
2A301
  8
BUHIN-2
  6
HIDDEN
 66
     1
 10
0.0
 20
0.0
 30
0.0
  0
VERTEX
  5
2AB3E
  8
BUHIN-2
  6
HIDDEN
 10
592.12481147773758
 20
292.07656709247323
 30
0.0
  0
VERTEX
  5
2AB3F
  8
BUHIN-2
  6
HIDDEN
 10
592.09727947773752
 20
292.08390909247328
 30
0.0
  0
SEQEND
  5
2AB40
  8
BUHIN-2
  6
HIDDEN
  0
POLYLINE
  5
2A302
  8
BUHIN-2
  6
HIDDEN
 66
     1
 10
0.0
 20
0.0
 30
0.0
  0
VERTEX
  5
2AB41
  8
BUHIN-2
  6
HIDDEN
 10
588.28560947773735
 20
295.73320109247328
 30
0.0
  0
VERTEX
  5
2AB42
  8
BUHIN-2
  6
HIDDEN
 10
588.28560947773735
 20
295.73320109247328
 30
0.0
  0
SEQEND
  5
2AB43
  8
BUHIN-2
  6
HIDDEN
  0
POLYLINE
  5
2A303
  8
BUHIN-2
  6
HIDDEN
 66
     1
 10
0.0
 20
0.0
 30
0.0
  0
VERTEX
  5
2AB44
  8
BUHIN-2
  6
HIDDEN
 10
588.9086934777373
 20
294.41110509247329
 30
0.0
  0
VERTEX
  5
2AB45
  8
BUHIN-2
  6
HIDDEN
 10
588.84947947773742
 20
294.50484309247332
 30
0.0
  0
SEQEND
  5
2AB46
  8
BUHIN-2
  6
HIDDEN
  0
POLYLINE
  5
2A304
  8
BUHIN-2
  6
HIDDEN
 66
     1
 10
0.0
 20
0.0
 30
0.0
  0
VERTEX
  5
2AB47
  8
BUHIN-2
  6
HIDDEN
 10
588.30879747773747
 20
295.66182509247329
 30
0.0
  0
VERTEX
  5
2AB48
  8
BUHIN-2
  6
HIDDEN
 10
588.29799747773745
 20
295.69465709247328
 30
0.0
  0
SEQEND
  5
2AB49
  8
BUHIN-2
  6
HIDDEN
  0
POLYLINE
  5
2A305
  8
BUHIN-2
  6
HIDDEN
 66
     1
 10
0.0
 20
0.0
 30
0.0
  0
VERTEX
  5
2AB4A
  8
BUHIN-2
  6
HIDDEN
 10
592.17964747773726
 20
292.0623990924733
 30
0.0
  0
VERTEX
  5
2AB4B
  8
BUHIN-2
  6
HIDDEN
 10
592.17964747773726
 20
292.0623990924733
 30
0.0
  0
SEQEND
  5
2AB4C
  8
BUHIN-2
  6
HIDDEN
  0
POLYLINE
  5
2A306
  8
BUHIN-2
  6
HIDDEN
 66
     1
 10
0.0
 20
0.0
 30
0.0
  0
VERTEX
  5
2AB4D
  8
BUHIN-2
  6
HIDDEN
 10
592.29061747773756
 20
292.03555909247319
 30
0.0
  0
VERTEX
  5
2AB4E
  8
BUHIN-2
  6
HIDDEN
 10
592.2419054777373
 20
292.04704109247319
 30
0.0
  0
SEQEND
  5
2AB4F
  8
BUHIN-2
  6
HIDDEN
  0
LINE
  5
2A307
  8
BUHIN-2
  6
HIDDEN
 10
592.58615547773741
 20
291.72925109247331
 30
0.0
 11
593.54122747773761
 21
291.6324630924733
 31
0.0
  0
ARC
  5
2A308
  8
BUHIN-2
  6
HIDDEN
 10
593.53913147773744
 20
297.14521709247327
 30
0.0
 40
5.4991680000000001
 50
200.0365970000002
 51
260.02058200000579
  0
LINE
  5
2A309
  8
BUHIN-2
  6
HIDDEN
 10
588.15714547773746
 20
296.00846309247328
 30
0.0
 11
588.37280547773742
 21
295.26109109247318
 31
0.0
  0
POLYLINE
  5
2A30A
  8
BUHIN-2
  6
HIDDEN
 66
     1
 10
0.0
 20
0.0
 30
0.0
  0
VERTEX
  5
2AB50
  8
BUHIN-2
  6
HIDDEN
 10
587.6617274777376
 20
341.68068509247331
 30
0.0
  0
VERTEX
  5
2AB51
  8
BUHIN-2
  6
HIDDEN
 10
586.91033147773737
 20
335.68299909247332
 30
0.0
  0
VERTEX
  5
2AB52
  8
BUHIN-2
  6
HIDDEN
 10
586.72841547773737
 20
334.27884709247331
 30
0.0
  0
SEQEND
  5
2AB53
  8
BUHIN-2
  6
HIDDEN
  0
LINE
  5
2A30B
  8
BUHIN-2
  6
HIDDEN
 10
588.04236947773722
 20
357.7757630924732
 30
0.0
 11
588.04236947773722
 21
349.68024509247329
 31
0.0
  0
LINE
  5
2A30C
  8
BUHIN-2
  6
HIDDEN
 10
588.37280547773742
 20
359.55155709247327
 30
0.0
 11
588.14731347773727
 21
358.75057109247331
 31
0.0
  0
ARC
  5
2A30D
  8
BUHIN-2
  6
HIDDEN
 10
593.53913147773744
 20
357.66743109247318
 30
0.0
 40
5.4991680000000001
 50
99.979417999994197
 51
159.9634029999998
  0
LINE
  5
2A30E
  8
BUHIN-2
  6
HIDDEN
 10
593.54122747773761
 20
363.1801870924732
 30
0.0
 11
592.58615547773741
 21
363.08339709247332
 31
0.0
  0
LINE
  5
2A30F
  8
BUHIN-2
  6
HIDDEN
 10
574.03838947773716
 20
317.28585309247319
 30
0.0
 11
574.02002547773725
 21
317.25188109247318
 31
0.0
  0
LINE
  5
2A310
  8
BUHIN-2
  6
HIDDEN
 10
574.05337347773764
 20
317.3214050924733
 30
0.0
 11
574.03838947773716
 21
317.28585309247319
 31
0.0
  0
LINE
  5
2A311
  8
BUHIN-2
  6
HIDDEN
 10
574.02002547773725
 20
317.25188109247318
 30
0.0
 11
573.99748747773754
 21
317.21723909247328
 31
0.0
  0
LINE
  5
2A312
  8
BUHIN-2
  6
HIDDEN
 10
608.04122747773749
 20
291.9062830924733
 30
0.0
 11
593.54137547773723
 21
291.9060970924732
 31
0.0
  0
LINE
  5
2A313
  8
BUHIN-2
  6
HIDDEN
 10
608.04122747773749
 20
291.90457709247329
 30
0.0
 11
608.03864347773731
 21
291.90457709247329
 31
0.0
  0
LINE
  5
2A314
  8
BUHIN-2
  6
HIDDEN
 10
608.03864347773731
 20
291.9045290924733
 30
0.0
 11
593.54122147773739
 21
291.9043930924733
 31
0.0
  0
ARC
  5
2A315
  8
BUHIN-2
  6
HIDDEN
 10
593.52652547773755
 20
297.40608909247328
 30
0.0
 40
5.5000279999999986
 50
190.7377920000003
 51
270.15470900000372
  0
POLYLINE
  5
2A316
  8
BUHIN-2
  6
HIDDEN
 66
     1
 10
0.0
 20
0.0
 30
0.0
  0
VERTEX
  5
2AB54
  8
BUHIN-2
  6
HIDDEN
 10
592.48168347773742
 20
292.00452909247332
 30
0.0
  0
VERTEX
  5
2AB55
  8
BUHIN-2
  6
HIDDEN
 10
592.15852547773716
 20
292.07720109247322
 30
0.0
  0
SEQEND
  5
2AB56
  8
BUHIN-2
  6
HIDDEN
  0
POLYLINE
  5
2A317
  8
BUHIN-2
  6
HIDDEN
 66
     1
 10
0.0
 20
0.0
 30
0.0
  0
VERTEX
  5
2AB57
  8
BUHIN-2
  6
HIDDEN
 10
589.01514947773728
 20
294.25865509247319
 30
0.0
  0
VERTEX
  5
2AB58
  8
BUHIN-2
  6
HIDDEN
 10
588.85844347773752
 20
294.4962450924732
 30
0.0
  0
SEQEND
  5
2AB59
  8
BUHIN-2
  6
HIDDEN
  0
POLYLINE
  5
2A318
  8
BUHIN-2
  6
HIDDEN
 66
     1
 10
0.0
 20
0.0
 30
0.0
  0
VERTEX
  5
2AB5A
  8
BUHIN-2
  6
HIDDEN
 10
591.46310947773725
 20
292.3060910924732
 30
0.0
  0
VERTEX
  5
2AB5B
  8
BUHIN-2
  6
HIDDEN
 10
591.01001947773716
 20
292.51389309247332
 30
0.0
  0
VERTEX
  5
2AB5C
  8
BUHIN-2
  6
HIDDEN
 10
590.86346547773735
 20
292.59215309247332
 30
0.0
  0
SEQEND
  5
2AB5D
  8
BUHIN-2
  6
HIDDEN
  0
POLYLINE
  5
2A319
  8
BUHIN-2
  6
HIDDEN
 66
     1
 10
0.0
 20
0.0
 30
0.0
  0
VERTEX
  5
2AB5E
  8
BUHIN-2
  6
HIDDEN
 10
588.50011747773738
 20
295.17187309247328
 30
0.0
  0
VERTEX
  5
2AB5F
  8
BUHIN-2
  6
HIDDEN
 10
588.33396347773737
 20
295.59167909247333
 30
0.0
  0
VERTEX
  5
2AB60
  8
BUHIN-2
  6
HIDDEN
 10
588.20092347773732
 20
296.0310310924732
 30
0.0
  0
SEQEND
  5
2AB61
  8
BUHIN-2
  6
HIDDEN
  0
POLYLINE
  5
2A31A
  8
BUHIN-2
  6
HIDDEN
 66
     1
 10
0.0
 20
0.0
 30
0.0
  0
VERTEX
  5
2AB62
  8
BUHIN-2
  6
HIDDEN
 10
590.52260747773732
 20
292.79729709247317
 30
0.0
  0
VERTEX
  5
2AB63
  8
BUHIN-2
  6
HIDDEN
 10
590.15203747773728
 20
293.06146509247333
 30
0.0
  0
VERTEX
  5
2AB64
  8
BUHIN-2
  6
HIDDEN
 10
589.78847147773718
 20
293.37021509247319
 30
0.0
  0
VERTEX
  5
2AB65
  8
BUHIN-2
  6
HIDDEN
 10
589.73945947773734
 20
293.41621509247318
 30
0.0
  0
SEQEND
  5
2AB66
  8
BUHIN-2
  6
HIDDEN
  0
LINE
  5
2A31B
  8
BUHIN-2
  6
HIDDEN
 10
618.04122747773761
 20
370.37511109247328
 30
0.0
 11
618.04122747773761
 21
370.37394309247333
 31
0.0
  0
LINE
  5
2A31C
  8
BUHIN-2
  6
HIDDEN
 10
618.04122747773761
 20
292.67966509247327
 30
0.0
 11
618.04122747773761
 21
284.43753709247329
 31
0.0
  0
LINE
  5
2A31D
  8
BUHIN-2
  6
HIDDEN
 10
618.04122747773761
 20
299.71232309247318
 30
0.0
 11
618.04122747773761
 21
292.67966509247327
 31
0.0
  0
LINE
  5
2A31E
  8
BUHIN-2
  6
HIDDEN
 10
618.04122747773761
 20
309.71232309247318
 30
0.0
 11
618.04122747773761
 21
299.71232309247318
 31
0.0
  0
LINE
  5
2A31F
  8
BUHIN-2
  6
HIDDEN
 10
618.04122747773761
 20
345.10032509247333
 30
0.0
 11
618.04122747773761
 21
309.71232309247318
 31
0.0
  0
LINE
  5
2A320
  8
BUHIN-2
  6
HIDDEN
 10
618.04122747773761
 20
355.10032509247333
 30
0.0
 11
618.04122747773761
 21
345.10032509247333
 31
0.0
  0
LINE
  5
2A321
  8
BUHIN-2
  6
HIDDEN
 10
618.04122747773761
 20
362.13298309247318
 30
0.0
 11
618.04122747773761
 21
355.10032509247333
 31
0.0
  0
LINE
  5
2A322
  8
BUHIN-2
  6
HIDDEN
 10
618.04122747773761
 20
370.37394309247333
 30
0.0
 11
618.04122747773761
 21
362.13298309247318
 31
0.0
  0
POLYLINE
  5
2A323
  8
BUHIN-2
  6
HIDDEN
 66
     1
 10
0.0
 20
0.0
 30
0.0
  0
VERTEX
  5
2AB67
  8
BUHIN-2
  6
HIDDEN
 10
568.20958147773752
 20
312.75052309247332
 30
0.0
  0
VERTEX
  5
2AB68
  8
BUHIN-2
  6
HIDDEN
 10
568.56128947773755
 20
312.64410909247317
 30
0.0
  0
VERTEX
  5
2AB69
  8
BUHIN-2
  6
HIDDEN
 10
568.92647747773742
 20
312.60396709247328
 30
0.0
  0
VERTEX
  5
2AB6A
  8
BUHIN-2
  6
HIDDEN
 10
569.29279947773716
 20
312.63145309247318
 30
0.0
  0
VERTEX
  5
2AB6B
  8
BUHIN-2
  6
HIDDEN
 10
569.64785947773748
 20
312.72564309247332
 30
0.0
  0
VERTEX
  5
2AB6C
  8
BUHIN-2
  6
HIDDEN
 10
569.97963347773725
 20
312.88335709247332
 30
0.0
  0
VERTEX
  5
2AB6D
  8
BUHIN-2
  6
HIDDEN
 10
570.27693147773732
 20
313.09926109247328
 30
0.0
  0
SEQEND
  5
2AB6E
  8
BUHIN-2
  6
HIDDEN
  0
POLYLINE
  5
2A324
  8
BUHIN-2
  6
HIDDEN
 66
     1
 10
0.0
 20
0.0
 30
0.0
  0
VERTEX
  5
2AB6F
  8
BUHIN-2
  6
HIDDEN
 10
568.57820747773746
 20
312.6295130924733
 30
0.0
  0
VERTEX
  5
2AB70
  8
BUHIN-2
  6
HIDDEN
 10
568.30457347773734
 20
312.70765109247333
 30
0.0
  0
VERTEX
  5
2AB71
  8
BUHIN-2
  6
HIDDEN
 10
568.04122747773761
 20
312.82752109247332
 30
0.0
  0
SEQEND
  5
2AB72
  8
BUHIN-2
  6
HIDDEN
  0
ARC
  5
2A325
  8
BUHIN-2
  6
HIDDEN
 10
606.29121747773729
 20
374.90631709247322
 30
0.0
 40
2.0000100000000001
 50
18.071654999999321
 51
22.500104000000821
  0
ARC
  5
2A326
  8
BUHIN-2
  6
HIDDEN
 10
606.29121747773729
 20
374.90631709247322
 30
0.0
 40
2.0000100000000001
 50
67.499895999997435
 51
72.110131999996739
  0
ARC
  5
2A327
  8
BUHIN-2
  6
HIDDEN
 10
606.29121747773729
 20
374.90631709247322
 30
0.0
 40
2.0000100000000001
 50
36.123984000002089
 51
54.144107999998504
  0
LINE
  5
2A328
  8
BUHIN-2
  6
HIDDEN
 10
608.19120747773718
 20
375.52628909247329
 30
0.0
 11
608.22164547773752
 21
375.42565709247327
 31
0.0
  0
LINE
  5
2A329
  8
BUHIN-2
  6
HIDDEN
 10
608.22164547773752
 20
375.42565709247327
 30
0.0
 11
608.29122547773727
 21
374.9063250924732
 31
0.0
  0
LINE
  5
2A32A
  8
BUHIN-2
  6
HIDDEN
 10
608.01880947773748
 20
375.90805309247332
 30
0.0
 11
608.13898347773727
 21
375.67169109247328
 31
0.0
  0
LINE
  5
2A32B
  8
BUHIN-2
  6
HIDDEN
 10
607.90482347773718
 20
376.0840130924733
 30
0.0
 11
608.01880947773748
 21
375.90805309247332
 31
0.0
  0
LINE
  5
2A32C
  8
BUHIN-2
  6
HIDDEN
 10
606.80482347773727
 20
376.83639509247331
 30
0.0
 11
606.90467947773755
 21
376.80677909247328
 31
0.0
  0
LINE
  5
2A32D
  8
BUHIN-2
  6
HIDDEN
 10
607.28587147773749
 20
376.63878109247332
 30
0.0
 11
607.46103547773725
 21
376.5249810924733
 31
0.0
  0
LINE
  5
2A32E
  8
BUHIN-2
  6
HIDDEN
 10
606.2911814777375
 20
376.9063250924732
 30
0.0
 11
606.80482347773727
 21
376.83639509247331
 31
0.0
  0
LINE
  5
2A32F
  8
BUHIN-2
  6
HIDDEN
 10
607.05659147773736
 20
376.75408309247331
 30
0.0
 11
607.28587147773749
 21
376.63878109247332
 31
0.0
  0
LINE
  5
2A330
  8
BUHIN-2
  6
HIDDEN
 10
591.42462147773745
 20
363.39462909247328
 30
0.0
 11
591.54122747773749
 21
363.39437109247331
 31
0.0
  0
LINE
  5
2A331
  8
BUHIN-2
  6
HIDDEN
 10
588.04235347773727
 20
349.6800990924732
 30
0.0
 11
588.04239547773739
 21
344.32002309247332
 31
0.0
  0
POLYLINE
  5
2A332
  8
BUHIN-2
  6
HIDDEN
 66
     1
 10
0.0
 20
0.0
 30
0.0
  0
VERTEX
  5
2AB73
  8
BUHIN-2
  6
HIDDEN
 10
598.53605547773748
 20
376.73937909247331
 30
0.0
  0
VERTEX
  5
2AB74
  8
BUHIN-2
  6
HIDDEN
 10
598.58414547773725
 20
376.77725109247331
 30
0.0
  0
SEQEND
  5
2AB75
  8
BUHIN-2
  6
HIDDEN
  0
POLYLINE
  5
2A333
  8
BUHIN-2
  6
HIDDEN
 66
     1
 10
0.0
 20
0.0
 30
0.0
  0
VERTEX
  5
2AB76
  8
BUHIN-2
  6
HIDDEN
 10
598.57479347773767
 20
363.18153109247322
 30
0.0
  0
VERTEX
  5
2AB77
  8
BUHIN-2
  6
HIDDEN
 10
598.7081354777373
 20
363.62335309247322
 30
0.0
  0
VERTEX
  5
2AB78
  8
BUHIN-2
  6
HIDDEN
 10
598.75715947773722
 20
363.9063230924732
 30
0.0
  0
SEQEND
  5
2AB79
  8
BUHIN-2
  6
HIDDEN
  0
ARC
  5
2A334
  8
BUHIN-2
  6
HIDDEN
 10
599.29003347773767
 20
374.9104270924733
 30
0.0
 40
1.995739999999999
 50
103.1009820000035
 51
110.7127640000034
  0
ARC
  5
2A335
  8
BUHIN-2
  6
HIDDEN
 10
600.53376147773747
 20
378.71803909247319
 30
0.0
 40
2.0
 50
182.74497200000081
 51
212.00000000000091
  0
ARC
  5
2A336
  8
BUHIN-2
  6
HIDDEN
 10
599.29121347773741
 20
374.90619709247329
 30
0.0
 40
2.0001279999999988
 50
89.999599999998821
 51
103.10645100000001
  0
LINE
  5
2A337
  8
BUHIN-2
  6
HIDDEN
 10
598.83766547773746
 20
377.6581990924733
 30
0.0
 11
599.30748947773725
 21
376.9063250924732
 31
0.0
  0
ARC
  5
2A338
  8
BUHIN-2
  6
HIDDEN
 10
609.29125347773731
 20
369.53335909247329
 30
0.0
 40
2.0
 50
25.245520000001001
 51
75.523096999993456
  0
LINE
  5
2A339
  8
BUHIN-2
  6
HIDDEN
 10
591.6578394777373
 20
363.39462909247328
 30
0.0
 11
591.54122747773749
 21
363.39437109247331
 31
0.0
  0
LINE
  5
2A33A
  8
BUHIN-2
  6
HIDDEN
 10
598.73851547773745
 20
376.8085210924732
 30
0.0
 11
598.67682947773744
 21
376.79414509247329
 31
0.0
  0
LINE
  5
2A33B
  8
BUHIN-2
  6
HIDDEN
 10
599.29122747773761
 20
376.9063250924732
 30
0.0
 11
598.73851547773745
 21
376.8085210924732
 31
0.0
  0
LINE
  5
2A33C
  8
BUHIN-2
  6
HIDDEN
 10
608.04122747773749
 20
340.83174909247322
 30
0.0
 11
608.04122747773749
 21
328.66559109247328
 31
0.0
  0
LINE
  5
2A33D
  8
BUHIN-2
  6
HIDDEN
 10
608.04122747773749
 20
327.55028509247319
 30
0.0
 11
608.04122747773749
 21
309.71232309247318
 31
0.0
  0
LINE
  5
2A33E
  8
BUHIN-2
  6
HIDDEN
 10
608.04122747773749
 20
355.35032509247333
 30
0.0
 11
608.04122747773749
 21
354.16230709247333
 31
0.0
  0
LINE
  5
2A33F
  8
BUHIN-2
  6
HIDDEN
 10
608.04122747773749
 20
292.99020909247332
 30
0.0
 11
608.04122747773749
 21
285.92314309247331
 31
0.0
  0
LINE
  5
2A340
  8
BUHIN-2
  6
HIDDEN
 10
608.04122747773749
 20
299.46232309247318
 30
0.0
 11
608.04122747773749
 21
292.99020909247332
 31
0.0
  0
LINE
  5
2A341
  8
BUHIN-2
  6
HIDDEN
 10
608.04122747773749
 20
361.82248309247331
 30
0.0
 11
608.04122747773749
 21
355.35032509247333
 31
0.0
  0
LINE
  5
2A342
  8
BUHIN-2
  6
HIDDEN
 10
608.04122747773749
 20
309.71232309247318
 30
0.0
 11
608.04122747773749
 21
299.46232309247318
 31
0.0
  0
LINE
  5
2A343
  8
BUHIN-2
  6
HIDDEN
 10
608.54122747773749
 20
286.21717709247321
 30
0.0
 11
608.54122747773749
 21
285.87170509247329
 31
0.0
  0
LINE
  5
2A344
  8
BUHIN-2
  6
HIDDEN
 10
598.34100947773709
 20
318.68216909247332
 30
0.0
 11
597.93101347773734
 21
318.62074509247333
 31
0.0
  0
LINE
  5
2A345
  8
BUHIN-2
  6
HIDDEN
 10
599.08443747773742
 20
318.79354509247332
 30
0.0
 11
598.34100947773709
 21
318.68216909247332
 31
0.0
  0
LINE
  5
2A346
  8
BUHIN-2
  6
HIDDEN
 10
599.04007947773721
 20
318.74870709247318
 30
0.0
 11
598.34100947773709
 21
318.68216909247332
 31
0.0
  0
LINE
  5
2A347
  8
BUHIN-2
  6
HIDDEN
 10
600.35754147773719
 20
318.7954690924733
 30
0.0
 11
599.04007947773721
 21
318.74870709247318
 31
0.0
  0
LINE
  5
2A348
  8
BUHIN-2
  6
HIDDEN
 10
601.91771747773726
 20
318.74061709247331
 30
0.0
 11
603.62549347773745
 21
318.65089509247332
 31
0.0
  0
LINE
  5
2A349
  8
BUHIN-2
  6
HIDDEN
 10
597.75420947773762
 20
318.58102709247328
 30
0.0
 11
597.26798747773762
 21
318.46873509247331
 31
0.0
  0
LINE
  5
2A34A
  8
BUHIN-2
  6
HIDDEN
 10
602.18663347773725
 20
318.72635509247328
 30
0.0
 11
603.62549347773745
 21
318.65089509247332
 31
0.0
  0
POLYLINE
  5
2A34B
  8
BUHIN-2
  6
HIDDEN
 66
     1
 10
0.0
 20
0.0
 30
0.0
  0
VERTEX
  5
2AB7A
  8
BUHIN-2
  6
HIDDEN
 10
607.2001314777375
 20
337.18310909247327
 30
0.0
  0
VERTEX
  5
2AB7B
  8
BUHIN-2
  6
HIDDEN
 10
604.24981147773758
 20
337.52274309247321
 30
0.0
  0
VERTEX
  5
2AB7C
  8
BUHIN-2
  6
HIDDEN
 10
602.71406147773746
 20
337.67455509247333
 30
0.0
  0
SEQEND
  5
2AB7D
  8
BUHIN-2
  6
HIDDEN
  0
POLYLINE
  5
2A34C
  8
BUHIN-2
  6
HIDDEN
 66
     1
 10
0.0
 20
0.0
 30
0.0
  0
VERTEX
  5
2AB7E
  8
BUHIN-2
  6
HIDDEN
 10
608.04124747773756
 20
364.51788709247319
 30
0.0
  0
VERTEX
  5
2AB7F
  8
BUHIN-2
  6
HIDDEN
 10
608.0028034777373
 20
364.14439909247329
 30
0.0
  0
VERTEX
  5
2AB80
  8
BUHIN-2
  6
HIDDEN
 10
607.88898947773748
 20
363.7852670924733
 30
0.0
  0
VERTEX
  5
2AB81
  8
BUHIN-2
  6
HIDDEN
 10
607.70417347773753
 20
363.45428909247329
 30
0.0
  0
VERTEX
  5
2AB82
  8
BUHIN-2
  6
HIDDEN
 10
607.45546147773734
 20
363.16418309247331
 30
0.0
  0
SEQEND
  5
2AB83
  8
BUHIN-2
  6
HIDDEN
  0
LINE
  5
2A34D
  8
BUHIN-2
  6
HIDDEN
 10
607.3696994777373
 20
363.24403709247321
 30
0.0
 11
607.36860347773734
 21
363.24298109247331
 31
0.0
  0
LINE
  5
2A34E
  8
BUHIN-2
  6
HIDDEN
 10
607.80041947773759
 20
363.65902309247321
 30
0.0
 11
607.3696994777373
 21
363.24403709247321
 31
0.0
  0
LINE
  5
2A34F
  8
BUHIN-2
  6
HIDDEN
 10
607.17357347773748
 20
363.17437509247333
 30
0.0
 11
607.06949747773729
 21
363.13740909247321
 31
0.0
  0
LINE
  5
2A350
  8
BUHIN-2
  6
HIDDEN
 10
607.3696994777373
 20
363.24403709247321
 30
0.0
 11
607.17357347773748
 21
363.17437509247333
 31
0.0
  0
LINE
  5
2A351
  8
BUHIN-2
  6
HIDDEN
 10
607.80041947773759
 20
363.65902309247321
 30
0.0
 11
607.45544747773715
 21
363.16419709247322
 31
0.0
  0
LINE
  5
2A352
  8
BUHIN-2
  6
HIDDEN
 10
607.36860347773734
 20
363.24298109247331
 30
0.0
 11
606.82399547773764
 21
362.98759109247339
 31
0.0
  0
LINE
  5
2A353
  8
BUHIN-2
  6
HIDDEN
 10
607.17357347773748
 20
363.17437509247333
 30
0.0
 11
607.14367347773748
 21
363.17173109247329
 31
0.0
  0
LINE
  5
2A354
  8
BUHIN-2
  6
HIDDEN
 10
588.59767947773742
 20
360.71004109247332
 30
0.0
 11
588.83087747773732
 21
360.67538309247328
 31
0.0
  0
LINE
  5
2A355
  8
BUHIN-2
  6
HIDDEN
 10
587.64122747773752
 20
360.85219509247321
 30
0.0
 11
588.59767947773742
 21
360.71004109247332
 31
0.0
  0
LINE
  5
2A356
  8
BUHIN-2
  6
HIDDEN
 10
587.96605347773755
 20
360.89137109247321
 30
0.0
 11
588.59767947773742
 21
360.71004109247332
 31
0.0
  0
LINE
  5
2A357
  8
BUHIN-2
  6
HIDDEN
 10
587.93064947773735
 20
360.90153509247318
 30
0.0
 11
587.96605347773755
 21
360.89137109247321
 31
0.0
  0
LINE
  5
2A358
  8
BUHIN-2
  6
HIDDEN
 10
588.65166747773753
 20
360.14893109247322
 30
0.0
 11
588.32628547773754
 21
359.7443990924732
 31
0.0
  0
LINE
  5
2A359
  8
BUHIN-2
  6
HIDDEN
 10
587.37559547773742
 20
361.34730309247328
 30
0.0
 11
587.96605347773755
 21
360.89137109247321
 31
0.0
  0
POLYLINE
  5
2A35A
  8
BUHIN-2
  6
HIDDEN
 66
     1
 10
0.0
 20
0.0
 30
0.0
  0
VERTEX
  5
2AB84
  8
BUHIN-2
  6
HIDDEN
 10
588.12280947773741
 20
296.38135509247331
 30
0.0
  0
VERTEX
  5
2AB85
  8
BUHIN-2
  6
HIDDEN
 10
588.05245147773735
 20
296.60878709247328
 30
0.0
  0
VERTEX
  5
2AB86
  8
BUHIN-2
  6
HIDDEN
 10
587.94306547773726
 20
296.82080709247327
 30
0.0
  0
VERTEX
  5
2AB87
  8
BUHIN-2
  6
HIDDEN
 10
587.63160947773736
 20
297.2615570924732
 30
0.0
  0
VERTEX
  5
2AB88
  8
BUHIN-2
  6
HIDDEN
 10
587.51943747773737
 20
297.40597709247328
 30
0.0
  0
VERTEX
  5
2AB89
  8
BUHIN-2
  6
HIDDEN
 10
587.5193454777376
 20
297.40632509247331
 30
0.0
  0
SEQEND
  5
2AB8A
  8
BUHIN-2
  6
HIDDEN
  0
LINE
  5
2A35B
  8
BUHIN-2
  6
HIDDEN
 10
587.71692347773728
 20
296.4063250924732
 30
0.0
 11
586.84987547773733
 21
296.4063250924732
 31
0.0
  0
ARC
  5
2A35C
  8
BUHIN-2
  6
HIDDEN
 10
587.66778747773731
 20
295.90633109247329
 30
0.0
 40
0.5
 50
11.788698000000281
 51
63.928400000000742
  0
LINE
  5
2A35D
  8
BUHIN-2
  6
HIDDEN
 10
587.69161547773763
 20
296.4063250924732
 30
0.0
 11
587.90611347773745
 21
296.35648509247329
 31
0.0
  0
LINE
  5
2A35E
  8
BUHIN-2
  6
HIDDEN
 10
608.54122747773749
 20
289.57611509247317
 30
0.0
 11
608.04122747773749
 21
289.57611509247317
 31
0.0
  0
POLYLINE
  5
2A35F
  8
BUHIN-2
  6
HIDDEN
 66
     1
 10
0.0
 20
0.0
 30
0.0
  0
VERTEX
  5
2AB8B
  8
BUHIN-2
  6
HIDDEN
 10
608.04122747773749
 20
285.92313909247332
 30
0.0
  0
VERTEX
  5
2AB8C
  8
BUHIN-2
  6
HIDDEN
 10
608.05259947773754
 20
285.50771709247317
 30
0.0
  0
SEQEND
  5
2AB8D
  8
BUHIN-2
  6
HIDDEN
  0
POLYLINE
  5
2A360
  8
BUHIN-2
  6
HIDDEN
 66
     1
 10
0.0
 20
0.0
 30
0.0
  0
VERTEX
  5
2AB8E
  8
BUHIN-2
  6
HIDDEN
 10
608.54122747773749
 20
285.8715910924733
 30
0.0
  0
VERTEX
  5
2AB8F
  8
BUHIN-2
  6
HIDDEN
 10
608.37021547773725
 20
285.0094890924733
 30
0.0
  0
VERTEX
  5
2AB90
  8
BUHIN-2
  6
HIDDEN
 10
608.28381347773745
 20
284.69711109247328
 30
0.0
  0
VERTEX
  5
2AB91
  8
BUHIN-2
  6
HIDDEN
 10
608.22616347773715
 20
284.58955509247329
 30
0.0
  0
VERTEX
  5
2AB92
  8
BUHIN-2
  6
HIDDEN
 10
608.19960547773724
 20
284.57611509247317
 30
0.0
  0
SEQEND
  5
2AB93
  8
BUHIN-2
  6
HIDDEN
  0
POLYLINE
  5
2A361
  8
BUHIN-2
  6
HIDDEN
 66
     1
 10
0.0
 20
0.0
 30
0.0
  0
VERTEX
  5
2AB94
  8
BUHIN-2
  6
HIDDEN
 10
608.19960547773724
 20
284.57611509247317
 30
0.0
  0
VERTEX
  5
2AB95
  8
BUHIN-2
  6
HIDDEN
 10
608.1734354777376
 20
284.59110109247331
 30
0.0
  0
VERTEX
  5
2AB96
  8
BUHIN-2
  6
HIDDEN
 10
608.12709947773715
 20
284.71060309247332
 30
0.0
  0
VERTEX
  5
2AB97
  8
BUHIN-2
  6
HIDDEN
 10
608.07461747773755
 20
285.10730509247333
 30
0.0
  0
VERTEX
  5
2AB98
  8
BUHIN-2
  6
HIDDEN
 10
608.05258347773747
 20
285.50771709247317
 30
0.0
  0
SEQEND
  5
2AB99
  8
BUHIN-2
  6
HIDDEN
  0
POLYLINE
  5
2A362
  8
BUHIN-2
  6
HIDDEN
 66
     1
 10
0.0
 20
0.0
 30
0.0
  0
VERTEX
  5
2AB9A
  8
BUHIN-2
  6
HIDDEN
 10
608.54122747773749
 20
286.21805509247332
 30
0.0
  0
VERTEX
  5
2AB9B
  8
BUHIN-2
  6
HIDDEN
 10
608.47874947773732
 20
286.56379709247329
 30
0.0
  0
VERTEX
  5
2AB9C
  8
BUHIN-2
  6
HIDDEN
 10
608.34230547773757
 20
287.82821709247321
 30
0.0
  0
VERTEX
  5
2AB9D
  8
BUHIN-2
  6
HIDDEN
 10
608.17359347773743
 20
289.96059509247328
 30
0.0
  0
VERTEX
  5
2AB9E
  8
BUHIN-2
  6
HIDDEN
 10
608.07938947773744
 20
291.70169309247331
 30
0.0
  0
VERTEX
  5
2AB9F
  8
BUHIN-2
  6
HIDDEN
 10
608.05258547773735
 20
292.48268309247328
 30
0.0
  0
SEQEND
  5
2ABA0
  8
BUHIN-2
  6
HIDDEN
  0
POLYLINE
  5
2A363
  8
BUHIN-2
  6
HIDDEN
 66
     1
 10
0.0
 20
0.0
 30
0.0
  0
VERTEX
  5
2ABA1
  8
BUHIN-2
  6
HIDDEN
 10
608.04122747773749
 20
292.99020909247332
 30
0.0
  0
VERTEX
  5
2ABA2
  8
BUHIN-2
  6
HIDDEN
 10
608.0526014777372
 20
292.48272509247317
 30
0.0
  0
SEQEND
  5
2ABA3
  8
BUHIN-2
  6
HIDDEN
  0
LINE
  5
2A364
  8
BUHIN-2
  6
HIDDEN
 10
608.12969147773754
 20
292.57161709247328
 30
0.0
 11
608.12969547773753
 21
291.6802390924733
 31
0.0
  0
LINE
  5
2A365
  8
BUHIN-2
  6
HIDDEN
 10
608.19960547773724
 20
284.57611509247317
 30
0.0
 11
608.29122947773726
 21
284.5176390924733
 31
0.0
  0
LINE
  5
2A366
  8
BUHIN-2
  6
HIDDEN
 10
608.29122947773726
 20
284.5176390924733
 30
0.0
 11
608.54122747773749
 21
284.43589509247317
 31
0.0
  0
LINE
  5
2A367
  8
BUHIN-2
  6
HIDDEN
 10
608.12968747773755
 20
363.13089309247329
 30
0.0
 11
608.12968347773756
 21
362.24103909247327
 31
0.0
  0
LINE
  5
2A368
  8
BUHIN-2
  6
HIDDEN
 10
608.29122947773726
 20
370.2950110924732
 30
0.0
 11
608.19979547773744
 21
370.23654109247332
 31
0.0
  0
LINE
  5
2A369
  8
BUHIN-2
  6
HIDDEN
 10
608.54122747773749
 20
370.37675509247327
 30
0.0
 11
608.29122947773726
 21
370.2950110924732
 31
0.0
  0
POLYLINE
  5
2A36A
  8
BUHIN-2
  6
HIDDEN
 66
     1
 10
0.0
 20
0.0
 30
0.0
  0
VERTEX
  5
2ABA4
  8
BUHIN-2
  6
HIDDEN
 10
607.91745147773725
 20
290.9577970924733
 30
0.0
  0
VERTEX
  5
2ABA5
  8
BUHIN-2
  6
HIDDEN
 10
608.01004747773709
 20
290.63153309247332
 30
0.0
  0
VERTEX
  5
2ABA6
  8
BUHIN-2
  6
HIDDEN
 10
608.04124747773756
 20
290.29476309247332
 30
0.0
  0
SEQEND
  5
2ABA7
  8
BUHIN-2
  6
HIDDEN
  0
POLYLINE
  5
2A36B
  8
BUHIN-2
  6
HIDDEN
 66
     1
 10
0.0
 20
0.0
 30
0.0
  0
VERTEX
  5
2ABA8
  8
BUHIN-2
  6
HIDDEN
 10
576.11943547773751
 20
323.46700909247329
 30
0.0
  0
VERTEX
  5
2ABA9
  8
BUHIN-2
  6
HIDDEN
 10
576.17621947773728
 20
323.28243909247328
 30
0.0
  0
VERTEX
  5
2ABAA
  8
BUHIN-2
  6
HIDDEN
 10
576.2136794777374
 20
323.08995709247318
 30
0.0
  0
VERTEX
  5
2ABAB
  8
BUHIN-2
  6
HIDDEN
 10
576.2312814777373
 20
322.8922790924733
 30
0.0
  0
VERTEX
  5
2ABAC
  8
BUHIN-2
  6
HIDDEN
 10
576.22878147773724
 20
322.69219709247318
 30
0.0
  0
VERTEX
  5
2ABAD
  8
BUHIN-2
  6
HIDDEN
 10
576.20621347773726
 20
322.49253709247319
 30
0.0
  0
VERTEX
  5
2ABAE
  8
BUHIN-2
  6
HIDDEN
 10
576.16389347773725
 20
322.2961150924732
 30
0.0
  0
VERTEX
  5
2ABAF
  8
BUHIN-2
  6
HIDDEN
 10
576.10242347773715
 20
322.10570909247332
 30
0.0
  0
VERTEX
  5
2ABB0
  8
BUHIN-2
  6
HIDDEN
 10
576.02266747773763
 20
321.9240030924733
 30
0.0
  0
SEQEND
  5
2ABB1
  8
BUHIN-2
  6
HIDDEN
  0
ARC
  5
2A36C
  8
BUHIN-2
  6
HIDDEN
 10
586.84987147773734
 20
295.90633109247329
 30
0.0
 40
0.5
 50
89.999541000000718
 51
160.00500700000029
  0
ARC
  5
2A36D
  8
BUHIN-2
  6
HIDDEN
 10
586.84987547773733
 20
295.9063250924732
 30
0.0
 40
0.5
 50
136.77011500000069
 51
160.25712299999989
  0
LINE
  5
2A36E
  8
BUHIN-2
  6
HIDDEN
 10
588.03426947773721
 20
357.80616509247318
 30
0.0
 11
588.0359174777376
 21
357.71296109247322
 31
0.0
  0
LINE
  5
2A36F
  8
BUHIN-2
  6
HIDDEN
 10
588.03682547773747
 20
357.91110109247319
 30
0.0
 11
588.03426947773721
 21
357.80616509247318
 31
0.0
  0
LINE
  5
2A370
  8
BUHIN-2
  6
HIDDEN
 10
588.04406747773714
 20
358.02570309247329
 30
0.0
 11
588.03682547773747
 21
357.91110109247319
 31
0.0
  0
ARC
  5
2A371
  8
BUHIN-2
  6
HIDDEN
 10
608.0423974777375
 20
290.27212309247318
 30
0.0
 40
1.6324860000000001
 50
90.131763999993794
 51
96.199131999999437
  0
LINE
  5
2A372
  8
BUHIN-2
  6
HIDDEN
 10
607.3696994777373
 20
291.5686130924733
 30
0.0
 11
607.48800147773761
 21
291.52659309247321
 31
0.0
  0
LINE
  5
2A373
  8
BUHIN-2
  6
HIDDEN
 10
607.18993547773721
 20
291.6324630924733
 30
0.0
 11
607.3696994777373
 21
291.5686130924733
 31
0.0
  0
LINE
  5
2A374
  8
BUHIN-2
  6
HIDDEN
 10
607.23927947773734
 20
291.6324630924733
 30
0.0
 11
607.44173347773744
 21
291.6145590924732
 31
0.0
  0
LINE
  5
2A375
  8
BUHIN-2
  6
HIDDEN
 10
607.80041947773759
 20
291.15362709247319
 30
0.0
 11
608.04122747773749
 21
290.68923709247332
 31
0.0
  0
LINE
  5
2A376
  8
BUHIN-2
  6
HIDDEN
 10
607.3696994777373
 20
291.5686130924733
 30
0.0
 11
607.80041947773759
 21
291.15362709247319
 31
0.0
  0
LINE
  5
2A377
  8
BUHIN-2
  6
HIDDEN
 10
592.15852347773739
 20
292.07719509247318
 30
0.0
 11
592.48297547773734
 21
291.99504509247328
 31
0.0
  0
LINE
  5
2A378
  8
BUHIN-2
  6
HIDDEN
 10
591.66009747773739
 20
292.22155509247318
 30
0.0
 11
592.15852347773739
 21
292.07719509247318
 31
0.0
  0
LINE
  5
2A379
  8
BUHIN-2
  6
HIDDEN
 10
588.77804747773723
 20
294.62375109247319
 30
0.0
 11
588.8584414777373
 21
294.49624309247321
 31
0.0
  0
LINE
  5
2A37A
  8
BUHIN-2
  6
HIDDEN
 10
588.8584414777373
 20
294.49624309247321
 30
0.0
 11
589.01847147773719
 21
294.25213109247318
 31
0.0
  0
ARC
  5
2A37B
  8
BUHIN-2
  6
HIDDEN
 10
587.71673747773764
 20
295.90633109247329
 30
0.0
 40
0.5
 50
14.442469000000321
 51
39.635220000002811
  0
LINE
  5
2A37C
  8
BUHIN-2
  6
HIDDEN
 10
587.92948147773757
 20
296.35881109247327
 30
0.0
 11
588.12263347773728
 21
296.18481309247318
 31
0.0
  0
LINE
  5
2A37D
  8
BUHIN-2
  6
HIDDEN
 10
587.92948147773757
 20
296.35881109247327
 30
0.0
 11
587.93073547773724
 21
296.35797509247328
 31
0.0
  0
ARC
  5
2A37E
  8
BUHIN-2
  6
HIDDEN
 10
587.71692747773727
 20
295.90633109247329
 30
0.0
 40
0.5
 50
14.467410000001671
 51
90.000550000003244
  0
POLYLINE
  5
2A37F
  8
BUHIN-2
  6
HIDDEN
 66
     1
 10
0.0
 20
0.0
 30
0.0
  0
VERTEX
  5
2ABB2
  8
BUHIN-2
  6
HIDDEN
 10
602.36804747773726
 20
338.77573709247321
 30
0.0
  0
VERTEX
  5
2ABB3
  8
BUHIN-2
  6
HIDDEN
 10
601.62842747773755
 20
340.29384909247318
 30
0.0
  0
VERTEX
  5
2ABB4
  8
BUHIN-2
  6
HIDDEN
 10
601.31775147773749
 20
340.97832109247332
 30
0.0
  0
VERTEX
  5
2ABB5
  8
BUHIN-2
  6
HIDDEN
 10
600.94947747773745
 20
341.89148709247331
 30
0.0
  0
VERTEX
  5
2ABB6
  8
BUHIN-2
  6
HIDDEN
 10
600.58798347773734
 20
342.6740430924732
 30
0.0
  0
VERTEX
  5
2ABB7
  8
BUHIN-2
  6
HIDDEN
 10
600.17651947773754
 20
343.46406709247327
 30
0.0
  0
VERTEX
  5
2ABB8
  8
BUHIN-2
  6
HIDDEN
 10
599.72058947773735
 20
344.25750309247331
 30
0.0
  0
VERTEX
  5
2ABB9
  8
BUHIN-2
  6
HIDDEN
 10
599.22239347773746
 20
345.04881709247331
 30
0.0
  0
VERTEX
  5
2ABBA
  8
BUHIN-2
  6
HIDDEN
 10
598.67968347773717
 20
345.82962709247317
 30
0.0
  0
VERTEX
  5
2ABBB
  8
BUHIN-2
  6
HIDDEN
 10
598.19888347773735
 20
346.45517709247332
 30
0.0
  0
VERTEX
  5
2ABBC
  8
BUHIN-2
  6
HIDDEN
 10
597.80659147773736
 20
346.9040170924734
 30
0.0
  0
VERTEX
  5
2ABBD
  8
BUHIN-2
  6
HIDDEN
 10
597.49080747773746
 20
347.2227910924733
 30
0.0
  0
VERTEX
  5
2ABBE
  8
BUHIN-2
  6
HIDDEN
 10
597.15021747773733
 20
347.51674709247328
 30
0.0
  0
VERTEX
  5
2ABBF
  8
BUHIN-2
  6
HIDDEN
 10
596.90527547773752
 20
347.69092509247332
 30
0.0
  0
VERTEX
  5
2ABC0
  8
BUHIN-2
  6
HIDDEN
 10
596.64390147773724
 20
347.83927309247332
 30
0.0
  0
VERTEX
  5
2ABC1
  8
BUHIN-2
  6
HIDDEN
 10
596.36580347773759
 20
347.95200109247332
 30
0.0
  0
VERTEX
  5
2ABC2
  8
BUHIN-2
  6
HIDDEN
 10
596.07287147773718
 20
348.01666309247321
 30
0.0
  0
VERTEX
  5
2ABC3
  8
BUHIN-2
  6
HIDDEN
 10
595.61333547773745
 20
348.04069909247329
 30
0.0
  0
VERTEX
  5
2ABC4
  8
BUHIN-2
  6
HIDDEN
 10
594.78720347773731
 20
348.02529909247329
 30
0.0
  0
VERTEX
  5
2ABC5
  8
BUHIN-2
  6
HIDDEN
 10
593.96305547773761
 20
347.96510309247333
 30
0.0
  0
VERTEX
  5
2ABC6
  8
BUHIN-2
  6
HIDDEN
 10
593.69862347773767
 20
347.92709109247329
 30
0.0
  0
VERTEX
  5
2ABC7
  8
BUHIN-2
  6
HIDDEN
 10
593.57917347773741
 20
347.8960810924732
 30
0.0
  0
SEQEND
  5
2ABC8
  8
BUHIN-2
  6
HIDDEN
  0
POLYLINE
  5
2A380
  8
BUHIN-2
  6
HIDDEN
 66
     1
 10
0.0
 20
0.0
 30
0.0
  0
VERTEX
  5
2ABC9
  8
BUHIN-2
  6
HIDDEN
 10
593.57860547773748
 20
347.8981490924732
 30
0.0
  0
VERTEX
  5
2ABCA
  8
BUHIN-2
  6
HIDDEN
 10
591.1727554777375
 20
347.16571309247331
 30
0.0
  0
VERTEX
  5
2ABCB
  8
BUHIN-2
  6
HIDDEN
 10
590.4201814777374
 20
346.9161910924733
 30
0.0
  0
VERTEX
  5
2ABCC
  8
BUHIN-2
  6
HIDDEN
 10
589.86368147773715
 20
346.69487109247319
 30
0.0
  0
VERTEX
  5
2ABCD
  8
BUHIN-2
  6
HIDDEN
 10
589.49292747773768
 20
346.50959309247332
 30
0.0
  0
VERTEX
  5
2ABCE
  8
BUHIN-2
  6
HIDDEN
 10
589.17315947773739
 20
346.30132309247318
 30
0.0
  0
VERTEX
  5
2ABCF
  8
BUHIN-2
  6
HIDDEN
 10
588.99036347773733
 20
346.14443309247321
 30
0.0
  0
VERTEX
  5
2ABD0
  8
BUHIN-2
  6
HIDDEN
 10
588.83289547773745
 20
345.96906709247332
 30
0.0
  0
VERTEX
  5
2ABD1
  8
BUHIN-2
  6
HIDDEN
 10
588.70112147773739
 20
345.77194109247318
 30
0.0
  0
VERTEX
  5
2ABD2
  8
BUHIN-2
  6
HIDDEN
 10
588.59479547773742
 20
345.55029709247327
 30
0.0
  0
VERTEX
  5
2ABD3
  8
BUHIN-2
  6
HIDDEN
 10
588.36239547773755
 20
344.76469309247329
 30
0.0
  0
VERTEX
  5
2ABD4
  8
BUHIN-2
  6
HIDDEN
 10
588.24800947773736
 20
344.45279709247319
 30
0.0
  0
VERTEX
  5
2ABD5
  8
BUHIN-2
  6
HIDDEN
 10
588.1475254777373
 20
344.24943709247322
 30
0.0
  0
VERTEX
  5
2ABD6
  8
BUHIN-2
  6
HIDDEN
 10
588.10604147773745
 20
344.19424109247331
 30
0.0
  0
VERTEX
  5
2ABD7
  8
BUHIN-2
  6
HIDDEN
 10
588.07001347773746
 20
344.18473909247331
 30
0.0
  0
VERTEX
  5
2ABD8
  8
BUHIN-2
  6
HIDDEN
 10
588.04881747773732
 20
344.21194709247328
 30
0.0
  0
SEQEND
  5
2ABD9
  8
BUHIN-2
  6
HIDDEN
  0
POLYLINE
  5
2A381
  8
BUHIN-2
  6
HIDDEN
 66
     1
 10
0.0
 20
0.0
 30
0.0
  0
VERTEX
  5
2ABDA
  8
BUHIN-2
  6
HIDDEN
 10
588.03577947773715
 20
344.6363290924732
 30
0.0
  0
VERTEX
  5
2ABDB
  8
BUHIN-2
  6
HIDDEN
 10
587.83191547773708
 20
343.0407790924732
 30
0.0
  0
SEQEND
  5
2ABDC
  8
BUHIN-2
  6
HIDDEN
  0
POLYLINE
  5
2A382
  8
BUHIN-2
  6
HIDDEN
 66
     1
 10
0.0
 20
0.0
 30
0.0
  0
VERTEX
  5
2ABDD
  8
BUHIN-2
  6
HIDDEN
 10
587.16357347773715
 20
334.2998370924733
 30
0.0
  0
VERTEX
  5
2ABDE
  8
BUHIN-2
  6
HIDDEN
 10
587.44760147773718
 20
334.35043309247328
 30
0.0
  0
VERTEX
  5
2ABDF
  8
BUHIN-2
  6
HIDDEN
 10
587.77248547773729
 20
334.35287309247332
 30
0.0
  0
VERTEX
  5
2ABE0
  8
BUHIN-2
  6
HIDDEN
 10
588.14451347773763
 20
334.31073909247328
 30
0.0
  0
VERTEX
  5
2ABE1
  8
BUHIN-2
  6
HIDDEN
 10
588.7150654777372
 20
334.19272709247321
 30
0.0
  0
VERTEX
  5
2ABE2
  8
BUHIN-2
  6
HIDDEN
 10
591.54550747773715
 20
333.38108909247319
 30
0.0
  0
VERTEX
  5
2ABE3
  8
BUHIN-2
  6
HIDDEN
 10
592.87960747773718
 20
333.02343709247327
 30
0.0
  0
VERTEX
  5
2ABE4
  8
BUHIN-2
  6
HIDDEN
 10
594.6767154777375
 20
332.59833709247329
 30
0.0
  0
VERTEX
  5
2ABE5
  8
BUHIN-2
  6
HIDDEN
 10
595.6392374777372
 20
332.39879309247323
 30
0.0
  0
VERTEX
  5
2ABE6
  8
BUHIN-2
  6
HIDDEN
 10
596.21712347773735
 20
332.3094890924732
 30
0.0
  0
VERTEX
  5
2ABE7
  8
BUHIN-2
  6
HIDDEN
 10
596.67378747773762
 20
332.2691490924733
 30
0.0
  0
VERTEX
  5
2ABE8
  8
BUHIN-2
  6
HIDDEN
 10
597.12663147773753
 20
332.26263109247333
 30
0.0
  0
VERTEX
  5
2ABE9
  8
BUHIN-2
  6
HIDDEN
 10
597.57062947773716
 20
332.29476709247331
 30
0.0
  0
VERTEX
  5
2ABEA
  8
BUHIN-2
  6
HIDDEN
 10
598.00017947773756
 20
332.36828509247329
 30
0.0
  0
VERTEX
  5
2ABEB
  8
BUHIN-2
  6
HIDDEN
 10
598.4100094777375
 20
332.48263909247328
 30
0.0
  0
VERTEX
  5
2ABEC
  8
BUHIN-2
  6
HIDDEN
 10
598.75139947773721
 20
332.61261309247328
 30
0.0
  0
VERTEX
  5
2ABED
  8
BUHIN-2
  6
HIDDEN
 10
599.1354314777376
 20
332.80446509247332
 30
0.0
  0
VERTEX
  5
2ABEE
  8
BUHIN-2
  6
HIDDEN
 10
599.48985747773747
 20
333.0257410924732
 30
0.0
  0
VERTEX
  5
2ABEF
  8
BUHIN-2
  6
HIDDEN
 10
599.87781147773728
 20
333.31972909247332
 30
0.0
  0
VERTEX
  5
2ABF0
  8
BUHIN-2
  6
HIDDEN
 10
600.34722547773742
 20
333.74802709247331
 30
0.0
  0
VERTEX
  5
2ABF1
  8
BUHIN-2
  6
HIDDEN
 10
600.78711547773753
 20
334.21142909247322
 30
0.0
  0
VERTEX
  5
2ABF2
  8
BUHIN-2
  6
HIDDEN
 10
601.25035347773735
 20
334.76624909247329
 30
0.0
  0
VERTEX
  5
2ABF3
  8
BUHIN-2
  6
HIDDEN
 10
601.67793547773761
 20
335.3418430924732
 30
0.0
  0
VERTEX
  5
2ABF4
  8
BUHIN-2
  6
HIDDEN
 10
602.08476147773752
 20
335.95500709247329
 30
0.0
  0
VERTEX
  5
2ABF5
  8
BUHIN-2
  6
HIDDEN
 10
602.39758947773748
 20
336.48099109247329
 30
0.0
  0
SEQEND
  5
2ABF6
  8
BUHIN-2
  6
HIDDEN
  0
LINE
  5
2A383
  8
BUHIN-2
  6
HIDDEN
 10
586.72841547773737
 20
334.27884709247331
 30
0.0
 11
586.65100147773762
 21
334.07076909247331
 31
0.0
  0
LINE
  5
2A384
  8
BUHIN-2
  6
HIDDEN
 10
586.65100147773762
 20
334.07076909247331
 30
0.0
 11
586.4931354777375
 21
333.91658109247328
 31
0.0
  0
POLYLINE
  5
2A385
  8
BUHIN-2
  6
HIDDEN
 66
     1
 10
0.0
 20
0.0
 30
0.0
  0
VERTEX
  5
2ABF7
  8
BUHIN-2
  6
HIDDEN
 10
604.88142547773748
 20
313.25062309247329
 30
0.0
  0
VERTEX
  5
2ABF8
  8
BUHIN-2
  6
HIDDEN
 10
603.71594347773748
 20
313.7439490924732
 30
0.0
  0
VERTEX
  5
2ABF9
  8
BUHIN-2
  6
HIDDEN
 10
602.33444547773729
 20
314.38110709247331
 30
0.0
  0
VERTEX
  5
2ABFA
  8
BUHIN-2
  6
HIDDEN
 10
599.05648947773739
 20
315.99393909247328
 30
0.0
  0
VERTEX
  5
2ABFB
  8
BUHIN-2
  6
HIDDEN
 10
597.73130947773723
 20
316.61961909247327
 30
0.0
  0
VERTEX
  5
2ABFC
  8
BUHIN-2
  6
HIDDEN
 10
596.60450347773747
 20
317.1120210924733
 30
0.0
  0
VERTEX
  5
2ABFD
  8
BUHIN-2
  6
HIDDEN
 10
595.61254147773741
 20
317.5067430924733
 30
0.0
  0
VERTEX
  5
2ABFE
  8
BUHIN-2
  6
HIDDEN
 10
595.48747547773735
 20
317.55368709247318
 30
0.0
  0
SEQEND
  5
2ABFF
  8
BUHIN-2
  6
HIDDEN
  0
LINE
  5
2A386
  8
BUHIN-2
  6
HIDDEN
 10
569.02839747773749
 20
299.65453509247328
 30
0.0
 11
568.90195347773749
 21
299.45264309247318
 31
0.0
  0
LINE
  5
2A387
  8
BUHIN-2
  6
HIDDEN
 10
611.07810947773737
 20
370.37631509247331
 30
0.0
 11
618.04122747773761
 21
370.37511109247328
 31
0.0
  0
LINE
  5
2A388
  8
BUHIN-2
  6
HIDDEN
 10
607.33882547773715
 20
291.6324630924733
 30
0.0
 11
593.54122747773761
 21
291.6324630924733
 31
0.0
  0
LINE
  5
2A389
  8
BUHIN-2
  6
HIDDEN
 10
586.50084947773746
 20
296.23442509247332
 30
0.0
 11
586.37897547773753
 21
296.07411109247329
 31
0.0
  0
LINE
  5
2A38A
  8
BUHIN-2
  6
HIDDEN
 10
573.99748747773754
 20
317.21723909247328
 30
0.0
 11
573.55602947773718
 21
316.63695109247328
 31
0.0
  0
LINE
  5
2A38B
  8
BUHIN-2
  6
HIDDEN
 10
606.43120347773754
 20
295.14442909247327
 30
0.0
 11
607.06078347773735
 21
294.91415509247321
 31
0.0
  0
LINE
  5
2A38C
  8
BUHIN-2
  6
HIDDEN
 10
588.81852547773758
 20
303.96479309247331
 30
0.0
 11
588.66724547773754
 21
303.9566870924732
 31
0.0
  0
LINE
  5
2A38D
  8
BUHIN-2
  6
HIDDEN
 10
588.97354347773739
 20
360.69850109247329
 30
0.0
 11
588.83087747773732
 21
360.67538309247328
 31
0.0
  0
LINE
  5
2A38E
  8
BUHIN-2
  6
HIDDEN
 10
607.18993547773721
 20
363.1801870924732
 30
0.0
 11
593.54122747773761
 21
363.1801870924732
 31
0.0
  0
LINE
  5
2A38F
  8
BUHIN-2
  6
HIDDEN
 10
618.04122747773761
 20
284.43753709247329
 30
0.0
 11
608.54122747773749
 21
284.43589509247317
 31
0.0
  0
LINE
  5
2A390
  8
BUHIN-2
  6
HIDDEN
 10
608.54122747773749
 20
370.37675509247327
 30
0.0
 11
618.04122747773761
 21
370.37394309247333
 31
0.0
  0
POLYLINE
  5
2A392
  8
BUHIN-2
  6
CONTINUOUS
 66
     1
 10
0.0
 20
0.0
 30
0.0
  0
VERTEX
  5
2AC00
  8
BUHIN-2
  6
CONTINUOUS
 10
509.59956347773721
 20
265.20660909247317
 30
0.0
  0
VERTEX
  5
2AC01
  8
BUHIN-2
  6
CONTINUOUS
 10
510.62760747773729
 20
265.29746309247332
 30
0.0
  0
VERTEX
  5
2AC02
  8
BUHIN-2
  6
CONTINUOUS
 10
511.4972494777374
 20
265.34803109247332
 30
0.0
  0
SEQEND
  5
2AC03
  8
BUHIN-2
  6
CONTINUOUS
  0
LINE
  5
2A393
  8
BUHIN-2
  6
CONTINUOUS
 10
509.59956347773721
 20
265.20660909247317
 30
0.0
 11
486.34581347773729
 21
264.8007130924733
 31
0.0
  0
LINE
  5
2A394
  8
BUHIN-2
  6
CONTINUOUS
 10
520.54995547773729
 20
265.3977490924733
 30
0.0
 11
515.29080547773754
 21
265.30595109247332
 31
0.0
  0
LINE
  5
2A395
  8
BUHIN-2
  6
CONTINUOUS
 10
480.5243794777374
 20
322.11354909247331
 30
0.0
 11
511.85646547773717
 21
321.56664509247332
 31
0.0
  0
POLYLINE
  5
2A396
  8
BUHIN-2
  6
CONTINUOUS
 66
     1
 10
0.0
 20
0.0
 30
0.0
  0
VERTEX
  5
2AC04
  8
BUHIN-2
  6
CONTINUOUS
 10
519.5614834777374
 20
296.98246909247331
 30
0.0
  0
VERTEX
  5
2AC05
  8
BUHIN-2
  6
CONTINUOUS
 10
519.69836147773719
 20
296.36238709247328
 30
0.0
  0
SEQEND
  5
2AC06
  8
BUHIN-2
  6
CONTINUOUS
  0
POLYLINE
  5
2A397
  8
BUHIN-2
  6
CONTINUOUS
 66
     1
 10
0.0
 20
0.0
 30
0.0
  0
VERTEX
  5
2AC07
  8
BUHIN-2
  6
CONTINUOUS
 10
520.99069947773739
 20
286.20108109247332
 30
0.0
  0
VERTEX
  5
2AC08
  8
BUHIN-2
  6
CONTINUOUS
 10
521.0332034777374
 20
284.71876509247318
 30
0.0
  0
VERTEX
  5
2AC09
  8
BUHIN-2
  6
CONTINUOUS
 10
521.04122747773749
 20
283.74481509247329
 30
0.0
  0
SEQEND
  5
2AC0A
  8
BUHIN-2
  6
CONTINUOUS
  0
POLYLINE
  5
2A398
  8
BUHIN-2
  6
CONTINUOUS
 66
     1
 10
0.0
 20
0.0
 30
0.0
  0
VERTEX
  5
2AC0B
  8
BUHIN-2
  6
CONTINUOUS
 10
512.32589147773729
 20
321.21290709247319
 30
0.0
  0
VERTEX
  5
2AC0C
  8
BUHIN-2
  6
CONTINUOUS
 10
518.41951347773727
 20
301.28156509247327
 30
0.0
  0
VERTEX
  5
2AC0D
  8
BUHIN-2
  6
CONTINUOUS
 10
518.84218147773743
 20
299.83418309247332
 30
0.0
  0
VERTEX
  5
2AC0E
  8
BUHIN-2
  6
CONTINUOUS
 10
519.1061074777374
 20
298.85446309247328
 30
0.0
  0
SEQEND
  5
2AC0F
  8
BUHIN-2
  6
CONTINUOUS
  0
POLYLINE
  5
2A399
  8
BUHIN-2
  6
CONTINUOUS
 66
     1
 10
0.0
 20
0.0
 30
0.0
  0
VERTEX
  5
2AC10
  8
BUHIN-2
  6
CONTINUOUS
 10
520.83419947773734
 20
288.7195270924733
 30
0.0
  0
VERTEX
  5
2AC11
  8
BUHIN-2
  6
CONTINUOUS
 10
520.87595147773743
 20
288.18992709247328
 30
0.0
  0
SEQEND
  5
2AC12
  8
BUHIN-2
  6
CONTINUOUS
  0
POLYLINE
  5
2A39A
  8
BUHIN-2
  6
CONTINUOUS
 66
     1
 10
0.0
 20
0.0
 30
0.0
  0
VERTEX
  5
2AC13
  8
BUHIN-2
  6
CONTINUOUS
 10
520.18720547773762
 20
293.82647709247323
 30
0.0
  0
VERTEX
  5
2AC14
  8
BUHIN-2
  6
CONTINUOUS
 10
520.38174947773746
 20
292.61057109247332
 30
0.0
  0
SEQEND
  5
2AC15
  8
BUHIN-2
  6
CONTINUOUS
  0
POLYLINE
  5
2A39B
  8
BUHIN-2
  6
CONTINUOUS
 66
     1
 10
0.0
 20
0.0
 30
0.0
  0
VERTEX
  5
2AC16
  8
BUHIN-2
  6
CONTINUOUS
 10
519.20629947773739
 20
298.46424909247332
 30
0.0
  0
VERTEX
  5
2AC17
  8
BUHIN-2
  6
CONTINUOUS
 10
519.56148747773739
 20
296.98246909247331
 30
0.0
  0
SEQEND
  5
2AC18
  8
BUHIN-2
  6
CONTINUOUS
  0
POLYLINE
  5
2A39C
  8
BUHIN-2
  6
CONTINUOUS
 66
     1
 10
0.0
 20
0.0
 30
0.0
  0
VERTEX
  5
2AC19
  8
BUHIN-2
  6
CONTINUOUS
 10
519.69717147773724
 20
296.36213109247319
 30
0.0
  0
VERTEX
  5
2AC1A
  8
BUHIN-2
  6
CONTINUOUS
 10
520.02800547773745
 20
294.67953509247332
 30
0.0
  0
VERTEX
  5
2AC1B
  8
BUHIN-2
  6
CONTINUOUS
 10
520.28410747773728
 20
293.21845509247328
 30
0.0
  0
VERTEX
  5
2AC1C
  8
BUHIN-2
  6
CONTINUOUS
 10
520.52229147773755
 20
291.57952309247332
 30
0.0
  0
VERTEX
  5
2AC1D
  8
BUHIN-2
  6
CONTINUOUS
 10
520.75193347773745
 20
289.57101109247333
 30
0.0
  0
VERTEX
  5
2AC1E
  8
BUHIN-2
  6
CONTINUOUS
 10
520.8337214777373
 20
288.71948709247317
 30
0.0
  0
SEQEND
  5
2AC1F
  8
BUHIN-2
  6
CONTINUOUS
  0
LINE
  5
2A39D
  8
BUHIN-2
  6
CONTINUOUS
 10
519.17570547773755
 20
298.57897909247328
 30
0.0
 11
519.20804147773731
 21
298.45215709247333
 31
0.0
  0
LINE
  5
2A39E
  8
BUHIN-2
  6
CONTINUOUS
 10
519.10550547773744
 20
298.85430709247328
 30
0.0
 11
519.17570547773755
 21
298.57897909247328
 31
0.0
  0
LINE
  5
2A39F
  8
BUHIN-2
  6
CONTINUOUS
 10
519.91887147773718
 20
295.26679709247321
 30
0.0
 11
520.18596147773746
 21
293.82626509247331
 31
0.0
  0
LINE
  5
2A3A0
  8
BUHIN-2
  6
CONTINUOUS
 10
520.97172747773755
 20
286.61714709247332
 30
0.0
 11
520.98952947773739
 21
286.20103309247332
 31
0.0
  0
LINE
  5
2A3A1
  8
BUHIN-2
  6
CONTINUOUS
 10
520.87593147773737
 20
288.18992509247329
 30
0.0
 11
520.97172747773755
 21
286.61714709247332
 31
0.0
  0
LINE
  5
2A3A2
  8
BUHIN-2
  6
CONTINUOUS
 10
519.17570547773755
 20
298.57897909247328
 30
0.0
 11
519.20827147773741
 21
298.45233309247328
 31
0.0
  0
LINE
  5
2A3A3
  8
BUHIN-2
  6
CONTINUOUS
 10
520.38929347773762
 20
292.55875509247329
 30
0.0
 11
520.56625147773764
 21
291.2702070924733
 31
0.0
  0
LINE
  5
2A3A4
  8
BUHIN-2
  6
CONTINUOUS
 10
520.98211347773736
 20
286.3743970924732
 30
0.0
 11
520.98977347773769
 21
286.20088709247318
 31
0.0
  0
LINE
  5
2A3A5
  8
BUHIN-2
  6
CONTINUOUS
 10
521.04122747773749
 20
283.74479109247329
 30
0.0
 11
521.04122747773749
 21
265.89767309247333
 31
0.0
  0
LINE
  5
2A3A6
  8
BUHIN-2
  6
CONTINUOUS
 10
479.01486347773732
 20
288.20849909247318
 30
0.0
 11
473.45157947773743
 21
249.5316910924733
 31
0.0
  0
LINE
  5
2A3A7
  8
BUHIN-2
  6
CONTINUOUS
 10
486.14931947773749
 20
264.60074709247323
 30
0.0
 11
486.14931947773749
 21
260.4778810924733
 31
0.0
  0
ARC
  5
2A3A8
  8
BUHIN-2
  6
CONTINUOUS
 10
2360.2436914777368
 20
250.34905709247329
 30
0.0
 40
1874.0972079999999
 50
179.97227199999881
 51
180.0300520000001
  0
ARC
  5
2A3A9
  8
BUHIN-2
  6
CONTINUOUS
 10
1287.3344254777371
 20
249.77902909247319
 30
0.0
 40
801.18779199999994
 50
180.0295299999998
 51
180.148303999999
  0
POLYLINE
  5
2A3AA
  8
BUHIN-2
  6
CONTINUOUS
 66
     1
 10
0.0
 20
0.0
 30
0.0
  0
VERTEX
  5
2AC20
  8
BUHIN-2
  6
CONTINUOUS
 10
486.14931947773749
 20
260.4778810924733
 30
0.0
  0
VERTEX
  5
2AC21
  8
BUHIN-2
  6
CONTINUOUS
 10
486.14670347773728
 20
251.25602509247329
 30
0.0
  0
SEQEND
  5
2AC22
  8
BUHIN-2
  6
CONTINUOUS
  0
ARC
  5
2A3AB
  8
BUHIN-2
  6
CONTINUOUS
 10
480.50692747773729
 20
321.11370109247332
 30
0.0
 40
1.0
 50
88.999999999998266
 51
178.41068999999919
  0
ARC
  5
2A3AC
  8
BUHIN-2
  6
CONTINUOUS
 10
1479.1226194777371
 20
293.40632509247331
 30
0.0
 40
1000.0
 50
178.41069100000101
 51
180.0
  0
ARC
  5
2A3AD
  8
BUHIN-2
  6
CONTINUOUS
 10
1479.1411834777371
 20
293.40636509247332
 30
0.0
 40
1000.018564
 50
180.00000200000119
 51
180.25011300000011
  0
POLYLINE
  5
2A3AE
  8
BUHIN-2
  6
CONTINUOUS
 66
     1
 10
0.0
 20
0.0
 30
0.0
  0
VERTEX
  5
2AC23
  8
BUHIN-2
  6
CONTINUOUS
 10
476.1537294777375
 20
196.9895430924733
 30
0.0
  0
VERTEX
  5
2AC24
  8
BUHIN-2
  6
CONTINUOUS
 10
480.70327947773728
 20
197.00021909247329
 30
0.0
  0
SEQEND
  5
2AC25
  8
BUHIN-2
  6
CONTINUOUS
  0
POLYLINE
  5
2A3AF
  8
BUHIN-2
  6
CONTINUOUS
 66
     1
 10
0.0
 20
0.0
 30
0.0
  0
VERTEX
  5
2AC26
  8
BUHIN-2
  6
CONTINUOUS
 10
474.84761747773729
 20
200.17100109247329
 30
0.0
  0
VERTEX
  5
2AC27
  8
BUHIN-2
  6
CONTINUOUS
 10
474.33557347773728
 20
201.77234909247329
 30
0.0
  0
VERTEX
  5
2AC28
  8
BUHIN-2
  6
CONTINUOUS
 10
473.88156547773758
 20
203.3913330924733
 30
0.0
  0
SEQEND
  5
2AC29
  8
BUHIN-2
  6
CONTINUOUS
  0
POLYLINE
  5
2A3B0
  8
BUHIN-2
  6
CONTINUOUS
 66
     1
 10
0.0
 20
0.0
 30
0.0
  0
VERTEX
  5
2AC2A
  8
BUHIN-2
  6
CONTINUOUS
 10
476.1537294777375
 20
196.9895430924733
 30
0.0
  0
VERTEX
  5
2AC2B
  8
BUHIN-2
  6
CONTINUOUS
 10
475.53336747773739
 20
198.3900610924733
 30
0.0
  0
VERTEX
  5
2AC2C
  8
BUHIN-2
  6
CONTINUOUS
 10
475.24408747773742
 20
199.09910709247319
 30
0.0
  0
VERTEX
  5
2AC2D
  8
BUHIN-2
  6
CONTINUOUS
 10
474.87866747773739
 20
200.08195709247329
 30
0.0
  0
VERTEX
  5
2AC2E
  8
BUHIN-2
  6
CONTINUOUS
 10
474.84762147773728
 20
200.1709910924732
 30
0.0
  0
SEQEND
  5
2AC2F
  8
BUHIN-2
  6
CONTINUOUS
  0
POLYLINE
  5
2A3B1
  8
BUHIN-2
  6
CONTINUOUS
 66
     1
 10
0.0
 20
0.0
 30
0.0
  0
VERTEX
  5
2AC30
  8
BUHIN-2
  6
CONTINUOUS
 10
471.87561547773731
 20
216.7760370924733
 30
0.0
  0
VERTEX
  5
2AC31
  8
BUHIN-2
  6
CONTINUOUS
 10
471.75877147773718
 20
219.2946470924733
 30
0.0
  0
VERTEX
  5
2AC32
  8
BUHIN-2
  6
CONTINUOUS
 10
471.70932147773721
 20
220.97479309247319
 30
0.0
  0
VERTEX
  5
2AC33
  8
BUHIN-2
  6
CONTINUOUS
 10
471.6772614777372
 20
222.8311990924733
 30
0.0
  0
VERTEX
  5
2AC34
  8
BUHIN-2
  6
CONTINUOUS
 10
471.66724547773748
 20
224.68784709247331
 30
0.0
  0
VERTEX
  5
2AC35
  8
BUHIN-2
  6
CONTINUOUS
 10
471.6782154777373
 20
226.54449909247319
 30
0.0
  0
VERTEX
  5
2AC36
  8
BUHIN-2
  6
CONTINUOUS
 10
471.70941747773747
 20
228.40093109247329
 30
0.0
  0
VERTEX
  5
2AC37
  8
BUHIN-2
  6
CONTINUOUS
 10
471.83073547773739
 20
232.1123030924733
 30
0.0
  0
VERTEX
  5
2AC38
  8
BUHIN-2
  6
CONTINUOUS
 10
472.02948747773718
 20
235.8203350924733
 30
0.0
  0
VERTEX
  5
2AC39
  8
BUHIN-2
  6
CONTINUOUS
 10
472.3059254777375
 20
239.52337709247331
 30
0.0
  0
VERTEX
  5
2AC3A
  8
BUHIN-2
  6
CONTINUOUS
 10
472.48871547773729
 20
241.53007509247331
 30
0.0
  0
VERTEX
  5
2AC3B
  8
BUHIN-2
  6
CONTINUOUS
 10
472.69470947773732
 20
243.53452109247331
 30
0.0
  0
VERTEX
  5
2AC3C
  8
BUHIN-2
  6
CONTINUOUS
 10
472.9238754777374
 20
245.5364510924733
 30
0.0
  0
VERTEX
  5
2AC3D
  8
BUHIN-2
  6
CONTINUOUS
 10
473.1761754777375
 20
247.5355970924733
 30
0.0
  0
VERTEX
  5
2AC3E
  8
BUHIN-2
  6
CONTINUOUS
 10
473.4515714777375
 20
249.53169309247329
 30
0.0
  0
SEQEND
  5
2AC3F
  8
BUHIN-2
  6
CONTINUOUS
  0
POLYLINE
  5
2A3B2
  8
BUHIN-2
  6
CONTINUOUS
 66
     1
 10
0.0
 20
0.0
 30
0.0
  0
VERTEX
  5
2AC40
  8
BUHIN-2
  6
CONTINUOUS
 10
472.35213147773749
 20
211.3913330924733
 30
0.0
  0
VERTEX
  5
2AC41
  8
BUHIN-2
  6
CONTINUOUS
 10
472.15357147773722
 20
213.1825450924733
 30
0.0
  0
VERTEX
  5
2AC42
  8
BUHIN-2
  6
CONTINUOUS
 10
471.9963694777374
 20
214.97783909247329
 30
0.0
  0
VERTEX
  5
2AC43
  8
BUHIN-2
  6
CONTINUOUS
 10
471.87561547773731
 20
216.7760370924733
 30
0.0
  0
SEQEND
  5
2AC44
  8
BUHIN-2
  6
CONTINUOUS
  0
POLYLINE
  5
2A3B3
  8
BUHIN-2
  6
CONTINUOUS
 66
     1
 10
0.0
 20
0.0
 30
0.0
  0
VERTEX
  5
2AC45
  8
BUHIN-2
  6
CONTINUOUS
 10
473.88156547773758
 20
203.3913330924733
 30
0.0
  0
VERTEX
  5
2AC46
  8
BUHIN-2
  6
CONTINUOUS
 10
473.45335947773748
 20
205.1104010924733
 30
0.0
  0
VERTEX
  5
2AC47
  8
BUHIN-2
  6
CONTINUOUS
 10
473.25954347773751
 20
205.97475309247321
 30
0.0
  0
VERTEX
  5
2AC48
  8
BUHIN-2
  6
CONTINUOUS
 10
472.90232747773717
 20
207.77076109247329
 30
0.0
  0
VERTEX
  5
2AC49
  8
BUHIN-2
  6
CONTINUOUS
 10
472.60114147773749
 20
209.57705709247321
 30
0.0
  0
VERTEX
  5
2AC4A
  8
BUHIN-2
  6
CONTINUOUS
 10
472.35213147773749
 20
211.3913330924733
 30
0.0
  0
SEQEND
  5
2AC4B
  8
BUHIN-2
  6
CONTINUOUS
  0
POLYLINE
  5
2A3B4
  8
BUHIN-2
  6
CONTINUOUS
 66
     1
 10
0.0
 20
0.0
 30
0.0
  0
VERTEX
  5
2AC4C
  8
BUHIN-2
  6
CONTINUOUS
 10
480.70328947773748
 20
197.00021309247319
 30
0.0
  0
VERTEX
  5
2AC4D
  8
BUHIN-2
  6
CONTINUOUS
 10
486.14931947773749
 20
197.01262909247319
 30
0.0
  0
SEQEND
  5
2AC4E
  8
BUHIN-2
  6
CONTINUOUS
  0
LINE
  5
2A3B5
  8
BUHIN-2
  6
CONTINUOUS
 10
486.14931947773749
 20
247.70524509247329
 30
0.0
 11
486.14931947773749
 21
239.52337709247331
 31
0.0
  0
LINE
  5
2A3B6
  8
BUHIN-2
  6
CONTINUOUS
 10
486.14931947773749
 20
205.97475309247321
 30
0.0
 11
486.14931947773749
 21
197.01262909247319
 31
0.0
  0
LINE
  5
2A3B7
  8
BUHIN-2
  6
CONTINUOUS
 10
486.14931947773749
 20
239.52337709247331
 30
0.0
 11
486.14931947773749
 21
220.97479309247319
 31
0.0
  0
LINE
  5
2A3B8
  8
BUHIN-2
  6
CONTINUOUS
 10
486.14931947773749
 20
220.97479309247319
 30
0.0
 11
486.14931947773749
 21
205.97475309247321
 31
0.0
  0
POLYLINE
  5
2A3B9
  8
BUHIN-2
  6
CONTINUOUS
 66
     1
 10
0.0
 20
0.0
 30
0.0
  0
VERTEX
  5
2AC4F
  8
BUHIN-2
  6
CONTINUOUS
 10
476.33798147773751
 20
196.58996709247319
 30
0.0
  0
VERTEX
  5
2AC50
  8
BUHIN-2
  6
CONTINUOUS
 10
481.21045147773731
 20
196.60142709247319
 30
0.0
  0
SEQEND
  5
2AC51
  8
BUHIN-2
  6
CONTINUOUS
  0
LINE
  5
2A3BA
  8
BUHIN-2
  6
CONTINUOUS
 10
486.1504694777376
 20
196.6126510924733
 30
0.0
 11
481.21061147773742
 21
196.60142709247319
 31
0.0
  0
LINE
  5
2A3BB
  8
BUHIN-2
  6
CONTINUOUS
 10
476.29542547773758
 20
196.68367309247321
 30
0.0
 11
476.33798147773751
 21
196.58996709247319
 31
0.0
  0
ARC
  5
2A3BC
  8
BUHIN-2
  6
CONTINUOUS
 10
527.52013147773755
 20
196.9211370924732
 30
0.0
 40
41.370811999999987
 50
180.011783000001
 51
180.42726400000041
  0
LINE
  5
2A3BD
  8
BUHIN-2
  6
CONTINUOUS
 10
486.14931747773733
 20
197.01262909247319
 30
0.0
 11
486.14931747773733
 21
196.9126290924732
 31
0.0
  0
POLYLINE
  5
2A3BE
  8
BUHIN-2
  6
CONTINUOUS
 66
     1
 10
0.0
 20
0.0
 30
0.0
  0
VERTEX
  5
2AC52
  8
BUHIN-2
  6
CONTINUOUS
 10
476.1537294777375
 20
196.9895430924733
 30
0.0
  0
VERTEX
  5
2AC53
  8
BUHIN-2
  6
CONTINUOUS
 10
476.29542547773758
 20
196.68367309247321
 30
0.0
  0
SEQEND
  5
2AC54
  8
BUHIN-2
  6
CONTINUOUS
  0
ARC
  5
2A3BF
  8
BUHIN-2
  6
CONTINUOUS
 10
449.95521347773757
 20
190.04325909247319
 30
0.0
 40
31.936112000000001
 50
9.183653999998846
 51
11.849860000000019
  0
ARC
  5
2A3C0
  8
BUHIN-2
  6
CONTINUOUS
 10
439.7139994777375
 20
188.3400570924733
 30
0.0
 40
42.317979999999999
 50
8.4727809999989212
 51
9.2471209999992432
  0
POLYLINE
  5
2A3C1
  8
BUHIN-2
  6
CONTINUOUS
 66
     1
 10
0.0
 20
0.0
 30
0.0
  0
VERTEX
  5
2AC55
  8
BUHIN-2
  6
CONTINUOUS
 10
482.00263147773722
 20
191.08242709247321
 30
0.0
  0
VERTEX
  5
2AC56
  8
BUHIN-2
  6
CONTINUOUS
 10
481.61047147773741
 20
191.1690850924733
 30
0.0
  0
VERTEX
  5
2AC57
  8
BUHIN-2
  6
CONTINUOUS
 10
481.22688747773719
 20
191.2869870924732
 30
0.0
  0
VERTEX
  5
2AC58
  8
BUHIN-2
  6
CONTINUOUS
 10
480.85294547773748
 20
191.43281509247331
 30
0.0
  0
VERTEX
  5
2AC59
  8
BUHIN-2
  6
CONTINUOUS
 10
480.4895354777376
 20
191.60370509247321
 30
0.0
  0
VERTEX
  5
2AC5A
  8
BUHIN-2
  6
CONTINUOUS
 10
480.13740747773761
 20
191.79719309247321
 30
0.0
  0
VERTEX
  5
2AC5B
  8
BUHIN-2
  6
CONTINUOUS
 10
479.79718147773741
 20
192.0111670924733
 30
0.0
  0
VERTEX
  5
2AC5C
  8
BUHIN-2
  6
CONTINUOUS
 10
479.46938147773727
 20
192.24384109247319
 30
0.0
  0
VERTEX
  5
2AC5D
  8
BUHIN-2
  6
CONTINUOUS
 10
479.15445347773749
 20
192.4936970924733
 30
0.0
  0
VERTEX
  5
2AC5E
  8
BUHIN-2
  6
CONTINUOUS
 10
478.85279347773741
 20
192.75944709247329
 30
0.0
  0
VERTEX
  5
2AC5F
  8
BUHIN-2
  6
CONTINUOUS
 10
478.56477347773739
 20
193.0399910924732
 30
0.0
  0
VERTEX
  5
2AC60
  8
BUHIN-2
  6
CONTINUOUS
 10
478.27810147773732
 20
193.3486310924732
 30
0.0
  0
VERTEX
  5
2AC61
  8
BUHIN-2
  6
CONTINUOUS
 10
478.0071034777373
 20
193.67117509247331
 30
0.0
  0
VERTEX
  5
2AC62
  8
BUHIN-2
  6
CONTINUOUS
 10
477.51217547773717
 20
194.3528310924732
 30
0.0
  0
VERTEX
  5
2AC63
  8
BUHIN-2
  6
CONTINUOUS
 10
477.07676947773768
 20
195.07436109247331
 30
0.0
  0
VERTEX
  5
2AC64
  8
BUHIN-2
  6
CONTINUOUS
 10
476.69126147773738
 20
195.8243270924732
 30
0.0
  0
VERTEX
  5
2AC65
  8
BUHIN-2
  6
CONTINUOUS
 10
476.33798147773751
 20
196.5899690924733
 30
0.0
  0
SEQEND
  5
2AC66
  8
BUHIN-2
  6
CONTINUOUS
  0
POLYLINE
  5
2A3C2
  8
BUHIN-2
  6
CONTINUOUS
 66
     1
 10
0.0
 20
0.0
 30
0.0
  0
VERTEX
  5
2AC67
  8
BUHIN-2
  6
CONTINUOUS
 10
482.79905347773712
 20
191.00998309247319
 30
0.0
  0
VERTEX
  5
2AC68
  8
BUHIN-2
  6
CONTINUOUS
 10
482.26661547773739
 20
191.0430070924732
 30
0.0
  0
VERTEX
  5
2AC69
  8
BUHIN-2
  6
CONTINUOUS
 10
482.00263147773722
 20
191.08242709247321
 30
0.0
  0
SEQEND
  5
2AC6A
  8
BUHIN-2
  6
CONTINUOUS
  0
POLYLINE
  5
2A3C3
  8
BUHIN-2
  6
CONTINUOUS
 66
     1
 10
0.0
 20
0.0
 30
0.0
  0
VERTEX
  5
2AC6B
  8
BUHIN-2
  6
CONTINUOUS
 10
486.15046747773732
 20
196.61263109247321
 30
0.0
  0
VERTEX
  5
2AC6C
  8
BUHIN-2
  6
CONTINUOUS
 10
486.15535547773732
 20
195.5269610924733
 30
0.0
  0
VERTEX
  5
2AC6D
  8
BUHIN-2
  6
CONTINUOUS
 10
486.13264547773753
 20
194.87560509247319
 30
0.0
  0
VERTEX
  5
2AC6E
  8
BUHIN-2
  6
CONTINUOUS
 10
486.0505614777374
 20
194.1199610924732
 30
0.0
  0
VERTEX
  5
2AC6F
  8
BUHIN-2
  6
CONTINUOUS
 10
485.97877947773742
 20
193.74691309247319
 30
0.0
  0
VERTEX
  5
2AC70
  8
BUHIN-2
  6
CONTINUOUS
 10
485.8820134777373
 20
193.37983109247321
 30
0.0
  0
VERTEX
  5
2AC71
  8
BUHIN-2
  6
CONTINUOUS
 10
485.72140747773739
 20
192.93533109247329
 30
0.0
  0
VERTEX
  5
2AC72
  8
BUHIN-2
  6
CONTINUOUS
 10
485.51081947773753
 20
192.51276709247321
 30
0.0
  0
VERTEX
  5
2AC73
  8
BUHIN-2
  6
CONTINUOUS
 10
485.24590147773768
 20
192.12295509247321
 30
0.0
  0
VERTEX
  5
2AC74
  8
BUHIN-2
  6
CONTINUOUS
 10
484.92552547773749
 20
191.77831509247329
 30
0.0
  0
VERTEX
  5
2AC75
  8
BUHIN-2
  6
CONTINUOUS
 10
484.55328347773758
 20
191.49087109247321
 30
0.0
  0
VERTEX
  5
2AC76
  8
BUHIN-2
  6
CONTINUOUS
 10
484.23169947773732
 20
191.31199709247321
 30
0.0
  0
VERTEX
  5
2AC77
  8
BUHIN-2
  6
CONTINUOUS
 10
483.88958347773757
 20
191.17568309247321
 30
0.0
  0
VERTEX
  5
2AC78
  8
BUHIN-2
  6
CONTINUOUS
 10
483.5332534777375
 20
191.0814170924732
 30
0.0
  0
VERTEX
  5
2AC79
  8
BUHIN-2
  6
CONTINUOUS
 10
483.16819347773742
 20
191.02728909247321
 30
0.0
  0
VERTEX
  5
2AC7A
  8
BUHIN-2
  6
CONTINUOUS
 10
482.79905347773712
 20
191.00998309247319
 30
0.0
  0
SEQEND
  5
2AC7B
  8
BUHIN-2
  6
CONTINUOUS
  0
ARC
  5
2A3C4
  8
BUHIN-2
  6
CONTINUOUS
 10
520.54123347773725
 20
265.89766909247328
 30
0.0
 40
0.5
 50
270.99941899999391
 51
0.0005809999995308
  0
ARC
  5
2A3C5
  8
BUHIN-2
  6
CONTINUOUS
 10
511.84774347773771
 20
321.06672709247329
 30
0.0
 40
0.5
 50
16.999506000000942
 51
89.000493999994447
  0
POLYLINE
  5
2A3C6
  8
BUHIN-2
  6
CONTINUOUS
 66
     1
 10
0.0
 20
0.0
 30
0.0
  0
VERTEX
  5
2AC7C
  8
BUHIN-2
  6
CONTINUOUS
 10
486.14930747773752
 20
264.60074909247322
 30
0.0
  0
VERTEX
  5
2AC7D
  8
BUHIN-2
  6
CONTINUOUS
 10
486.16419947773733
 20
264.67647909247319
 30
0.0
  0
VERTEX
  5
2AC7E
  8
BUHIN-2
  6
CONTINUOUS
 10
486.20665747773762
 20
264.74092909247332
 30
0.0
  0
VERTEX
  5
2AC7F
  8
BUHIN-2
  6
CONTINUOUS
 10
486.27035747773732
 20
264.7845050924733
 30
0.0
  0
VERTEX
  5
2AC80
  8
BUHIN-2
  6
CONTINUOUS
 10
486.34581547773752
 20
264.80071509247318
 30
0.0
  0
SEQEND
  5
2AC81
  8
BUHIN-2
  6
CONTINUOUS
  0
POLYLINE
  5
2A3C7
  8
BUHIN-2
  6
CONTINUOUS
 66
     1
 10
0.0
 20
0.0
 30
0.0
  0
VERTEX
  5
2AC82
  8
BUHIN-2
  6
CONTINUOUS
 10
479.13214747773719
 20
289.04099709247322
 30
0.0
  0
VERTEX
  5
2AC83
  8
BUHIN-2
  6
CONTINUOUS
 10
479.13010147773718
 20
289.01164909247319
 30
0.0
  0
SEQEND
  5
2AC84
  8
BUHIN-2
  6
CONTINUOUS
  0
LINE
  5
2A3C8
  8
BUHIN-2
  6
CONTINUOUS
 10
479.13010147773718
 20
289.01164909247319
 30
0.0
 11
479.01486347773732
 21
288.20849909247318
 31
0.0
  0
LINE
  5
2A3C9
  8
BUHIN-2
  6
HIDDEN
 10
568.04122747773761
 20
269.1563250924732
 30
0.0
 11
565.04122747773761
 21
269.1563250924732
 31
0.0
  0
LINE
  5
2A3CA
  8
BUHIN-2
  6
HIDDEN
 10
568.04122747773761
 20
317.65632509247331
 30
0.0
 11
565.04122747773761
 21
317.65632509247331
 31
0.0
  0
LINE
  5
2A3CB
  8
BUHIN-2
  6
HIDDEN
 10
565.04122747773761
 20
269.75632509247328
 30
0.0
 11
565.04122747773761
 21
269.1563250924732
 31
0.0
  0
LINE
  5
2A3CC
  8
BUHIN-2
  6
HIDDEN
 10
565.04122747773761
 20
317.65632509247331
 30
0.0
 11
565.04122747773761
 21
317.05632509247329
 31
0.0
  0
LINE
  5
2A3CD
  8
BUHIN-2
  6
HIDDEN
 10
568.04122747773761
 20
317.65632509247331
 30
0.0
 11
568.04122747773761
 21
293.40632509247331
 31
0.0
  0
LINE
  5
2A3CE
  8
BUHIN-2
  6
HIDDEN
 10
568.04122747773761
 20
293.40632509247331
 30
0.0
 11
568.04122747773761
 21
269.1563250924732
 31
0.0
  0
LINE
  5
2A3CF
  8
BUHIN-2
  6
HIDDEN
 10
565.04122747773761
 20
317.65632509247331
 30
0.0
 11
544.67579347773733
 21
317.65632509247331
 31
0.0
  0
LINE
  5
2A3D0
  8
BUHIN-2
  6
HIDDEN
 10
565.04122747773761
 20
293.40632509247331
 30
0.0
 11
565.04122747773761
 21
269.1563250924732
 31
0.0
  0
LINE
  5
2A3D1
  8
BUHIN-2
  6
HIDDEN
 10
565.04122747773761
 20
269.1563250924732
 30
0.0
 11
544.67579347773733
 21
269.1563250924732
 31
0.0
  0
LINE
  5
2A3D2
  8
BUHIN-2
  6
DASHDOT
 10
568.18250747773743
 20
293.40632509247331
 30
0.0
 11
476.1679914777377
 21
293.40632509247331
 31
0.0
  0
ARC
  5
2A3D3
  8
BUHIN-2
  6
CONTINUOUS
 10
516.04122747773749
 20
312.05708309247319
 30
0.0
 40
3.0
 50
114.443335000001
 51
123.97953199999679
  0
ARC
  5
2A3D4
  8
BUHIN-2
  6
CONTINUOUS
 10
528.04122747773761
 20
285.6563250924732
 30
0.0
 40
32.0
 50
91.682987999995007
 51
114.443335000001
  0
ARC
  5
2A3D5
  8
BUHIN-2
  6
CONTINUOUS
 10
528.04122747773761
 20
301.15632509247331
 30
0.0
 40
32.0
 50
257.36437499999488
 51
270.0
  0
LINE
  5
2A3D6
  8
BUHIN-2
  6
HIDDEN
 10
565.04122747773761
 20
317.65632509247331
 30
0.0
 11
565.04122747773761
 21
293.40632509247331
 31
0.0
  0
LINE
  5
2A3D7
  8
BUHIN-2
  6
CONTINUOUS
 10
525.71979147773743
 20
352.74947709247323
 30
0.0
 11
527.44074147773733
 21
352.73445909247329
 31
0.0
  0
LINE
  5
2A3D8
  8
BUHIN-2
  6
CONTINUOUS
 10
523.17942747773736
 20
355.69826109247327
 30
0.0
 11
523.88948547773759
 21
353.98403509247322
 31
0.0
  0
ARC
  5
2A3D9
  8
BUHIN-2
  6
CONTINUOUS
 10
525.73724347773748
 20
354.74940109247331
 30
0.0
 40
2.0
 50
202.49999999999869
 51
269.4999999999954
  0
ARC
  5
2A3DA
  8
BUHIN-2
  6
CONTINUOUS
 10
525.73724347773748
 20
380.06324709247332
 30
0.0
 40
2.0
 50
90.500000000004576
 51
157.50000000000119
  0
LINE
  5
2A3DB
  8
BUHIN-2
  6
CONTINUOUS
 10
523.88948547773759
 20
380.82861509247329
 30
0.0
 11
523.17942747773736
 21
379.11438709247318
 31
0.0
  0
LINE
  5
2A3DC
  8
BUHIN-2
  6
HIDDEN
 10
565.04122547773727
 20
382.4063250924732
 30
0.0
 11
544.67579347773733
 21
382.2285990924733
 31
0.0
  0
ARC
  5
2A3DD
  8
BUHIN-2
  6
CONTINUOUS
 10
502.90042747773742
 20
396.86315709247327
 30
0.0
 40
15.0
 50
254.53399000000081
 51
285.4660099999993
  0
LINE
  5
2A3DF
  8
BUHIN-2
  6
CONTINUOUS
 10
498.90042747773742
 20
382.4063250924732
 30
0.0
 11
489.67942747773742
 21
382.4063250924732
 31
0.0
  0
ARC
  5
2A3E0
  8
BUHIN-2
  6
CONTINUOUS
 10
486.67062947773758
 20
384.9063250924732
 30
0.0
 40
0.5
 50
90.0
 51
178.9967709999992
  0
ARC
  5
2A3E1
  8
BUHIN-2
  6
CONTINUOUS
 10
1486.0174154777369
 20
367.4063250924732
 30
0.0
 40
1000.0
 50
178.9967709999992
 51
180.0
  0
LINE
  5
2A3E2
  8
BUHIN-2
  6
CONTINUOUS
 10
489.17942747773748
 20
384.9063250924732
 30
0.0
 11
489.17942747773748
 21
382.9063250924732
 31
0.0
  0
ARC
  5
2A3E3
  8
BUHIN-2
  6
CONTINUOUS
 10
522.67942747773748
 20
381.9063250924732
 30
0.0
 40
0.5
 50
0.000000000000007
 51
90.0
  0
LINE
  5
2A3E4
  8
BUHIN-2
  6
CONTINUOUS
 10
523.17942747773736
 20
381.9063250924732
 30
0.0
 11
523.17942747773736
 21
367.4063250924732
 31
0.0
  0
ARC
  5
2A3E5
  8
BUHIN-2
  6
CONTINUOUS
 10
489.67942747773742
 20
382.9063250924732
 30
0.0
 40
0.5
 50
180.0
 51
270.0
  0
ARC
  5
2A3E6
  8
BUHIN-2
  6
CONTINUOUS
 10
488.67942747773748
 20
384.9063250924732
 30
0.0
 40
0.5
 50
0.000000000000007
 51
90.0
  0
LINE
  5
2A3E7
  8
BUHIN-2
  6
CONTINUOUS
 10
488.67942747773748
 20
385.4063250924732
 30
0.0
 11
486.67062947773758
 21
385.4063250924732
 31
0.0
  0
LINE
  5
2A3E8
  8
BUHIN-2
  6
CONTINUOUS
 10
522.67942747773748
 20
382.4063250924732
 30
0.0
 11
506.90042747773742
 21
382.4063250924732
 31
0.0
  0
LINE
  5
2A3E9
  8
BUHIN-2
  6
CONTINUOUS
 10
502.90042747773742
 20
352.4063250924732
 30
0.0
 11
489.67942747773742
 21
352.4063250924732
 31
0.0
  0
ARC
  5
2A3EA
  8
BUHIN-2
  6
CONTINUOUS
 10
486.67062947773758
 20
349.9063250924732
 30
0.0
 40
0.5
 50
181.00322899999921
 51
270.0
  0
ARC
  5
2A3EB
  8
BUHIN-2
  6
CONTINUOUS
 10
1486.0174154777369
 20
367.4063250924732
 30
0.0
 40
1000.0
 50
180.0
 51
181.00322899999921
  0
LINE
  5
2A3EC
  8
BUHIN-2
  6
CONTINUOUS
 10
489.17942747773748
 20
351.9063250924732
 30
0.0
 11
489.17942747773748
 21
349.9063250924732
 31
0.0
  0
ARC
  5
2A3ED
  8
BUHIN-2
  6
CONTINUOUS
 10
522.67942747773748
 20
352.9063250924732
 30
0.0
 40
0.5
 50
270.0
 51
0.000000000000007
  0
LINE
  5
2A3EE
  8
BUHIN-2
  6
CONTINUOUS
 10
523.17942747773736
 20
367.4063250924732
 30
0.0
 11
523.17942747773736
 21
352.9063250924732
 31
0.0
  0
ARC
  5
2A3EF
  8
BUHIN-2
  6
CONTINUOUS
 10
489.67942747773742
 20
351.9063250924732
 30
0.0
 40
0.5
 50
90.0
 51
180.0
  0
ARC
  5
2A3F0
  8
BUHIN-2
  6
CONTINUOUS
 10
488.67942747773748
 20
349.9063250924732
 30
0.0
 40
0.5
 50
270.0
 51
0.000000000000007
  0
LINE
  5
2A3F1
  8
BUHIN-2
  6
CONTINUOUS
 10
488.67942747773748
 20
349.4063250924732
 30
0.0
 11
486.67062947773758
 21
349.4063250924732
 31
0.0
  0
LINE
  5
2A3F2
  8
BUHIN-2
  6
CONTINUOUS
 10
522.67942747773748
 20
352.4063250924732
 30
0.0
 11
502.90042747773742
 21
352.4063250924732
 31
0.0
  0
ARC
  5
2A3F3
  8
BUHIN-2
  6
CONTINUOUS
 10
514.88298347773741
 20
265.58897909247321
 30
0.0
 40
0.3
 50
268.99999999999829
 51
297.23805599999838
  0
LINE
  5
2A3F4
  8
BUHIN-2
  6
CONTINUOUS
 10
511.4972494777374
 20
265.34803109247332
 30
0.0
 11
514.87774747773744
 21
265.28902509247331
 31
0.0
  0
INSERT
  5
2A5F3
  8
BUHIN-1
  2
BOX
 10
618.04122747773761
 20
327.4063250924732
 30
0.0
  0
VIEWPORT
  5
524
 67
     1
  8
0
 62
     0
 10
141.34042358398429
 20
97.84291410446167
 30
0.0
 40
457.85530388912292
 41
222.15178063964851
 68
     1
 69
     1
1001
ACAD
1000
MVIEW
1002
{
1070
    16
1010
0.0
1020
0.0
1030
0.0
1010
0.0
1020
0.0
1030
1.0
1040
0.0
1040
222.15178063964851
1040
141.34042358398429
1040
97.84291410446167
1040
50.0
1040
0.0
1040
0.0
1070
     0
1070
   100
1070
     1
1070
     1
1070
     0
1070
     0
1070
     0
1070
     0
1040
0.0
1040
0.0
1040
0.0
1040
10.0
1040
10.0
1040
10.0
1040
10.0
1070
     0
1002
{
1002
}
1002
}
  0
VIEWPORT
  5
1B3E
 67
     1
  8
0
 10
141.82726120948789
 20
97.54658675193788
 30
0.0
 40
226.92361793518069
 41
156.07453880310061
 68
     2
 69
     2
1001
ACAD
1000
MVIEW
1002
{
1070
    16
1010
0.0
1020
0.0
1030
0.0
1010
0.0
1020
0.0
1030
1.0
1040
0.0
1040
503.45671513849948
1040
368.68581523821211
1040
148.49562051592989
1040
50.0
1040
0.0
1040
0.0
1070
     0
1070
   100
1070
     1
1070
     1
1070
     0
1070
     0
1070
     0
1070
     0
1040
0.0
1040
0.0
1040
0.0
1040
1.0
1040
1.0
1040
0.0
1040
0.0
1070
     0
1002
{
1002
}
1002
}
  0
ENDSEC
  0
EOF
