999
Erzeugt mit Innoplus 
0
SECTION
2
HEADER
9
$ACADVER
1
AC1009
9
$DWGCODEPAGE
3
ISO8859-1
0
ENDSEC
0
SECTION
2
TABLES
0
TABLE
2
LAYER
70
1
0
LAYER
2
0
70
0
62
7
6
CONTINUOUS
0
ENDTAB
0
ENDSEC
0
SECTION
2
ENTITIES
0
LINE
8
0
6
CONTINUOUS
10
-32.500000
20
6.200000
30
0.0
11
-47.500000
21
7.000000
31
0.0
0
LINE
8
0
6
CONTINUOUS
10
-17.500000
20
4.500000
30
0.0
11
-32.500000
21
6.200000
31
0.0
0
LINE
8
0
6
CONTINUOUS
10
0.500000
20
0.400000
30
0.0
11
-17.500000
21
4.500000
31
0.0
0
LINE
8
0
6
CONTINUOUS
10
18.500000
20
-5.900000
30
0.0
11
0.500000
21
0.400000
31
0.0
0
LINE
8
0
6
CONTINUOUS
10
38.500000
20
-11.300000
30
0.0
11
18.500000
21
-5.900000
31
0.0
0
LINE
8
0
6
CONTINUOUS
10
57.500000
20
-15.300000
30
0.0
11
38.500000
21
-11.300000
31
0.0
0
LINE
8
0
6
CONTINUOUS
10
77.500000
20
-18.000000
30
0.0
11
57.500000
21
-15.300000
31
0.0
0
LINE
8
0
6
CONTINUOUS
10
82.500000
20
-18.000000
30
0.0
11
77.500000
21
-18.000000
31
0.0
0
LINE
8
0
6
CONTINUOUS
10
92.500000
20
-34.000000
30
0.0
11
92.500000
21
-35.000000
31
0.0
0
LINE
8
0
6
CONTINUOUS
10
92.500000
20
34.000000
30
0.0
11
92.500000
21
-34.000000
31
0.0
0
LINE
8
0
6
CONTINUOUS
10
92.500000
20
35.000000
30
0.0
11
92.500000
21
34.000000
31
0.0
0
LINE
8
0
6
CONTINUOUS
10
82.857000
20
8.000000
30
0.0
11
83.500000
21
-34.000000
31
0.0
0
LINE
8
0
6
CONTINUOUS
10
92.500000
20
-34.000000
30
0.0
11
82.857000
21
8.000000
31
0.0
0
LINE
8
0
6
CONTINUOUS
10
83.500000
20
-34.000000
30
0.0
11
92.500000
21
-34.000000
31
0.0
0
LINE
8
0
6
CONTINUOUS
10
82.857000
20
8.000000
30
0.0
11
83.500000
21
-34.000000
31
0.0
0
LINE
8
0
6
CONTINUOUS
10
83.500000
20
-34.000000
30
0.0
11
92.500000
21
-34.000000
31
0.0
0
LINE
8
0
6
CONTINUOUS
10
92.500000
20
-34.000000
30
0.0
11
92.500000
21
34.000000
31
0.0
0
LINE
8
0
6
CONTINUOUS
10
82.857000
20
8.000000
30
0.0
11
82.500000
21
7.000000
31
0.0
0
LINE
8
0
6
CONTINUOUS
10
83.500000
20
-34.000000
30
0.0
11
82.857000
21
8.000000
31
0.0
0
LINE
8
0
6
CONTINUOUS
10
82.500000
20
-34.000000
30
0.0
11
83.500000
21
-34.000000
31
0.0
0
LINE
8
0
6
CONTINUOUS
10
82.500000
20
-34.000000
30
0.0
11
82.500000
21
7.000000
31
0.0
0
LINE
8
0
6
CONTINUOUS
10
83.500000
20
-34.000000
30
0.0
11
83.500000
21
-35.000000
31
0.0
0
LINE
8
0
6
CONTINUOUS
10
92.500000
20
-34.000000
30
0.0
11
83.500000
21
-34.000000
31
0.0
0
LINE
8
0
6
CONTINUOUS
10
92.500000
20
-35.000000
30
0.0
11
92.500000
21
-34.000000
31
0.0
0
LINE
8
0
6
CONTINUOUS
10
83.500000
20
-35.000000
30
0.0
11
92.500000
21
-35.000000
31
0.0
0
LINE
8
0
6
CONTINUOUS
10
83.500000
20
-35.000000
30
0.0
11
83.500000
21
-34.000000
31
0.0
0
LINE
8
0
6
CONTINUOUS
10
82.500000
20
-34.000000
30
0.0
11
83.500000
21
-35.000000
31
0.0
0
LINE
8
0
6
CONTINUOUS
10
92.500000
20
-35.000000
30
0.0
11
83.500000
21
-35.000000
31
0.0
0
LINE
8
0
6
CONTINUOUS
10
-91.500000
20
34.000000
30
0.0
11
-91.500000
21
8.000000
31
0.0
0
LINE
8
0
6
CONTINUOUS
10
92.500000
20
34.000000
30
0.0
11
-91.500000
21
34.000000
31
0.0
0
LINE
8
0
6
CONTINUOUS
10
-91.500000
20
8.000000
30
0.0
11
82.857000
21
8.000000
31
0.0
0
LINE
8
0
6
CONTINUOUS
10
-92.500000
20
34.000000
30
0.0
11
-92.500000
21
8.000000
31
0.0
0
LINE
8
0
6
CONTINUOUS
10
-91.500000
20
34.000000
30
0.0
11
-92.500000
21
34.000000
31
0.0
0
LINE
8
0
6
CONTINUOUS
10
-91.500000
20
8.000000
30
0.0
11
-91.500000
21
34.000000
31
0.0
0
LINE
8
0
6
CONTINUOUS
10
-92.500000
20
8.000000
30
0.0
11
-91.500000
21
8.000000
31
0.0
0
LINE
8
0
6
CONTINUOUS
10
-92.500000
20
8.000000
30
0.0
11
-92.500000
21
33.993400
31
0.0
0
LINE
8
0
6
CONTINUOUS
10
-91.500000
20
8.000000
30
0.0
11
-91.500000
21
7.000000
31
0.0
0
LINE
8
0
6
CONTINUOUS
10
82.857000
20
8.000000
30
0.0
11
-91.500000
21
8.000000
31
0.0
0
LINE
8
0
6
CONTINUOUS
10
-91.500000
20
7.000000
30
0.0
11
82.182373
21
7.000000
31
0.0
0
LINE
8
0
6
CONTINUOUS
10
82.182373
20
7.000000
30
0.0
11
82.500000
21
7.000000
31
0.0
0
LINE
8
0
6
CONTINUOUS
10
-91.500000
20
7.000000
30
0.0
11
-91.500000
21
8.000000
31
0.0
0
LINE
8
0
6
CONTINUOUS
10
-92.500000
20
8.000000
30
0.0
11
-91.500000
21
7.000000
31
0.0
0
LINE
8
0
6
CONTINUOUS
10
-91.500000
20
8.000000
30
0.0
11
-92.500000
21
8.000000
31
0.0
0
LINE
8
0
6
CONTINUOUS
10
82.500000
20
7.000000
30
0.0
11
-91.500000
21
7.000000
31
0.0
0
LINE
8
0
6
CONTINUOUS
10
-91.500000
20
35.000000
30
0.0
11
92.500000
21
35.000000
31
0.0
0
LINE
8
0
6
CONTINUOUS
10
-91.500000
20
34.000000
30
0.0
11
-91.500000
21
35.000000
31
0.0
0
LINE
8
0
6
CONTINUOUS
10
-92.500000
20
34.000000
30
0.0
11
-91.500000
21
34.000000
31
0.0
0
LINE
8
0
6
CONTINUOUS
10
-91.500000
20
35.000000
30
0.0
11
-92.500000
21
34.000000
31
0.0
0
LINE
8
0
6
CONTINUOUS
10
-91.500000
20
35.000000
30
0.0
11
-91.500000
21
34.000000
31
0.0
0
LINE
8
0
6
CONTINUOUS
10
92.500000
20
35.000000
30
0.0
11
-91.500000
21
35.000000
31
0.0
0
LINE
8
0
6
CONTINUOUS
10
92.500000
20
34.000000
30
0.0
11
92.500000
21
35.000000
31
0.0
0
LINE
8
0
6
CONTINUOUS
10
-91.500000
20
34.000000
30
0.0
11
92.500000
21
34.000000
31
0.0
0
LINE
8
0
6
CONTINUOUS
10
-67.500000
20
3.000000
30
0.0
11
-67.563300
21
3.000000
31
0.0
0
LINE
8
0
6
CONTINUOUS
10
-67.563300
20
3.000000
30
0.0
11
-68.076500
21
3.000000
31
0.0
0
LINE
8
0
6
CONTINUOUS
10
-68.076500
20
3.000000
30
0.0
11
-69.000000
21
3.000000
31
0.0
0
LINE
8
0
6
CONTINUOUS
10
-69.000000
20
3.000000
30
0.0
11
-70.100000
21
3.000000
31
0.0
0
LINE
8
0
6
CONTINUOUS
10
-70.100000
20
3.000000
30
0.0
11
-71.300000
21
3.000000
31
0.0
0
LINE
8
0
6
CONTINUOUS
10
-71.300000
20
3.000000
30
0.0
11
-72.500000
21
3.000000
31
0.0
0
LINE
8
0
6
CONTINUOUS
10
-67.563300
20
3.000000
30
0.0
11
-67.500000
21
3.000000
31
0.0
0
LINE
8
0
6
CONTINUOUS
10
-69.000000
20
3.000000
30
0.0
11
-68.076500
21
3.000000
31
0.0
0
LINE
8
0
6
CONTINUOUS
10
-70.100000
20
3.000000
30
0.0
11
-69.000000
21
3.000000
31
0.0
0
LINE
8
0
6
CONTINUOUS
10
-71.300000
20
3.000000
30
0.0
11
-70.100000
21
3.000000
31
0.0
0
LINE
8
0
6
CONTINUOUS
10
-72.500000
20
3.000000
30
0.0
11
-71.300000
21
3.000000
31
0.0
0
LINE
8
0
6
CONTINUOUS
10
-67.500000
20
3.000000
30
0.0
11
-67.500000
21
7.000000
31
0.0
0
LINE
8
0
6
CONTINUOUS
10
-77.436700
20
3.000000
30
0.0
11
-77.500000
21
3.000000
31
0.0
0
LINE
8
0
6
CONTINUOUS
10
-76.923500
20
3.000000
30
0.0
11
-77.436700
21
3.000000
31
0.0
0
LINE
8
0
6
CONTINUOUS
10
-76.000000
20
3.000000
30
0.0
11
-76.923500
21
3.000000
31
0.0
0
LINE
8
0
6
CONTINUOUS
10
-74.900000
20
3.000000
30
0.0
11
-76.000000
21
3.000000
31
0.0
0
LINE
8
0
6
CONTINUOUS
10
-73.700000
20
3.000000
30
0.0
11
-74.900000
21
3.000000
31
0.0
0
LINE
8
0
6
CONTINUOUS
10
-72.500000
20
3.000000
30
0.0
11
-73.700000
21
3.000000
31
0.0
0
LINE
8
0
6
CONTINUOUS
10
-77.436700
20
3.000000
30
0.0
11
-76.923500
21
3.000000
31
0.0
0
LINE
8
0
6
CONTINUOUS
10
-76.923500
20
3.000000
30
0.0
11
-76.000000
21
3.000000
31
0.0
0
LINE
8
0
6
CONTINUOUS
10
-76.000000
20
3.000000
30
0.0
11
-74.900000
21
3.000000
31
0.0
0
LINE
8
0
6
CONTINUOUS
10
-74.900000
20
3.000000
30
0.0
11
-73.700000
21
3.000000
31
0.0
0
LINE
8
0
6
CONTINUOUS
10
-73.700000
20
3.000000
30
0.0
11
-72.500000
21
3.000000
31
0.0
0
ENDSEC
0
EOF
