999
Erzeugt mit innoplus bad 
0
SECTION
2
HEADER
9
$ACADVER
1
AC1009
9
$DWGCODEPAGE
3
ISO8859-1
0
ENDSEC
0
SECTION
2
TABLES
0
TABLE
2
LAYER
70
1
0
LAYER
2
0
70
0
62
7
6
CONTINUOUS
0
ENDTAB
0
ENDSEC
0
SECTION
2
ENTITIES
0
LINE
8
0
6
CONTINUOUS
10
-63.062898
20
194.360932
30
0.0
11
-16.063618
21
194.360932
31
0.0
0
LINE
8
0
6
CONTINUOUS
10
7.711925
20
194.360932
30
0.0
11
54.711130
21
194.360932
31
0.0
0
LINE
8
0
6
CONTINUOUS
10
56.206992
20
195.860110
30
0.0
11
56.206992
21
313.895202
31
0.0
0
LINE
8
0
6
CONTINUOUS
10
54.711130
20
315.394380
30
0.0
11
7.791044
21
315.394380
31
0.0
0
LINE
8
0
6
CONTINUOUS
10
-16.142743
20
315.394380
30
0.0
11
-63.062898
21
315.394380
31
0.0
0
LINE
8
0
6
CONTINUOUS
10
-64.558760
20
313.895202
30
0.0
11
-64.558760
21
195.860110
31
0.0
0
LINE
8
0
6
CONTINUOUS
10
56.206992
20
194.360932
30
0.0
11
56.206992
21
195.860110
31
0.0
0
LINE
8
0
6
CONTINUOUS
10
54.711130
20
194.360932
30
0.0
11
56.206992
21
194.360932
31
0.0
0
LINE
8
0
6
CONTINUOUS
10
56.206992
20
315.394380
30
0.0
11
54.711130
21
315.394380
31
0.0
0
LINE
8
0
6
CONTINUOUS
10
56.206992
20
313.895202
30
0.0
11
56.206992
21
315.394380
31
0.0
0
LINE
8
0
6
CONTINUOUS
10
-64.558760
20
315.394380
30
0.0
11
-64.558760
21
313.895202
31
0.0
0
LINE
8
0
6
CONTINUOUS
10
-63.062898
20
315.394380
30
0.0
11
-64.558760
21
315.394380
31
0.0
0
LINE
8
0
6
CONTINUOUS
10
-64.558760
20
194.360932
30
0.0
11
-63.062898
21
194.360932
31
0.0
0
LINE
8
0
6
CONTINUOUS
10
-64.558760
20
195.860110
30
0.0
11
-64.558760
21
194.360932
31
0.0
0
LINE
8
0
6
CONTINUOUS
10
-21.627611
20
280.732895
30
0.0
11
-21.627611
21
232.220664
31
0.0
0
LINE
8
0
6
CONTINUOUS
10
-17.430561
20
232.220664
30
0.0
11
-17.430561
21
280.732895
31
0.0
0
LINE
8
0
6
CONTINUOUS
10
-18.048980
20
281.463084
30
0.0
11
-21.021079
21
281.463084
31
0.0
0
LINE
8
0
6
CONTINUOUS
10
-21.627611
20
281.463084
30
0.0
11
-21.627611
21
280.732895
31
0.0
0
LINE
8
0
6
CONTINUOUS
10
-21.021079
20
281.463084
30
0.0
11
-21.627611
21
281.463084
31
0.0
0
LINE
8
0
6
CONTINUOUS
10
9.078782
20
280.732895
30
0.0
11
9.078782
21
232.220664
31
0.0
0
LINE
8
0
6
CONTINUOUS
10
13.275843
20
232.220664
30
0.0
11
13.275843
21
280.732895
31
0.0
0
LINE
8
0
6
CONTINUOUS
10
12.669311
20
281.463084
30
0.0
11
9.697202
21
281.463084
31
0.0
0
LINE
8
0
6
CONTINUOUS
10
9.078782
20
281.463084
30
0.0
11
9.078782
21
280.732895
31
0.0
0
LINE
8
0
6
CONTINUOUS
10
9.697202
20
281.463084
30
0.0
11
9.078782
21
281.463084
31
0.0
0
LINE
8
0
6
CONTINUOUS
10
-21.627611
20
231.490474
30
0.0
11
-21.021079
21
231.490474
31
0.0
0
LINE
8
0
6
CONTINUOUS
10
-21.627611
20
232.220664
30
0.0
11
-21.627611
21
231.490474
31
0.0
0
LINE
8
0
6
CONTINUOUS
10
13.275843
20
231.490474
30
0.0
11
13.275843
21
232.220664
31
0.0
0
LINE
8
0
6
CONTINUOUS
10
12.669311
20
231.490474
30
0.0
11
13.275843
21
231.490474
31
0.0
0
LINE
8
0
6
CONTINUOUS
10
9.078782
20
231.490474
30
0.0
11
9.685325
21
231.490474
31
0.0
0
LINE
8
0
6
CONTINUOUS
10
9.078782
20
232.220664
30
0.0
11
9.078782
21
231.490474
31
0.0
0
LINE
8
0
6
CONTINUOUS
10
-17.430561
20
231.490474
30
0.0
11
-17.430561
21
232.220664
31
0.0
0
LINE
8
0
6
CONTINUOUS
10
-18.037093
20
231.490474
30
0.0
11
-17.430561
21
231.490474
31
0.0
0
LINE
8
0
6
CONTINUOUS
10
-21.021079
20
231.490474
30
0.0
11
-18.037093
21
231.490474
31
0.0
0
LINE
8
0
6
CONTINUOUS
10
13.275843
20
281.463084
30
0.0
11
12.669311
21
281.463084
31
0.0
0
LINE
8
0
6
CONTINUOUS
10
13.275843
20
280.732895
30
0.0
11
13.275843
21
281.463084
31
0.0
0
LINE
8
0
6
CONTINUOUS
10
9.685325
20
231.490474
30
0.0
11
12.669311
21
231.490474
31
0.0
0
LINE
8
0
6
CONTINUOUS
10
7.791044
20
231.490474
30
0.0
11
8.949500
21
231.490474
31
0.0
0
LINE
8
0
6
CONTINUOUS
10
-17.301278
20
231.490474
30
0.0
11
-16.142743
21
231.490474
31
0.0
0
LINE
8
0
6
CONTINUOUS
10
-17.430561
20
281.463084
30
0.0
11
-18.048980
21
281.463084
31
0.0
0
LINE
8
0
6
CONTINUOUS
10
-17.430561
20
280.732895
30
0.0
11
-17.430561
21
281.463084
31
0.0
0
LINE
8
0
6
CONTINUOUS
10
-14.221627
20
277.015523
30
0.0
11
-9.612606
21
277.015523
31
0.0
0
LINE
8
0
6
CONTINUOUS
10
-17.301278
20
277.015523
30
0.0
11
-14.221627
21
277.015523
31
0.0
0
LINE
8
0
6
CONTINUOUS
10
5.869849
20
277.015523
30
0.0
11
8.949500
21
277.015523
31
0.0
0
LINE
8
0
6
CONTINUOUS
10
-4.175884
20
277.015523
30
0.0
11
1.260827
21
277.015523
31
0.0
0
LINE
8
0
6
CONTINUOUS
10
-9.612606
20
277.431875
30
0.0
11
-9.612606
21
277.015523
31
0.0
0
LINE
8
0
6
CONTINUOUS
10
-4.175884
20
277.015523
30
0.0
11
-4.175884
21
277.431875
31
0.0
0
LINE
8
0
6
CONTINUOUS
10
-9.612606
20
277.015523
30
0.0
11
-4.175884
21
277.015523
31
0.0
0
LINE
8
0
6
CONTINUOUS
10
-17.430561
20
277.015523
30
0.0
11
-17.301278
21
277.015523
31
0.0
0
LINE
8
0
6
CONTINUOUS
10
8.949500
20
277.015523
30
0.0
11
9.078787
21
277.015523
31
0.0
0
LINE
8
0
6
CONTINUOUS
10
1.260827
20
277.431875
30
0.0
11
1.260827
21
277.015523
31
0.0
0
LINE
8
0
6
CONTINUOUS
10
1.260827
20
277.015523
30
0.0
11
5.869849
21
277.015523
31
0.0
0
LINE
8
0
6
CONTINUOUS
10
-9.612606
20
281.513057
30
0.0
11
-14.221627
21
281.513057
31
0.0
0
LINE
8
0
6
CONTINUOUS
10
-14.221627
20
281.513057
30
0.0
11
-17.301278
21
281.513057
31
0.0
0
LINE
8
0
6
CONTINUOUS
10
8.949500
20
281.513057
30
0.0
11
5.869849
21
281.513057
31
0.0
0
LINE
8
0
6
CONTINUOUS
10
1.260827
20
281.513057
30
0.0
11
-4.175884
21
281.513057
31
0.0
0
LINE
8
0
6
CONTINUOUS
10
-9.612606
20
281.513057
30
0.0
11
-9.612606
21
281.096695
31
0.0
0
LINE
8
0
6
CONTINUOUS
10
-4.175884
20
281.513057
30
0.0
11
-9.612606
21
281.513057
31
0.0
0
LINE
8
0
6
CONTINUOUS
10
-4.175884
20
281.096695
30
0.0
11
-4.175884
21
281.513057
31
0.0
0
LINE
8
0
6
CONTINUOUS
10
-17.301278
20
281.513057
30
0.0
11
-18.382707
21
281.513057
31
0.0
0
LINE
8
0
6
CONTINUOUS
10
10.030929
20
281.513057
30
0.0
11
8.949500
21
281.513057
31
0.0
0
LINE
8
0
6
CONTINUOUS
10
1.260827
20
281.513057
30
0.0
11
1.260827
21
281.096695
31
0.0
0
LINE
8
0
6
CONTINUOUS
10
5.869849
20
281.513057
30
0.0
11
1.260827
21
281.513057
31
0.0
0
LINE
8
0
6
CONTINUOUS
10
-9.612606
20
281.096695
30
0.0
11
-9.612606
21
277.431875
31
0.0
0
LINE
8
0
6
CONTINUOUS
10
1.260827
20
277.431875
30
0.0
11
1.260827
21
281.096695
31
0.0
0
LINE
8
0
6
CONTINUOUS
10
-4.175884
20
281.096695
30
0.0
11
-4.175884
21
277.431875
31
0.0
0
LINE
8
0
6
CONTINUOUS
10
-12.725475
20
136.700637
30
0.0
11
-11.898051
21
148.241978
31
0.0
0
LINE
8
0
6
CONTINUOUS
10
-14.454791
20
161.828690
30
0.0
11
-16.244152
21
136.869565
31
0.0
0
LINE
8
0
6
CONTINUOUS
10
0.578578
20
161.787146
30
0.0
11
0.581557
21
161.828690
31
0.0
0
LINE
8
0
6
CONTINUOUS
10
-4.695730
20
161.828690
30
0.0
11
-4.699248
21
161.779627
31
0.0
0
LINE
8
0
6
CONTINUOUS
10
-15.426963
20
108.434236
30
0.0
11
-12.725475
21
136.700637
31
0.0
0
LINE
8
0
6
CONTINUOUS
10
-16.244152
20
136.869565
30
0.0
11
-18.941890
21
108.642212
31
0.0
0
LINE
8
0
6
CONTINUOUS
10
-18.705085
20
81.538253
30
0.0
11
-15.426963
21
108.434236
31
0.0
0
LINE
8
0
6
CONTINUOUS
10
-18.941890
20
108.642212
30
0.0
11
-22.212434
21
81.808475
31
0.0
0
LINE
8
0
6
CONTINUOUS
10
-7.339424
20
79.909526
30
0.0
11
-6.822683
21
84.149274
31
0.0
0
LINE
8
0
6
CONTINUOUS
10
-9.400757
20
106.545177
30
0.0
11
-12.544486
21
80.751694
31
0.0
0
LINE
8
0
6
CONTINUOUS
10
-22.634367
20
54.996605
30
0.0
11
-18.705085
21
81.538253
31
0.0
0
LINE
8
0
6
CONTINUOUS
10
-22.212434
20
81.808475
30
0.0
11
-26.129838
21
55.347383
31
0.0
0
LINE
8
0
6
CONTINUOUS
10
-10.113899
20
52.653320
30
0.0
11
-6.145659
21
79.459860
31
0.0
0
LINE
8
0
6
CONTINUOUS
10
-11.309382
20
53.091610
30
0.0
11
-7.339424
21
79.909526
31
0.0
0
LINE
8
0
6
CONTINUOUS
10
-12.544486
20
80.751694
30
0.0
11
-16.495527
21
54.062228
31
0.0
0
LINE
8
0
6
CONTINUOUS
10
-27.289550
20
27.800917
30
0.0
11
-22.634367
21
54.996605
31
0.0
0
LINE
8
0
6
CONTINUOUS
10
-26.129838
20
55.347383
30
0.0
11
-30.769714
21
28.241825
31
0.0
0
LINE
8
0
6
CONTINUOUS
10
-14.806010
20
25.240201
30
0.0
11
-10.113899
21
52.653320
31
0.0
0
LINE
8
0
6
CONTINUOUS
10
-16.001504
20
25.678441
30
0.0
11
-11.309382
21
53.091610
31
0.0
0
LINE
8
0
6
CONTINUOUS
10
-16.495527
20
54.062228
30
0.0
11
-21.172351
21
26.739119
31
0.0
0
LINE
8
0
6
CONTINUOUS
10
-32.743673
20
-1.046466
30
0.0
11
-27.289550
21
27.800917
31
0.0
0
LINE
8
0
6
CONTINUOUS
10
-30.769714
20
28.241825
30
0.0
11
-36.206964
21
-0.515547
31
0.0
0
LINE
8
0
6
CONTINUOUS
10
-20.281724
20
-3.722329
30
0.0
11
-14.806010
21
25.240201
31
0.0
0
LINE
8
0
6
CONTINUOUS
10
-21.482832
20
-3.314003
30
0.0
11
-16.001504
21
25.678441
31
0.0
0
LINE
8
0
6
CONTINUOUS
10
-21.172351
20
26.739119
30
0.0
11
-26.644734
21
-2.205621
31
0.0
0
LINE
8
0
6
CONTINUOUS
10
-39.067232
20
-32.534431
30
0.0
11
-32.743673
21
-1.046466
31
0.0
0
LINE
8
0
6
CONTINUOUS
10
-36.206964
20
-0.515547
30
0.0
11
-42.514148
21
-31.921358
31
0.0
0
LINE
8
0
6
CONTINUOUS
10
-26.609800
20
-35.232912
30
0.0
11
-20.281724
21
-3.722329
31
0.0
0
LINE
8
0
6
CONTINUOUS
10
-27.821159
20
-34.876038
30
0.0
11
-21.482832
21
-3.314003
31
0.0
0
LINE
8
0
6
CONTINUOUS
10
-26.644734
20
-2.205621
30
0.0
11
-32.981196
21
-33.758290
31
0.0
0
LINE
8
0
6
CONTINUOUS
10
-46.328876
20
-67.647869
30
0.0
11
-39.067232
21
-32.534431
31
0.0
0
LINE
8
0
6
CONTINUOUS
10
-42.514148
20
-31.921358
30
0.0
11
-49.761421
21
-66.964873
31
0.0
0
LINE
8
0
6
CONTINUOUS
10
-33.861432
20
-70.297706
30
0.0
11
-26.609800
21
-35.232912
31
0.0
0
LINE
8
0
6
CONTINUOUS
10
-35.085895
20
-70.004517
30
0.0
11
-27.821159
21
-34.876038
31
0.0
0
LINE
8
0
6
CONTINUOUS
10
-32.981196
20
-33.758290
30
0.0
11
-40.250080
21
-68.906909
31
0.0
0
LINE
8
0
6
CONTINUOUS
10
-54.598142
20
-107.380534
30
0.0
11
-46.328876
21
-67.647869
31
0.0
0
LINE
8
0
6
CONTINUOUS
10
-49.761421
20
-66.964873
30
0.0
11
-58.025811
21
-106.673711
31
0.0
0
LINE
8
0
6
CONTINUOUS
10
-42.100901
20
-109.884571
30
0.0
11
-33.861432
21
-70.297706
31
0.0
0
LINE
8
0
6
CONTINUOUS
10
-43.337540
20
-109.650979
30
0.0
11
-35.085895
21
-70.004517
31
0.0
0
LINE
8
0
6
CONTINUOUS
10
-40.250080
20
-68.906909
30
0.0
11
-48.514071
21
-108.613757
31
0.0
0
LINE
8
0
6
CONTINUOUS
10
-59.506017
20
-132.628180
30
0.0
11
-54.598142
21
-107.380534
31
0.0
0
LINE
8
0
6
CONTINUOUS
10
-58.025811
20
-106.673711
30
0.0
11
-62.943239
21
-131.971270
31
0.0
0
LINE
8
0
6
CONTINUOUS
10
-46.957347
20
-134.863245
30
0.0
11
-42.100901
21
-109.884571
31
0.0
0
LINE
8
0
6
CONTINUOUS
10
-48.202294
20
-134.673079
30
0.0
11
-43.337540
21
-109.650979
31
0.0
0
LINE
8
0
6
CONTINUOUS
10
-48.514071
20
-108.613757
30
0.0
11
-53.400116
21
-133.747297
31
0.0
0
LINE
8
0
6
CONTINUOUS
10
-63.790017
20
-158.098915
30
0.0
11
-59.506017
21
-132.628180
31
0.0
0
LINE
8
0
6
CONTINUOUS
10
-62.943239
20
-131.971270
30
0.0
11
-67.241789
21
-157.528697
31
0.0
0
LINE
8
0
6
CONTINUOUS
10
-51.185751
20
-160.003011
30
0.0
11
-46.957347
21
-134.863245
31
0.0
0
LINE
8
0
6
CONTINUOUS
10
-52.436691
20
-159.848555
30
0.0
11
-48.202294
21
-134.673079
31
0.0
0
LINE
8
0
6
CONTINUOUS
10
-53.400116
20
-133.747297
30
0.0
11
-57.657550
21
-159.059848
31
0.0
0
LINE
8
0
6
CONTINUOUS
10
-67.365437
20
-183.415044
30
0.0
11
-63.790017
21
-158.098915
31
0.0
0
LINE
8
0
6
CONTINUOUS
10
-67.241789
20
-157.528697
30
0.0
11
-70.830263
21
-182.937596
31
0.0
0
LINE
8
0
6
CONTINUOUS
10
-54.711728
20
-184.967613
30
0.0
11
-51.185751
21
-160.003011
31
0.0
0
LINE
8
0
6
CONTINUOUS
10
-55.967923
20
-184.850487
30
0.0
11
-52.436691
21
-159.848555
31
0.0
0
LINE
8
0
6
CONTINUOUS
10
-57.657550
20
-159.059848
30
0.0
11
-61.209255
21
-184.207420
31
0.0
0
LINE
8
0
6
CONTINUOUS
10
-70.149536
20
-208.210559
30
0.0
11
-67.365437
21
-183.415044
31
0.0
0
LINE
8
0
6
CONTINUOUS
10
-70.830263
20
-182.937596
30
0.0
11
-73.625890
21
-207.836624
31
0.0
0
LINE
8
0
6
CONTINUOUS
10
-57.452477
20
-209.373861
30
0.0
11
-54.711728
21
-184.967613
31
0.0
0
LINE
8
0
6
CONTINUOUS
10
-58.713210
20
-209.297573
30
0.0
11
-55.967923
21
-184.850487
31
0.0
0
LINE
8
0
6
CONTINUOUS
10
-61.209255
20
-184.207420
30
0.0
11
-63.972502
21
-208.815697
31
0.0
0
LINE
8
0
6
CONTINUOUS
10
-72.058805
20
-232.121478
30
0.0
11
-70.149536
21
-208.210559
31
0.0
0
LINE
8
0
6
CONTINUOUS
10
-73.625890
20
-207.836624
30
0.0
11
-75.544593
21
-231.867867
31
0.0
0
LINE
8
0
6
CONTINUOUS
10
-59.326473
20
-232.835157
30
0.0
11
-57.452477
21
-209.373861
31
0.0
0
LINE
8
0
6
CONTINUOUS
10
-60.590866
20
-232.805463
30
0.0
11
-58.713210
21
-209.297573
31
0.0
0
LINE
8
0
6
CONTINUOUS
10
-63.972502
20
-208.815697
30
0.0
11
-65.864768
21
-232.509825
31
0.0
0
LINE
8
0
6
CONTINUOUS
10
-73.008408
20
-254.787271
30
0.0
11
-72.058805
21
-232.121478
31
0.0
0
LINE
8
0
6
CONTINUOUS
10
-75.544593
20
-231.867867
30
0.0
11
-76.500000
21
-254.679570
31
0.0
0
LINE
8
0
6
CONTINUOUS
10
-60.254526
20
-254.958647
30
0.0
11
-59.326473
21
-232.835157
31
0.0
0
LINE
8
0
6
CONTINUOUS
10
-61.521133
20
-254.984613
30
0.0
11
-60.590866
21
-232.805463
31
0.0
0
LINE
8
0
6
CONTINUOUS
10
-65.864768
20
-232.509825
30
0.0
11
-66.803960
21
-254.913621
31
0.0
0
LINE
8
0
6
CONTINUOUS
10
-72.910728
20
-275.853790
30
0.0
11
-73.008408
21
-254.787271
31
0.0
0
LINE
8
0
6
CONTINUOUS
10
-76.500000
20
-254.679570
30
0.0
11
-76.400834
21
-275.931148
31
0.0
0
LINE
8
0
6
CONTINUOUS
10
-60.162311
20
-275.340352
30
0.0
11
-60.254526
21
-254.958647
31
0.0
0
LINE
8
0
6
CONTINUOUS
10
-61.428359
20
-275.436049
30
0.0
11
-61.521133
21
-254.984613
31
0.0
0
LINE
8
0
6
CONTINUOUS
10
-66.803960
20
-254.913621
30
0.0
11
-66.708923
21
-275.648752
31
0.0
0
LINE
8
0
6
CONTINUOUS
10
-71.671576
20
-294.978474
30
0.0
11
-72.910728
21
-275.853790
31
0.0
0
LINE
8
0
6
CONTINUOUS
10
-76.400834
20
-275.931148
30
0.0
11
-75.144390
21
-295.302246
31
0.0
0
LINE
8
0
6
CONTINUOUS
10
-58.986952
20
-293.556074
30
0.0
11
-60.162311
21
-275.340352
31
0.0
0
LINE
8
0
6
CONTINUOUS
10
-60.246548
20
-293.743761
30
0.0
11
-61.428359
21
-275.436049
31
0.0
0
LINE
8
0
6
CONTINUOUS
10
-66.708923
20
-275.648752
30
0.0
11
-65.500695
21
-294.332968
31
0.0
0
LINE
8
0
6
CONTINUOUS
10
-68.336152
20
-315.626493
30
0.0
11
-71.671576
21
-294.978474
31
0.0
0
LINE
8
0
6
CONTINUOUS
10
-75.144390
20
-295.302246
30
0.0
11
-71.690164
21
-316.571824
31
0.0
0
LINE
8
0
6
CONTINUOUS
10
-56.083623
20
-311.928111
30
0.0
11
-58.986952
21
-293.556074
31
0.0
0
LINE
8
0
6
CONTINUOUS
10
-57.300408
20
-312.342843
30
0.0
11
-60.246548
21
-293.743761
31
0.0
0
LINE
8
0
6
CONTINUOUS
10
-65.500695
20
-294.332968
30
0.0
11
-62.375858
21
-313.874823
31
0.0
0
LINE
8
0
6
CONTINUOUS
10
-61.770343
20
-335.472671
30
0.0
11
-68.336152
21
-315.626493
31
0.0
0
LINE
8
0
6
CONTINUOUS
10
-71.690164
20
-316.571824
30
0.0
11
-64.894322
21
-337.008619
31
0.0
0
LINE
8
0
6
CONTINUOUS
10
-50.357263
20
-329.610935
30
0.0
11
-56.083623
21
-311.928111
31
0.0
0
LINE
8
0
6
CONTINUOUS
10
-51.490678
20
-330.241549
30
0.0
11
-57.300408
21
-312.342843
31
0.0
0
LINE
8
0
6
CONTINUOUS
10
-62.375858
20
-313.874823
30
0.0
11
-56.218590
21
-332.669718
31
0.0
0
LINE
8
0
6
CONTINUOUS
10
-52.502110
20
-354.270844
30
0.0
11
-61.770343
21
-335.472671
31
0.0
0
LINE
8
0
6
CONTINUOUS
10
-64.894322
20
-337.008619
30
0.0
11
-55.306274
21
-356.357980
31
0.0
0
LINE
8
0
6
CONTINUOUS
10
-42.251813
20
-346.386257
30
0.0
11
-50.357263
21
-329.610935
31
0.0
0
LINE
8
0
6
CONTINUOUS
10
-43.270017
20
-347.219041
30
0.0
11
-51.490678
21
-330.241549
31
0.0
0
LINE
8
0
6
CONTINUOUS
10
-56.218590
20
-332.669718
30
0.0
11
-47.517119
21
-350.485690
31
0.0
0
LINE
8
0
6
CONTINUOUS
10
-40.503220
20
-371.413545
30
0.0
11
-52.502110
21
-354.270844
31
0.0
0
LINE
8
0
6
CONTINUOUS
10
-55.306274
20
-356.357980
30
0.0
11
-42.868388
21
-373.959029
31
0.0
0
LINE
8
0
6
CONTINUOUS
10
-31.853665
20
-361.842453
30
0.0
11
-42.251813
21
-346.386257
31
0.0
0
LINE
8
0
6
CONTINUOUS
10
-32.713038
20
-362.844363
30
0.0
11
-43.270017
21
-347.219041
31
0.0
0
LINE
8
0
6
CONTINUOUS
10
-47.517119
20
-350.485690
30
0.0
11
-36.297743
21
-366.810579
31
0.0
0
LINE
8
0
6
CONTINUOUS
10
-24.755120
20
-385.131573
30
0.0
11
-40.503220
21
-371.413545
31
0.0
0
LINE
8
0
6
CONTINUOUS
10
-42.868388
20
-373.959029
30
0.0
11
-26.603348
21
-388.051642
31
0.0
0
LINE
8
0
6
CONTINUOUS
10
-18.011404
20
-374.201436
30
0.0
11
-31.853665
21
-361.842453
31
0.0
0
LINE
8
0
6
CONTINUOUS
10
-18.679705
20
-375.338013
30
0.0
11
-32.713038
21
-362.844363
31
0.0
0
LINE
8
0
6
CONTINUOUS
10
-36.297743
20
-366.810579
30
0.0
11
-21.473049
21
-379.865401
31
0.0
0
LINE
8
0
6
CONTINUOUS
10
-9.218237
20
-391.802406
30
0.0
11
-24.755120
21
-385.131573
31
0.0
0
LINE
8
0
6
CONTINUOUS
10
-26.603348
20
-388.051642
30
0.0
11
-10.057425
21
-395.150030
31
0.0
0
LINE
8
0
6
CONTINUOUS
10
-6.152078
20
-379.314143
30
0.0
11
-18.011404
21
-374.201436
31
0.0
0
LINE
8
0
6
CONTINUOUS
10
-6.456735
20
-380.604785
30
0.0
11
-18.679705
21
-375.338013
31
0.0
0
LINE
8
0
6
CONTINUOUS
10
-21.473049
20
-379.865401
30
0.0
11
-7.726782
21
-385.777649
31
0.0
0
LINE
8
0
6
CONTINUOUS
10
6.250954
20
-393.058057
30
0.0
11
-9.218237
21
-391.802406
31
0.0
0
LINE
8
0
6
CONTINUOUS
10
-10.057425
20
-395.150030
30
0.0
11
6.497682
21
-396.500000
31
0.0
0
LINE
8
0
6
CONTINUOUS
10
5.368146
20
-380.226493
30
0.0
11
-6.152078
21
-379.314143
31
0.0
0
LINE
8
0
6
CONTINUOUS
10
5.452254
20
-381.550957
30
0.0
11
-6.456735
21
-380.604785
31
0.0
0
LINE
8
0
6
CONTINUOUS
10
-7.726782
20
-385.777649
30
0.0
11
5.817922
21
-386.865922
31
0.0
0
LINE
8
0
6
CONTINUOUS
10
20.870466
20
-389.802622
30
0.0
11
6.250954
21
-393.058057
31
0.0
0
LINE
8
0
6
CONTINUOUS
10
6.497682
20
-396.500000
30
0.0
11
22.064254
21
-393.044325
31
0.0
0
LINE
8
0
6
CONTINUOUS
10
16.554454
20
-377.697210
30
0.0
11
5.368146
21
-380.226493
31
0.0
0
LINE
8
0
6
CONTINUOUS
10
16.974452
20
-378.950642
30
0.0
11
5.452254
21
-381.550957
31
0.0
0
LINE
8
0
6
CONTINUOUS
10
5.817922
20
-386.865922
30
0.0
11
18.762197
21
-383.964873
31
0.0
0
LINE
8
0
6
CONTINUOUS
10
34.047846
20
-383.057471
30
0.0
11
20.870466
21
-389.802622
31
0.0
0
LINE
8
0
6
CONTINUOUS
10
22.064254
20
-393.044325
30
0.0
11
35.976471
21
-385.931375
31
0.0
0
LINE
8
0
6
CONTINUOUS
10
27.080079
20
-372.279190
30
0.0
11
16.554454
21
-377.697210
31
0.0
0
LINE
8
0
6
CONTINUOUS
10
27.757147
20
-373.403954
30
0.0
11
16.974452
21
-378.950642
31
0.0
0
LINE
8
0
6
CONTINUOUS
10
18.762197
20
-383.964873
30
0.0
11
30.643293
21
-377.868436
31
0.0
0
LINE
8
0
6
CONTINUOUS
10
45.338944
20
-373.778308
30
0.0
11
34.047846
21
-383.057471
31
0.0
0
LINE
8
0
6
CONTINUOUS
10
35.976471
20
-385.931375
30
0.0
11
47.829116
21
-376.194783
31
0.0
0
LINE
8
0
6
CONTINUOUS
10
36.357697
20
-364.640099
30
0.0
11
27.080079
21
-372.279190
31
0.0
0
LINE
8
0
6
CONTINUOUS
10
37.227421
20
-365.607938
30
0.0
11
27.757147
21
-373.403954
31
0.0
0
LINE
8
0
6
CONTINUOUS
10
30.643293
20
-377.868436
30
0.0
11
40.947581
21
-369.393093
31
0.0
0
LINE
8
0
6
CONTINUOUS
10
54.327800
20
-362.816459
30
0.0
11
45.338944
21
-373.778308
31
0.0
0
LINE
8
0
6
CONTINUOUS
10
47.829116
20
-376.194783
30
0.0
11
57.266830
21
-364.683525
31
0.0
0
LINE
8
0
6
CONTINUOUS
10
43.750089
20
-355.632328
30
0.0
11
36.357697
21
-364.640099
31
0.0
0
LINE
8
0
6
CONTINUOUS
10
44.770028
20
-356.416308
30
0.0
11
37.227421
21
-365.607938
31
0.0
0
LINE
8
0
6
CONTINUOUS
10
40.947581
20
-369.393093
30
0.0
11
49.151468
21
-359.392046
31
0.0
0
LINE
8
0
6
CONTINUOUS
10
60.512184
20
-351.053958
30
0.0
11
54.327800
21
-362.816459
31
0.0
0
LINE
8
0
6
CONTINUOUS
10
57.266830
20
-364.683525
30
0.0
11
63.772824
21
-352.316006
31
0.0
0
LINE
8
0
6
CONTINUOUS
10
48.781521
20
-346.038818
30
0.0
11
43.750089
21
-355.632328
31
0.0
0
LINE
8
0
6
CONTINUOUS
10
49.911735
20
-346.615322
30
0.0
11
44.770028
21
-356.416308
31
0.0
0
LINE
8
0
6
CONTINUOUS
10
49.151468
20
-359.392046
30
0.0
11
54.770735
21
-348.692653
31
0.0
0
LINE
8
0
6
CONTINUOUS
10
66.137284
20
-332.914524
30
0.0
11
60.512184
21
-351.053958
31
0.0
0
LINE
8
0
6
CONTINUOUS
10
63.772824
20
-352.316006
30
0.0
11
69.558421
21
-333.688709
31
0.0
0
LINE
8
0
6
CONTINUOUS
10
53.812386
20
-329.705643
30
0.0
11
48.781521
21
-346.038818
31
0.0
0
LINE
8
0
6
CONTINUOUS
10
55.003152
20
-330.098078
30
0.0
11
49.911735
21
-346.615322
31
0.0
0
LINE
8
0
6
CONTINUOUS
10
54.770735
20
-348.692653
30
0.0
11
60.108291
21
-331.427269
31
0.0
0
LINE
8
0
6
CONTINUOUS
10
69.952122
20
-312.832725
30
0.0
11
66.137284
21
-332.914524
31
0.0
0
LINE
8
0
6
CONTINUOUS
10
69.558421
20
-333.688709
30
0.0
11
73.438249
21
-313.276661
31
0.0
0
LINE
8
0
6
CONTINUOUS
10
57.379240
20
-310.884063
30
0.0
11
53.812386
21
-329.705643
31
0.0
0
LINE
8
0
6
CONTINUOUS
10
58.596692
20
-311.140922
30
0.0
11
55.003152
21
-330.098078
31
0.0
0
LINE
8
0
6
CONTINUOUS
10
60.108291
20
-331.427269
30
0.0
11
63.804547
21
-311.948090
31
0.0
0
LINE
8
0
6
CONTINUOUS
10
72.175472
20
-291.129804
30
0.0
11
69.952122
21
-312.832725
31
0.0
0
LINE
8
0
6
CONTINUOUS
10
73.438249
20
-313.276661
30
0.0
11
75.689273
21
-291.315173
31
0.0
0
LINE
8
0
6
CONTINUOUS
10
59.497271
20
-290.164983
30
0.0
11
57.379240
21
-310.884063
31
0.0
0
LINE
8
0
6
CONTINUOUS
10
60.726002
20
-290.316500
30
0.0
11
58.596692
21
-311.140922
31
0.0
0
LINE
8
0
6
CONTINUOUS
10
63.804547
20
-311.948090
30
0.0
11
65.977476
21
-290.716131
31
0.0
0
LINE
8
0
6
CONTINUOUS
10
72.978301
20
-268.190072
30
0.0
11
72.175472
21
-291.129804
31
0.0
0
LINE
8
0
6
CONTINUOUS
10
75.689273
20
-291.315173
30
0.0
11
76.500000
21
-268.168304
31
0.0
0
LINE
8
0
6
CONTINUOUS
10
60.270133
20
-268.010500
30
0.0
11
59.497271
21
-290.164983
31
0.0
0
LINE
8
0
6
CONTINUOUS
10
61.502046
20
-268.078513
30
0.0
11
60.726002
21
-290.316500
31
0.0
0
LINE
8
0
6
CONTINUOUS
10
65.977476
20
-290.716131
30
0.0
11
66.765935
21
-268.152902
31
0.0
0
LINE
8
0
6
CONTINUOUS
10
72.519391
20
-244.405583
30
0.0
11
72.978301
21
-268.190072
31
0.0
0
LINE
8
0
6
CONTINUOUS
10
76.500000
20
-268.168304
30
0.0
11
76.038177
21
-244.213049
31
0.0
0
LINE
8
0
6
CONTINUOUS
10
59.822232
20
-244.869918
30
0.0
11
60.270133
21
-268.010500
31
0.0
0
LINE
8
0
6
CONTINUOUS
10
61.052988
20
-244.870038
30
0.0
11
61.502046
21
-268.078513
31
0.0
0
LINE
8
0
6
CONTINUOUS
10
66.765935
20
-268.152902
30
0.0
11
66.312320
21
-244.677724
31
0.0
0
LINE
8
0
6
CONTINUOUS
10
70.951368
20
-220.174099
30
0.0
11
72.519391
21
-244.405583
31
0.0
0
LINE
8
0
6
CONTINUOUS
10
76.038177
20
-244.213049
30
0.0
11
74.460990
21
-219.836384
31
0.0
0
LINE
8
0
6
CONTINUOUS
10
58.288564
20
-221.182496
30
0.0
11
59.822232
21
-244.869918
31
0.0
0
LINE
8
0
6
CONTINUOUS
10
59.515740
20
-221.125957
30
0.0
11
61.052988
21
-244.870038
31
0.0
0
LINE
8
0
6
CONTINUOUS
10
66.312320
20
-244.677724
30
0.0
11
64.760841
21
-220.708246
31
0.0
0
LINE
8
0
6
CONTINUOUS
10
68.423550
20
-195.897560
30
0.0
11
70.951368
21
-220.174099
31
0.0
0
LINE
8
0
6
CONTINUOUS
10
74.460990
20
-219.836384
30
0.0
11
71.919999
21
-195.432075
31
0.0
0
LINE
8
0
6
CONTINUOUS
10
55.809701
20
-197.380697
30
0.0
11
58.288564
21
-221.182496
31
0.0
0
LINE
8
0
6
CONTINUOUS
10
57.031850
20
-197.275474
30
0.0
11
59.515740
21
-221.125957
31
0.0
0
LINE
8
0
6
CONTINUOUS
10
64.760841
20
-220.708246
30
0.0
11
62.256688
21
-196.661141
31
0.0
0
LINE
8
0
6
CONTINUOUS
10
65.083469
20
-171.980274
30
0.0
11
68.423550
21
-195.897560
31
0.0
0
LINE
8
0
6
CONTINUOUS
10
71.919999
20
-195.432075
30
0.0
11
68.563673
21
-171.397933
31
0.0
0
LINE
8
0
6
CONTINUOUS
10
52.529335
20
-173.892945
30
0.0
11
55.809701
21
-197.380697
31
0.0
0
LINE
8
0
6
CONTINUOUS
10
53.745481
20
-173.744516
30
0.0
11
57.031850
21
-197.275474
31
0.0
0
LINE
8
0
6
CONTINUOUS
10
62.256688
20
-196.661141
30
0.0
11
58.945577
21
-172.952261
31
0.0
0
LINE
8
0
6
CONTINUOUS
10
61.077420
20
-148.827758
30
0.0
11
65.083469
21
-171.980274
31
0.0
0
LINE
8
0
6
CONTINUOUS
10
68.563673
20
-171.397933
30
0.0
11
64.538327
21
-148.133749
31
0.0
0
LINE
8
0
6
CONTINUOUS
10
48.593312
20
-151.145637
30
0.0
11
52.529335
21
-173.892945
31
0.0
0
LINE
8
0
6
CONTINUOUS
10
49.802587
20
-150.957480
30
0.0
11
53.745481
21
-173.744516
31
0.0
0
LINE
8
0
6
CONTINUOUS
10
58.945577
20
-172.952261
30
0.0
11
54.973683
21
-149.997397
31
0.0
0
LINE
8
0
6
CONTINUOUS
10
56.563037
20
-126.905808
30
0.0
11
61.077420
21
-148.827758
31
0.0
0
LINE
8
0
6
CONTINUOUS
10
64.538327
20
-148.133749
30
0.0
11
59.991155
21
-126.052886
31
0.0
0
LINE
8
0
6
CONTINUOUS
10
44.146582
20
-129.551757
30
0.0
11
48.593312
21
-151.145637
31
0.0
0
LINE
8
0
6
CONTINUOUS
10
45.359228
20
-129.379881
30
0.0
11
49.802587
21
-150.957480
31
0.0
0
LINE
8
0
6
CONTINUOUS
10
54.973683
20
-149.997397
30
0.0
11
50.502292
21
-128.283912
31
0.0
0
LINE
8
0
6
CONTINUOUS
10
50.147513
20
-100.231014
30
0.0
11
56.563037
21
-126.905808
31
0.0
0
LINE
8
0
6
CONTINUOUS
10
59.991155
20
-126.052886
30
0.0
11
53.522099
21
-99.153424
31
0.0
0
LINE
8
0
6
CONTINUOUS
10
37.767547
20
-103.030079
30
0.0
11
44.146582
21
-129.551757
31
0.0
0
LINE
8
0
6
CONTINUOUS
10
39.007358
20
-102.972201
30
0.0
11
45.359228
21
-129.379881
31
0.0
0
LINE
8
0
6
CONTINUOUS
10
50.502292
20
-128.283912
30
0.0
11
44.135313
21
-101.812826
31
0.0
0
LINE
8
0
6
CONTINUOUS
10
43.085188
20
-73.757569
30
0.0
11
50.147513
21
-100.231014
31
0.0
0
LINE
8
0
6
CONTINUOUS
10
53.522099
20
-99.153424
30
0.0
11
46.407867
21
-72.482708
31
0.0
0
LINE
8
0
6
CONTINUOUS
10
30.705112
20
-76.556214
30
0.0
11
37.767547
21
-103.030079
31
0.0
0
LINE
8
0
6
CONTINUOUS
10
31.981661
20
-76.637960
30
0.0
11
39.007358
21
-102.972201
31
0.0
0
LINE
8
0
6
CONTINUOUS
10
44.135313
20
-101.812826
30
0.0
11
37.109657
21
-75.478735
31
0.0
0
LINE
8
0
6
CONTINUOUS
10
35.676441
20
-47.186258
30
0.0
11
43.085188
21
-73.757569
31
0.0
0
LINE
8
0
6
CONTINUOUS
10
46.407867
20
-72.482708
30
0.0
11
38.969273
21
-45.802926
31
0.0
0
LINE
8
0
6
CONTINUOUS
10
23.269968
20
-49.888936
30
0.0
11
30.705112
21
-76.556214
31
0.0
0
LINE
8
0
6
CONTINUOUS
10
24.575358
20
-50.075484
30
0.0
11
31.981661
21
-76.637960
31
0.0
0
LINE
8
0
6
CONTINUOUS
10
37.109657
20
-75.478735
30
0.0
11
29.714283
21
-48.956008
31
0.0
0
LINE
8
0
6
CONTINUOUS
10
28.235244
20
-20.276213
30
0.0
11
35.676441
21
-47.186258
31
0.0
0
LINE
8
0
6
CONTINUOUS
10
38.969273
20
-45.802926
30
0.0
11
31.522152
21
-18.871183
31
0.0
0
LINE
8
0
6
CONTINUOUS
10
15.777713
20
-22.791923
30
0.0
11
23.269968
21
-49.888936
31
0.0
0
LINE
8
0
6
CONTINUOUS
10
17.102249
20
-23.048563
30
0.0
11
24.575358
21
-50.075484
31
0.0
0
LINE
8
0
6
CONTINUOUS
10
29.714283
20
-48.956008
30
0.0
11
22.262326
21
-22.006524
31
0.0
0
LINE
8
0
6
CONTINUOUS
10
21.075588
20
7.213255
30
0.0
11
28.235244
21
-20.276213
31
0.0
0
LINE
8
0
6
CONTINUOUS
10
31.522152
20
-18.871183
30
0.0
11
24.378343
21
8.556668
31
0.0
0
LINE
8
0
6
CONTINUOUS
10
8.548021
20
4.969805
30
0.0
11
15.777713
21
-22.791923
31
0.0
0
LINE
8
0
6
CONTINUOUS
10
9.881861
20
4.676976
30
0.0
11
17.102249
21
-23.048563
31
0.0
0
LINE
8
0
6
CONTINUOUS
10
22.262326
20
-22.006524
30
0.0
11
15.070948
21
5.606246
31
0.0
0
LINE
8
0
6
CONTINUOUS
10
14.511575
20
35.522933
30
0.0
11
21.075588
21
7.213255
31
0.0
0
LINE
8
0
6
CONTINUOUS
10
24.378343
20
8.556668
30
0.0
11
17.846430
21
36.726213
31
0.0
0
LINE
8
0
6
CONTINUOUS
10
1.903769
20
33.629841
30
0.0
11
8.548021
21
4.969805
31
0.0
0
LINE
8
0
6
CONTINUOUS
10
3.238417
20
33.333463
30
0.0
11
9.881861
21
4.676976
31
0.0
0
LINE
8
0
6
CONTINUOUS
10
15.070948
20
5.606246
30
0.0
11
8.460742
21
34.117603
31
0.0
0
LINE
8
0
6
CONTINUOUS
10
8.857564
20
64.893809
30
0.0
11
14.511575
21
35.522933
31
0.0
0
LINE
8
0
6
CONTINUOUS
10
17.846430
20
36.726213
30
0.0
11
12.232728
21
65.885025
31
0.0
0
LINE
8
0
6
CONTINUOUS
10
-3.829901
20
63.419717
30
0.0
11
1.903769
21
33.629841
31
0.0
0
LINE
8
0
6
CONTINUOUS
10
-2.500429
20
63.150585
30
0.0
11
3.238417
21
33.333463
31
0.0
0
LINE
8
0
6
CONTINUOUS
10
8.460742
20
34.117603
30
0.0
11
2.754885
21
63.761170
31
0.0
0
LINE
8
0
6
CONTINUOUS
10
4.428286
20
95.567221
30
0.0
11
8.857564
21
64.893809
31
0.0
0
LINE
8
0
6
CONTINUOUS
10
12.232728
20
65.885025
30
0.0
11
7.842652
21
96.283418
31
0.0
0
LINE
8
0
6
CONTINUOUS
10
-8.326912
20
94.568348
30
0.0
11
-3.829901
21
63.419717
31
0.0
0
LINE
8
0
6
CONTINUOUS
10
-7.005318
20
94.354486
30
0.0
11
-2.500429
21
63.150585
31
0.0
0
LINE
8
0
6
CONTINUOUS
10
2.754885
20
63.761170
30
0.0
11
-1.721942
21
94.768229
31
0.0
0
LINE
8
0
6
CONTINUOUS
10
1.538998
20
127.784626
30
0.0
11
4.428286
21
95.567221
31
0.0
0
LINE
8
0
6
CONTINUOUS
10
7.842652
20
96.283418
30
0.0
11
4.982174
21
128.174802
31
0.0
0
LINE
8
0
6
CONTINUOUS
10
-11.261764
20
127.301411
30
0.0
11
-8.326912
21
94.568348
31
0.0
0
LINE
8
0
6
CONTINUOUS
10
-9.947190
20
127.167055
30
0.0
11
-7.005318
21
94.354486
31
0.0
0
LINE
8
0
6
CONTINUOUS
10
-1.721942
20
94.768229
30
0.0
11
-4.644947
21
127.367215
31
0.0
0
LINE
8
0
6
CONTINUOUS
10
0.505606
20
161.786453
30
0.0
11
-5.690594
21
161.778327
31
0.0
0
LINE
8
0
6
CONTINUOUS
10
0.505606
20
161.786453
30
0.0
11
1.538998
21
127.784626
31
0.0
0
LINE
8
0
6
CONTINUOUS
10
3.959483
20
161.819275
30
0.0
11
0.505606
21
161.786453
31
0.0
0
LINE
8
0
6
CONTINUOUS
10
4.982174
20
128.174802
30
0.0
11
3.959483
21
161.819275
31
0.0
0
LINE
8
0
6
CONTINUOUS
10
-12.311171
20
161.838025
30
0.0
11
-11.261764
21
127.301411
31
0.0
0
LINE
8
0
6
CONTINUOUS
10
-10.999480
20
161.799716
30
0.0
11
-9.947190
21
127.167055
31
0.0
0
LINE
8
0
6
CONTINUOUS
10
-5.690594
20
161.778327
30
0.0
11
-10.999480
21
161.799716
31
0.0
0
LINE
8
0
6
CONTINUOUS
10
-4.644947
20
127.367215
30
0.0
11
-5.690594
21
161.778327
31
0.0
0
LINE
8
0
6
CONTINUOUS
10
7.711933
20
162.264181
30
0.0
11
7.711923
21
201.004490
31
0.0
0
LINE
8
0
6
CONTINUOUS
10
-16.063622
20
201.004490
30
0.0
11
-16.063602
21
162.264181
31
0.0
0
LINE
8
0
6
CONTINUOUS
10
-16.063622
20
201.439981
30
0.0
11
-16.063622
21
201.004490
31
0.0
0
LINE
8
0
6
CONTINUOUS
10
-15.481791
20
201.439981
30
0.0
11
-16.063622
21
201.439981
31
0.0
0
LINE
8
0
6
CONTINUOUS
10
-13.793252
20
201.439981
30
0.0
11
-15.481791
21
201.439981
31
0.0
0
LINE
8
0
6
CONTINUOUS
10
-11.163306
20
201.439981
30
0.0
11
-13.793252
21
201.439981
31
0.0
0
LINE
8
0
6
CONTINUOUS
10
-7.849373
20
201.439981
30
0.0
11
-11.163306
21
201.439981
31
0.0
0
LINE
8
0
6
CONTINUOUS
10
-4.175844
20
201.439981
30
0.0
11
-7.849373
21
201.439981
31
0.0
0
LINE
8
0
6
CONTINUOUS
10
-0.502326
20
201.439981
30
0.0
11
-4.175844
21
201.439981
31
0.0
0
LINE
8
0
6
CONTINUOUS
10
2.811608
20
201.439981
30
0.0
11
-0.502326
21
201.439981
31
0.0
0
LINE
8
0
6
CONTINUOUS
10
5.441563
20
201.439981
30
0.0
11
2.811608
21
201.439981
31
0.0
0
LINE
8
0
6
CONTINUOUS
10
7.130093
20
201.439981
30
0.0
11
5.441563
21
201.439981
31
0.0
0
LINE
8
0
6
CONTINUOUS
10
7.711923
20
201.004490
30
0.0
11
7.711923
21
201.439981
31
0.0
0
LINE
8
0
6
CONTINUOUS
10
7.711923
20
201.439981
30
0.0
11
7.130093
21
201.439981
31
0.0
0
LINE
8
0
6
CONTINUOUS
10
-16.063602
20
161.828690
30
0.0
11
-15.481771
21
161.828690
31
0.0
0
LINE
8
0
6
CONTINUOUS
10
-16.063602
20
162.264181
30
0.0
11
-16.063602
21
161.828690
31
0.0
0
LINE
8
0
6
CONTINUOUS
10
-15.481771
20
161.828690
30
0.0
11
-13.793242
21
161.828690
31
0.0
0
LINE
8
0
6
CONTINUOUS
10
-13.793242
20
161.828690
30
0.0
11
-11.163286
21
161.828690
31
0.0
0
LINE
8
0
6
CONTINUOUS
10
-11.163286
20
161.828690
30
0.0
11
-7.849353
21
161.828690
31
0.0
0
LINE
8
0
6
CONTINUOUS
10
-7.849353
20
161.828690
30
0.0
11
-4.175834
21
161.828690
31
0.0
0
LINE
8
0
6
CONTINUOUS
10
-4.175834
20
161.828690
30
0.0
11
-0.502306
21
161.828690
31
0.0
0
LINE
8
0
6
CONTINUOUS
10
-0.502306
20
161.828690
30
0.0
11
2.811628
21
161.828690
31
0.0
0
LINE
8
0
6
CONTINUOUS
10
2.811628
20
161.828690
30
0.0
11
5.441573
21
161.828690
31
0.0
0
LINE
8
0
6
CONTINUOUS
10
5.441573
20
161.828690
30
0.0
11
7.130103
21
161.828690
31
0.0
0
LINE
8
0
6
CONTINUOUS
10
7.711933
20
161.828690
30
0.0
11
7.711933
21
162.264181
31
0.0
0
LINE
8
0
6
CONTINUOUS
10
7.130103
20
161.828690
30
0.0
11
7.711933
21
161.828690
31
0.0
0
LINE
8
0
6
CONTINUOUS
10
0.094055
20
342.090043
30
0.0
11
-0.336245
21
341.300656
31
0.0
0
LINE
8
0
6
CONTINUOUS
10
0.991313
20
342.111281
30
0.0
11
0.094055
21
342.090043
31
0.0
0
LINE
8
0
6
CONTINUOUS
10
1.458291
20
341.343112
30
0.0
11
0.991313
21
342.111281
31
0.0
0
LINE
8
0
6
CONTINUOUS
10
-4.642833
20
328.519154
30
0.0
11
-3.745574
21
328.497915
31
0.0
0
LINE
8
0
6
CONTINUOUS
10
-5.073142
20
329.308511
30
0.0
11
-4.642833
21
328.519154
31
0.0
0
LINE
8
0
6
CONTINUOUS
10
-3.745574
20
328.497915
30
0.0
11
-3.278606
21
329.266084
31
0.0
0
LINE
8
0
6
CONTINUOUS
10
-4.606174
20
330.076720
30
0.0
11
-5.073142
21
329.308511
31
0.0
0
LINE
8
0
6
CONTINUOUS
10
-3.708916
20
330.055461
30
0.0
11
-4.606174
21
330.076720
31
0.0
0
LINE
8
0
6
CONTINUOUS
10
-3.278606
20
329.266084
30
0.0
11
-3.708916
21
330.055461
31
0.0
0
LINE
8
0
6
CONTINUOUS
10
-1.234261
20
326.310845
30
0.0
11
-1.701229
21
327.079003
31
0.0
0
LINE
8
0
6
CONTINUOUS
10
-1.701229
20
327.079003
30
0.0
11
-2.598487
21
327.057775
31
0.0
0
LINE
8
0
6
CONTINUOUS
10
-1.664571
20
325.521447
30
0.0
11
-1.234261
21
326.310845
31
0.0
0
LINE
8
0
6
CONTINUOUS
10
-2.561829
20
325.500209
30
0.0
11
-1.664571
21
325.521447
31
0.0
0
LINE
8
0
6
CONTINUOUS
10
-3.028797
20
326.268388
30
0.0
11
-2.561829
21
325.500209
31
0.0
0
LINE
8
0
6
CONTINUOUS
10
-9.810040
20
317.316386
30
0.0
11
-9.379730
21
316.527029
31
0.0
0
LINE
8
0
6
CONTINUOUS
10
-8.482472
20
316.505791
30
0.0
11
-8.015503
21
317.273959
31
0.0
0
LINE
8
0
6
CONTINUOUS
10
-9.379730
20
316.527029
30
0.0
11
-8.482472
21
316.505791
31
0.0
0
LINE
8
0
6
CONTINUOUS
10
-9.343071
20
318.084595
30
0.0
11
-9.810040
21
317.316386
31
0.0
0
LINE
8
0
6
CONTINUOUS
10
-8.445813
20
318.063337
30
0.0
11
-9.343071
21
318.084595
31
0.0
0
LINE
8
0
6
CONTINUOUS
10
-8.015503
20
317.273959
30
0.0
11
-8.445813
21
318.063337
31
0.0
0
LINE
8
0
6
CONTINUOUS
10
-0.336245
20
311.320344
30
0.0
11
0.130723
21
310.552155
31
0.0
0
LINE
8
0
6
CONTINUOUS
10
1.027982
20
310.573393
30
0.0
11
1.458291
21
311.362791
31
0.0
0
LINE
8
0
6
CONTINUOUS
10
0.130723
20
310.552155
30
0.0
11
1.027982
21
310.573393
31
0.0
0
LINE
8
0
6
CONTINUOUS
10
-7.117487
20
314.276233
30
0.0
11
-6.650509
21
313.508054
31
0.0
0
LINE
8
0
6
CONTINUOUS
10
-5.753251
20
313.529293
30
0.0
11
-5.322951
21
314.318690
31
0.0
0
LINE
8
0
6
CONTINUOUS
10
-6.650509
20
313.508054
30
0.0
11
-5.753251
21
313.529293
31
0.0
0
LINE
8
0
6
CONTINUOUS
10
-6.687178
20
315.065620
30
0.0
11
-7.117487
21
314.276233
31
0.0
0
LINE
8
0
6
CONTINUOUS
10
-5.789920
20
315.086849
30
0.0
11
-6.687178
21
315.065620
31
0.0
0
LINE
8
0
6
CONTINUOUS
10
-5.322951
20
314.318690
30
0.0
11
-5.789920
21
315.086849
31
0.0
0
LINE
8
0
6
CONTINUOUS
10
0.094055
20
312.109721
30
0.0
11
-0.336245
21
311.320344
31
0.0
0
LINE
8
0
6
CONTINUOUS
10
0.991313
20
312.130959
30
0.0
11
0.094055
21
312.109721
31
0.0
0
LINE
8
0
6
CONTINUOUS
10
1.458291
20
311.362791
30
0.0
11
0.991313
21
312.130959
31
0.0
0
LINE
8
0
6
CONTINUOUS
10
-4.642833
20
298.538832
30
0.0
11
-3.745574
21
298.517594
31
0.0
0
LINE
8
0
6
CONTINUOUS
10
-5.073142
20
299.328199
30
0.0
11
-4.642833
21
298.538832
31
0.0
0
LINE
8
0
6
CONTINUOUS
10
-3.745574
20
298.517594
30
0.0
11
-3.278606
21
299.285762
31
0.0
0
LINE
8
0
6
CONTINUOUS
10
0.094055
20
294.121534
30
0.0
11
-0.336245
21
293.332157
31
0.0
0
LINE
8
0
6
CONTINUOUS
10
0.991313
20
294.142772
30
0.0
11
0.094055
21
294.121534
31
0.0
0
LINE
8
0
6
CONTINUOUS
10
1.458291
20
293.374613
30
0.0
11
0.991313
21
294.142772
31
0.0
0
LINE
8
0
6
CONTINUOUS
10
-16.078511
20
394.033412
30
0.0
11
-16.078481
21
389.760605
31
0.0
0
LINE
8
0
6
CONTINUOUS
10
-16.078481
20
389.760605
30
0.0
11
-16.078650
21
385.487778
31
0.0
0
LINE
8
0
6
CONTINUOUS
10
-16.078650
20
385.487778
30
0.0
11
-16.077882
21
381.214951
31
0.0
0
LINE
8
0
6
CONTINUOUS
10
-16.078511
20
395.471364
30
0.0
11
-16.078511
21
394.033412
31
0.0
0
LINE
8
0
6
CONTINUOUS
10
-16.077882
20
381.214951
30
0.0
11
-16.080944
21
376.942134
31
0.0
0
LINE
8
0
6
CONTINUOUS
10
7.726782
20
389.760605
30
0.0
11
7.726802
21
394.033412
31
0.0
0
LINE
8
0
6
CONTINUOUS
10
7.726952
20
385.487778
30
0.0
11
7.726782
21
389.760605
31
0.0
0
LINE
8
0
6
CONTINUOUS
10
7.726184
20
381.214951
30
0.0
11
7.726952
21
385.487778
31
0.0
0
LINE
8
0
6
CONTINUOUS
10
7.726802
20
394.033412
30
0.0
11
7.726802
21
395.471364
31
0.0
0
LINE
8
0
6
CONTINUOUS
10
7.729245
20
376.942134
30
0.0
11
7.726184
21
381.214951
31
0.0
0
LINE
8
0
6
CONTINUOUS
10
7.726802
20
395.471364
30
0.0
11
7.726802
21
396.183194
31
0.0
0
LINE
8
0
6
CONTINUOUS
10
-16.078511
20
396.183194
30
0.0
11
-16.078511
21
395.471364
31
0.0
0
LINE
8
0
6
CONTINUOUS
10
-5.192961
20
396.500000
30
0.0
11
-6.141248
21
396.500000
31
0.0
0
LINE
8
0
6
CONTINUOUS
10
-16.078501
20
396.500000
30
0.0
11
-16.078511
21
396.183194
31
0.0
0
LINE
8
0
6
CONTINUOUS
10
-15.981768
20
396.500000
30
0.0
11
-16.078501
21
396.500000
31
0.0
0
LINE
8
0
6
CONTINUOUS
10
-6.141248
20
396.500000
30
0.0
11
-7.341827
21
396.500000
31
0.0
0
LINE
8
0
6
CONTINUOUS
10
-7.341827
20
396.500000
30
0.0
11
-9.611439
21
396.500000
31
0.0
0
LINE
8
0
6
CONTINUOUS
10
-13.465887
20
396.500000
30
0.0
11
-15.016518
21
396.500000
31
0.0
0
LINE
8
0
6
CONTINUOUS
10
-9.611439
20
396.500000
30
0.0
11
-11.635640
21
396.500000
31
0.0
0
LINE
8
0
6
CONTINUOUS
10
-2.210451
20
396.500000
30
0.0
11
-3.158738
21
396.500000
31
0.0
0
LINE
8
0
6
CONTINUOUS
10
-15.016518
20
396.500000
30
0.0
11
-15.981768
21
396.500000
31
0.0
0
LINE
8
0
6
CONTINUOUS
10
-11.635640
20
396.500000
30
0.0
11
-13.465887
21
396.500000
31
0.0
0
LINE
8
0
6
CONTINUOUS
10
7.726802
20
396.500000
30
0.0
11
7.630070
21
396.500000
31
0.0
0
LINE
8
0
6
CONTINUOUS
10
7.726802
20
396.183194
30
0.0
11
7.726802
21
396.500000
31
0.0
0
LINE
8
0
6
CONTINUOUS
10
-1.009872
20
396.500000
30
0.0
11
-2.210451
21
396.500000
31
0.0
0
LINE
8
0
6
CONTINUOUS
10
1.259740
20
396.500000
30
0.0
11
-1.009872
21
396.500000
31
0.0
0
LINE
8
0
6
CONTINUOUS
10
6.664820
20
396.500000
30
0.0
11
5.114189
21
396.500000
31
0.0
0
LINE
8
0
6
CONTINUOUS
10
3.283941
20
396.500000
30
0.0
11
1.259740
21
396.500000
31
0.0
0
LINE
8
0
6
CONTINUOUS
10
7.630070
20
396.500000
30
0.0
11
6.664820
21
396.500000
31
0.0
0
LINE
8
0
6
CONTINUOUS
10
5.114189
20
396.500000
30
0.0
11
3.283941
21
396.500000
31
0.0
0
LINE
8
0
6
CONTINUOUS
10
-6.682291
20
396.500000
30
0.0
11
-9.018210
21
396.500000
31
0.0
0
LINE
8
0
6
CONTINUOUS
10
-4.175854
20
396.500000
30
0.0
11
-6.682291
21
396.500000
31
0.0
0
LINE
8
0
6
CONTINUOUS
10
-9.018210
20
396.500000
30
0.0
11
-11.065317
21
396.500000
31
0.0
0
LINE
8
0
6
CONTINUOUS
10
-12.696745
20
396.500000
30
0.0
11
-13.822710
21
396.500000
31
0.0
0
LINE
8
0
6
CONTINUOUS
10
-11.065317
20
396.500000
30
0.0
11
-12.696745
21
396.500000
31
0.0
0
LINE
8
0
6
CONTINUOUS
10
-13.822710
20
396.500000
30
0.0
11
-14.360443
21
396.500000
31
0.0
0
LINE
8
0
6
CONTINUOUS
10
0.666511
20
396.500000
30
0.0
11
-1.669407
21
396.500000
31
0.0
0
LINE
8
0
6
CONTINUOUS
10
-1.669407
20
396.500000
30
0.0
11
-4.175854
21
396.500000
31
0.0
0
LINE
8
0
6
CONTINUOUS
10
2.713619
20
396.500000
30
0.0
11
0.666511
21
396.500000
31
0.0
0
LINE
8
0
6
CONTINUOUS
10
5.471012
20
396.500000
30
0.0
11
4.345046
21
396.500000
31
0.0
0
LINE
8
0
6
CONTINUOUS
10
4.345046
20
396.500000
30
0.0
11
2.713619
21
396.500000
31
0.0
0
LINE
8
0
6
CONTINUOUS
10
6.008744
20
396.500000
30
0.0
11
5.471012
21
396.500000
31
0.0
0
LINE
8
0
6
CONTINUOUS
10
-3.158738
20
396.500000
30
0.0
11
-4.175854
21
396.500000
31
0.0
0
LINE
8
0
6
CONTINUOUS
10
-4.175854
20
396.500000
30
0.0
11
-5.192961
21
396.500000
31
0.0
0
LINE
8
0
6
CONTINUOUS
10
-4.175854
20
396.183194
30
0.0
11
-4.175854
21
396.500000
31
0.0
0
LINE
8
0
6
CONTINUOUS
10
-4.175854
20
395.352639
30
0.0
11
-3.158678
21
395.342894
31
0.0
0
LINE
8
0
6
CONTINUOUS
10
-5.193021
20
395.342894
30
0.0
11
-4.175854
21
395.352639
31
0.0
0
LINE
8
0
6
CONTINUOUS
10
-4.175854
20
395.352639
30
0.0
11
-4.175854
21
396.183194
31
0.0
0
LINE
8
0
6
CONTINUOUS
10
-16.080944
20
376.942134
30
0.0
11
-16.068987
21
372.473654
31
0.0
0
LINE
8
0
6
CONTINUOUS
10
7.717288
20
372.473654
30
0.0
11
7.729245
21
376.942134
31
0.0
0
LINE
8
0
6
CONTINUOUS
10
7.549842
20
371.681438
30
0.0
11
7.549842
21
371.940846
31
0.0
0
LINE
8
0
6
CONTINUOUS
10
6.562672
20
372.157937
30
0.0
11
7.191602
21
372.157937
31
0.0
0
LINE
8
0
6
CONTINUOUS
10
-5.049288
20
372.157937
30
0.0
11
-4.175854
21
372.157937
31
0.0
0
LINE
8
0
6
CONTINUOUS
10
7.228810
20
372.157937
30
0.0
11
7.716989
21
372.361245
31
0.0
0
LINE
8
0
6
CONTINUOUS
10
1.605843
20
372.157937
30
0.0
11
3.683406
21
372.157937
31
0.0
0
LINE
8
0
6
CONTINUOUS
10
-4.175854
20
372.157937
30
0.0
11
-3.302410
21
372.157937
31
0.0
0
LINE
8
0
6
CONTINUOUS
10
-13.717322
20
372.157937
30
0.0
11
-12.035105
21
372.157937
31
0.0
0
LINE
8
0
6
CONTINUOUS
10
-14.914371
20
372.157937
30
0.0
11
-13.717322
21
372.157937
31
0.0
0
LINE
8
0
6
CONTINUOUS
10
-2.402390
20
372.157937
30
0.0
11
-0.706212
21
372.157937
31
0.0
0
LINE
8
0
6
CONTINUOUS
10
3.683406
20
372.157937
30
0.0
11
5.365623
21
372.157937
31
0.0
0
LINE
8
0
6
CONTINUOUS
10
5.365623
20
372.157937
30
0.0
11
6.562672
21
372.157937
31
0.0
0
LINE
8
0
6
CONTINUOUS
10
-15.543301
20
372.157937
30
0.0
11
-14.914371
21
372.157937
31
0.0
0
LINE
8
0
6
CONTINUOUS
10
-12.035105
20
372.157937
30
0.0
11
-9.957542
21
372.157937
31
0.0
0
LINE
8
0
6
CONTINUOUS
10
-3.302410
20
372.157937
30
0.0
11
-2.402390
21
372.157937
31
0.0
0
LINE
8
0
6
CONTINUOUS
10
-16.068678
20
372.361245
30
0.0
11
-15.580508
21
372.157937
31
0.0
0
LINE
8
0
6
CONTINUOUS
10
-9.957542
20
372.157937
30
0.0
11
-7.645487
21
372.157937
31
0.0
0
LINE
8
0
6
CONTINUOUS
10
-0.706212
20
372.157937
30
0.0
11
1.605843
21
372.157937
31
0.0
0
LINE
8
0
6
CONTINUOUS
10
-7.645487
20
372.157937
30
0.0
11
-5.949309
21
372.157937
31
0.0
0
LINE
8
0
6
CONTINUOUS
10
-5.949309
20
372.157937
30
0.0
11
-5.049288
21
372.157937
31
0.0
0
LINE
8
0
6
CONTINUOUS
10
-4.175854
20
371.940846
30
0.0
11
-4.175854
21
371.681438
31
0.0
0
LINE
8
0
6
CONTINUOUS
10
5.986406
20
371.681438
30
0.0
11
5.986406
21
371.940846
31
0.0
0
LINE
8
0
6
CONTINUOUS
10
1.686999
20
371.940846
30
0.0
11
1.686999
21
371.681438
31
0.0
0
LINE
8
0
6
CONTINUOUS
10
-10.038697
20
371.681438
30
0.0
11
-10.038697
21
371.940846
31
0.0
0
LINE
8
0
6
CONTINUOUS
10
-14.338115
20
371.681438
30
0.0
11
-14.338115
21
371.940846
31
0.0
0
LINE
8
0
6
CONTINUOUS
10
-15.901540
20
371.940846
30
0.0
11
-15.901540
21
371.681438
31
0.0
0
LINE
8
0
6
CONTINUOUS
10
-5.160331
20
372.361245
30
0.0
11
-4.175854
21
372.361245
31
0.0
0
LINE
8
0
6
CONTINUOUS
10
-4.175854
20
372.361245
30
0.0
11
-3.191367
21
372.361245
31
0.0
0
LINE
8
0
6
CONTINUOUS
10
7.716989
20
372.361245
30
0.0
11
7.717288
21
372.473654
31
0.0
0
LINE
8
0
6
CONTINUOUS
10
-2.213083
20
372.361245
30
0.0
11
-0.394743
21
372.361245
31
0.0
0
LINE
8
0
6
CONTINUOUS
10
2.012528
20
372.361245
30
0.0
11
4.133511
21
372.361245
31
0.0
0
LINE
8
0
6
CONTINUOUS
10
7.045905
20
372.361245
30
0.0
11
7.679523
21
372.361245
31
0.0
0
LINE
8
0
6
CONTINUOUS
10
4.133511
20
372.361245
30
0.0
11
5.837847
21
372.361245
31
0.0
0
LINE
8
0
6
CONTINUOUS
10
-16.068987
20
372.473654
30
0.0
11
-16.068678
21
372.361245
31
0.0
0
LINE
8
0
6
CONTINUOUS
10
-10.364227
20
372.361245
30
0.0
11
-7.956955
21
372.361245
31
0.0
0
LINE
8
0
6
CONTINUOUS
10
-15.397594
20
372.361245
30
0.0
11
-14.189556
21
372.361245
31
0.0
0
LINE
8
0
6
CONTINUOUS
10
-12.485210
20
372.361245
30
0.0
11
-10.364227
21
372.361245
31
0.0
0
LINE
8
0
6
CONTINUOUS
10
-16.031221
20
372.361245
30
0.0
11
-15.397594
21
372.361245
31
0.0
0
LINE
8
0
6
CONTINUOUS
10
-14.189556
20
372.361245
30
0.0
11
-12.485210
21
372.361245
31
0.0
0
LINE
8
0
6
CONTINUOUS
10
-3.191367
20
372.361245
30
0.0
11
-2.213083
21
372.361245
31
0.0
0
LINE
8
0
6
CONTINUOUS
10
-0.394743
20
372.361245
30
0.0
11
2.012528
21
372.361245
31
0.0
0
LINE
8
0
6
CONTINUOUS
10
5.837847
20
372.361245
30
0.0
11
7.045905
21
372.361245
31
0.0
0
LINE
8
0
6
CONTINUOUS
10
-7.956955
20
372.361245
30
0.0
11
-6.138615
21
372.361245
31
0.0
0
LINE
8
0
6
CONTINUOUS
10
-6.138615
20
372.361245
30
0.0
11
-5.160331
21
372.361245
31
0.0
0
LINE
8
0
6
CONTINUOUS
10
6.195458
20
370.662027
30
0.0
11
6.195458
21
281.513057
31
0.0
0
LINE
8
0
6
CONTINUOUS
10
6.195458
20
277.015523
30
0.0
11
6.195458
21
201.668096
31
0.0
0
LINE
8
0
6
CONTINUOUS
10
7.791044
20
201.668096
30
0.0
11
7.791044
21
277.015523
31
0.0
0
LINE
8
0
6
CONTINUOUS
10
7.791044
20
281.513057
30
0.0
11
7.791044
21
370.662027
31
0.0
0
LINE
8
0
6
CONTINUOUS
10
-10.159304
20
370.662027
30
0.0
11
-10.159304
21
281.513057
31
0.0
0
LINE
8
0
6
CONTINUOUS
10
-10.159304
20
277.015523
30
0.0
11
-10.159304
21
201.668096
31
0.0
0
LINE
8
0
6
CONTINUOUS
10
-16.142743
20
370.662027
30
0.0
11
-16.142743
21
281.513057
31
0.0
0
LINE
8
0
6
CONTINUOUS
10
-16.142743
20
277.015523
30
0.0
11
-16.142743
21
201.668096
31
0.0
0
LINE
8
0
6
CONTINUOUS
10
-14.547166
20
201.668096
30
0.0
11
-14.547166
21
277.015523
31
0.0
0
LINE
8
0
6
CONTINUOUS
10
-14.547166
20
281.513057
30
0.0
11
-14.547166
21
370.662027
31
0.0
0
LINE
8
0
6
CONTINUOUS
10
-4.175854
20
370.662027
30
0.0
11
-4.175854
21
354.050784
31
0.0
0
LINE
8
0
6
CONTINUOUS
10
-4.175854
20
352.492360
30
0.0
11
-4.175854
21
348.054716
31
0.0
0
LINE
8
0
6
CONTINUOUS
10
-4.175854
20
346.496297
30
0.0
11
-4.175854
21
342.058649
31
0.0
0
LINE
8
0
6
CONTINUOUS
10
-4.175854
20
340.500235
30
0.0
11
-4.175854
21
336.062592
31
0.0
0
LINE
8
0
6
CONTINUOUS
10
-4.175854
20
334.504173
30
0.0
11
-4.175854
21
330.066524
31
0.0
0
LINE
8
0
6
CONTINUOUS
10
-4.175854
20
328.508100
30
0.0
11
-4.175854
21
324.070467
31
0.0
0
LINE
8
0
6
CONTINUOUS
10
-4.175854
20
322.512043
30
0.0
11
-4.175854
21
318.074400
31
0.0
0
LINE
8
0
6
CONTINUOUS
10
-4.175854
20
316.515975
30
0.0
11
-4.175854
21
312.078327
31
0.0
0
LINE
8
0
6
CONTINUOUS
10
-4.175854
20
310.519908
30
0.0
11
-4.175854
21
306.082265
31
0.0
0
LINE
8
0
6
CONTINUOUS
10
-4.175854
20
304.523841
30
0.0
11
-4.175854
21
300.086202
31
0.0
0
LINE
8
0
6
CONTINUOUS
10
-4.175854
20
298.527778
30
0.0
11
-4.175854
21
294.090145
31
0.0
0
LINE
8
0
6
CONTINUOUS
10
-4.175854
20
292.531726
30
0.0
11
-4.175854
21
281.513057
31
0.0
0
LINE
8
0
6
CONTINUOUS
10
-4.175854
20
277.015523
30
0.0
11
-4.175854
21
201.668096
31
0.0
0
LINE
8
0
6
CONTINUOUS
10
1.807605
20
201.668096
30
0.0
11
1.807605
21
277.015523
31
0.0
0
LINE
8
0
6
CONTINUOUS
10
1.807605
20
281.513057
30
0.0
11
1.807605
21
370.662027
31
0.0
0
LINE
8
0
6
CONTINUOUS
10
-3.028797
20
326.268388
30
0.0
11
-2.598487
21
327.057775
31
0.0
0
LINE
8
0
6
CONTINUOUS
10
-10.938907
20
349.505697
30
0.0
11
-10.508617
21
350.295074
31
0.0
0
LINE
8
0
6
CONTINUOUS
10
-11.836165
20
349.484478
30
0.0
11
-10.938907
21
349.505697
31
0.0
0
LINE
8
0
6
CONTINUOUS
10
-12.303134
20
350.252627
30
0.0
11
-11.836165
21
349.484478
31
0.0
0
LINE
8
0
6
CONTINUOUS
10
0.094055
20
354.082178
30
0.0
11
-0.336245
21
353.292800
31
0.0
0
LINE
8
0
6
CONTINUOUS
10
0.991313
20
354.103416
30
0.0
11
0.094055
21
354.082178
31
0.0
0
LINE
8
0
6
CONTINUOUS
10
1.458291
20
353.335247
30
0.0
11
0.991313
21
354.103416
31
0.0
0
LINE
8
0
6
CONTINUOUS
10
-1.664571
20
355.501759
30
0.0
11
-1.234261
21
356.291166
31
0.0
0
LINE
8
0
6
CONTINUOUS
10
-2.561829
20
355.480531
30
0.0
11
-1.664571
21
355.501759
31
0.0
0
LINE
8
0
6
CONTINUOUS
10
-3.028797
20
356.248710
30
0.0
11
-2.561829
21
355.480531
31
0.0
0
LINE
8
0
6
CONTINUOUS
10
-4.642833
20
352.503413
30
0.0
11
-3.745574
21
352.482175
31
0.0
0
LINE
8
0
6
CONTINUOUS
10
-5.073142
20
353.292780
30
0.0
11
-4.642833
21
352.503413
31
0.0
0
LINE
8
0
6
CONTINUOUS
10
-3.745574
20
352.482175
30
0.0
11
-3.278606
21
353.250344
31
0.0
0
LINE
8
0
6
CONTINUOUS
10
2.156859
20
356.248710
30
0.0
11
2.623827
21
355.480531
31
0.0
0
LINE
8
0
6
CONTINUOUS
10
3.521095
20
355.501759
30
0.0
11
3.951395
21
356.291166
31
0.0
0
LINE
8
0
6
CONTINUOUS
10
2.623827
20
355.480531
30
0.0
11
3.521095
21
355.501759
31
0.0
0
LINE
8
0
6
CONTINUOUS
10
-1.234261
20
356.291166
30
0.0
11
-1.701229
21
357.059325
31
0.0
0
LINE
8
0
6
CONTINUOUS
10
-2.598487
20
357.038087
30
0.0
11
-3.028797
21
356.248710
31
0.0
0
LINE
8
0
6
CONTINUOUS
10
-1.701229
20
357.059325
30
0.0
11
-2.598487
21
357.038087
31
0.0
0
LINE
8
0
6
CONTINUOUS
10
-10.508617
20
356.291146
30
0.0
11
-10.975586
21
357.059305
31
0.0
0
LINE
8
0
6
CONTINUOUS
10
-11.872844
20
357.038087
30
0.0
11
-12.303134
21
356.248690
31
0.0
0
LINE
8
0
6
CONTINUOUS
10
-10.975586
20
357.059305
30
0.0
11
-11.872844
21
357.038087
31
0.0
0
LINE
8
0
6
CONTINUOUS
10
-4.642833
20
346.507351
30
0.0
11
-3.745574
21
346.486112
31
0.0
0
LINE
8
0
6
CONTINUOUS
10
-5.073142
20
347.296708
30
0.0
11
-4.642833
21
346.507351
31
0.0
0
LINE
8
0
6
CONTINUOUS
10
-3.745574
20
346.486112
30
0.0
11
-3.278606
21
347.254271
31
0.0
0
LINE
8
0
6
CONTINUOUS
10
-0.336245
20
347.296728
30
0.0
11
0.130723
21
346.528549
31
0.0
0
LINE
8
0
6
CONTINUOUS
10
1.027982
20
346.549778
30
0.0
11
1.458291
21
347.339185
31
0.0
0
LINE
8
0
6
CONTINUOUS
10
0.130723
20
346.528549
30
0.0
11
1.027982
21
346.549778
31
0.0
0
LINE
8
0
6
CONTINUOUS
10
-0.336245
20
353.292800
30
0.0
11
0.130723
21
352.524612
31
0.0
0
LINE
8
0
6
CONTINUOUS
10
1.027982
20
352.545850
30
0.0
11
1.458291
21
353.335247
31
0.0
0
LINE
8
0
6
CONTINUOUS
10
0.130723
20
352.524612
30
0.0
11
1.027982
21
352.545850
31
0.0
0
LINE
8
0
6
CONTINUOUS
10
-6.687178
20
351.042005
30
0.0
11
-7.117487
21
350.252627
31
0.0
0
LINE
8
0
6
CONTINUOUS
10
-5.789920
20
351.063243
30
0.0
11
-6.687178
21
351.042005
31
0.0
0
LINE
8
0
6
CONTINUOUS
10
-5.322951
20
350.295074
30
0.0
11
-5.789920
21
351.063243
31
0.0
0
LINE
8
0
6
CONTINUOUS
10
-9.343071
20
354.060979
30
0.0
11
-9.810040
21
353.292780
31
0.0
0
LINE
8
0
6
CONTINUOUS
10
-8.445813
20
354.039721
30
0.0
11
-9.343071
21
354.060979
31
0.0
0
LINE
8
0
6
CONTINUOUS
10
-8.015503
20
353.250344
30
0.0
11
-8.445813
21
354.039721
31
0.0
0
LINE
8
0
6
CONTINUOUS
10
-10.938907
20
355.501759
30
0.0
11
-10.508617
21
356.291146
31
0.0
0
LINE
8
0
6
CONTINUOUS
10
-11.836165
20
355.480551
30
0.0
11
-10.938907
21
355.501759
31
0.0
0
LINE
8
0
6
CONTINUOUS
10
-12.303134
20
356.248690
30
0.0
11
-11.836165
21
355.480551
31
0.0
0
LINE
8
0
6
CONTINUOUS
10
-1.664571
20
349.505697
30
0.0
11
-1.234261
21
350.295094
31
0.0
0
LINE
8
0
6
CONTINUOUS
10
-2.561829
20
349.484459
30
0.0
11
-1.664571
21
349.505697
31
0.0
0
LINE
8
0
6
CONTINUOUS
10
-3.028797
20
350.252637
30
0.0
11
-2.561829
21
349.484459
31
0.0
0
LINE
8
0
6
CONTINUOUS
10
2.156859
20
350.252637
30
0.0
11
2.623827
21
349.484459
31
0.0
0
LINE
8
0
6
CONTINUOUS
10
3.521095
20
349.505697
30
0.0
11
3.951395
21
350.295094
31
0.0
0
LINE
8
0
6
CONTINUOUS
10
2.623827
20
349.484459
30
0.0
11
3.521095
21
349.505697
31
0.0
0
LINE
8
0
6
CONTINUOUS
10
-6.687178
20
357.038077
30
0.0
11
-7.117487
21
356.248690
31
0.0
0
LINE
8
0
6
CONTINUOUS
10
-5.789920
20
357.059305
30
0.0
11
-6.687178
21
357.038077
31
0.0
0
LINE
8
0
6
CONTINUOUS
10
-5.322951
20
356.291146
30
0.0
11
-5.789920
21
357.059305
31
0.0
0
LINE
8
0
6
CONTINUOUS
10
-4.606174
20
354.060979
30
0.0
11
-5.073142
21
353.292780
31
0.0
0
LINE
8
0
6
CONTINUOUS
10
-3.708916
20
354.039721
30
0.0
11
-4.606174
21
354.060979
31
0.0
0
LINE
8
0
6
CONTINUOUS
10
-3.278606
20
353.250344
30
0.0
11
-3.708916
21
354.039721
31
0.0
0
LINE
8
0
6
CONTINUOUS
10
2.587169
20
351.042024
30
0.0
11
2.156859
21
350.252637
31
0.0
0
LINE
8
0
6
CONTINUOUS
10
3.484427
20
351.063263
30
0.0
11
2.587169
21
351.042024
31
0.0
0
LINE
8
0
6
CONTINUOUS
10
3.951395
20
350.295094
30
0.0
11
3.484427
21
351.063263
31
0.0
0
LINE
8
0
6
CONTINUOUS
10
-9.810040
20
353.292780
30
0.0
11
-9.379730
21
352.503413
31
0.0
0
LINE
8
0
6
CONTINUOUS
10
-8.482472
20
352.482175
30
0.0
11
-8.015503
21
353.250344
31
0.0
0
LINE
8
0
6
CONTINUOUS
10
-9.379730
20
352.503413
30
0.0
11
-8.482472
21
352.482175
31
0.0
0
LINE
8
0
6
CONTINUOUS
10
-1.234261
20
350.295094
30
0.0
11
-1.701229
21
351.063263
31
0.0
0
LINE
8
0
6
CONTINUOUS
10
-2.598487
20
351.042024
30
0.0
11
-3.028797
21
350.252637
31
0.0
0
LINE
8
0
6
CONTINUOUS
10
-1.701229
20
351.063263
30
0.0
11
-2.598487
21
351.042024
31
0.0
0
LINE
8
0
6
CONTINUOUS
10
-7.117487
20
350.252627
30
0.0
11
-6.650509
21
349.484439
31
0.0
0
LINE
8
0
6
CONTINUOUS
10
-5.753251
20
349.505677
30
0.0
11
-5.322951
21
350.295074
31
0.0
0
LINE
8
0
6
CONTINUOUS
10
-6.650509
20
349.484439
30
0.0
11
-5.753251
21
349.505677
31
0.0
0
LINE
8
0
6
CONTINUOUS
10
2.587169
20
357.038087
30
0.0
11
2.156859
21
356.248710
31
0.0
0
LINE
8
0
6
CONTINUOUS
10
3.484427
20
357.059325
30
0.0
11
2.587169
21
357.038087
31
0.0
0
LINE
8
0
6
CONTINUOUS
10
3.951395
20
356.291166
30
0.0
11
3.484427
21
357.059325
31
0.0
0
LINE
8
0
6
CONTINUOUS
10
-9.343071
20
348.064907
30
0.0
11
-9.810040
21
347.296708
31
0.0
0
LINE
8
0
6
CONTINUOUS
10
-8.445813
20
348.043658
30
0.0
11
-9.343071
21
348.064907
31
0.0
0
LINE
8
0
6
CONTINUOUS
10
-8.015503
20
347.254271
30
0.0
11
-8.445813
21
348.043658
31
0.0
0
LINE
8
0
6
CONTINUOUS
10
-9.810040
20
347.296708
30
0.0
11
-9.379730
21
346.507351
31
0.0
0
LINE
8
0
6
CONTINUOUS
10
-8.482472
20
346.486112
30
0.0
11
-8.015503
21
347.254271
31
0.0
0
LINE
8
0
6
CONTINUOUS
10
-9.379730
20
346.507351
30
0.0
11
-8.482472
21
346.486112
31
0.0
0
LINE
8
0
6
CONTINUOUS
10
-10.508617
20
350.295074
30
0.0
11
-10.975586
21
351.063243
31
0.0
0
LINE
8
0
6
CONTINUOUS
10
-11.872844
20
351.042024
30
0.0
11
-12.303134
21
350.252627
31
0.0
0
LINE
8
0
6
CONTINUOUS
10
-10.975586
20
351.063243
30
0.0
11
-11.872844
21
351.042024
31
0.0
0
LINE
8
0
6
CONTINUOUS
10
-4.606174
20
348.064907
30
0.0
11
-5.073142
21
347.296708
31
0.0
0
LINE
8
0
6
CONTINUOUS
10
-3.708916
20
348.043658
30
0.0
11
-4.606174
21
348.064907
31
0.0
0
LINE
8
0
6
CONTINUOUS
10
-3.278606
20
347.254271
30
0.0
11
-3.708916
21
348.043658
31
0.0
0
LINE
8
0
6
CONTINUOUS
10
-7.117487
20
356.248690
30
0.0
11
-6.650509
21
355.480511
31
0.0
0
LINE
8
0
6
CONTINUOUS
10
-5.753251
20
355.501739
30
0.0
11
-5.322951
21
356.291146
31
0.0
0
LINE
8
0
6
CONTINUOUS
10
-6.650509
20
355.480511
30
0.0
11
-5.753251
21
355.501739
31
0.0
0
LINE
8
0
6
CONTINUOUS
10
0.094055
20
348.086105
30
0.0
11
-0.336245
21
347.296728
31
0.0
0
LINE
8
0
6
CONTINUOUS
10
0.991313
20
348.107344
30
0.0
11
0.094055
21
348.086105
31
0.0
0
LINE
8
0
6
CONTINUOUS
10
1.458291
20
347.339185
30
0.0
11
0.991313
21
348.107344
31
0.0
0
LINE
8
0
6
CONTINUOUS
10
-1.234261
20
344.299032
30
0.0
11
-1.701229
21
345.067190
31
0.0
0
LINE
8
0
6
CONTINUOUS
10
-2.598487
20
345.045952
30
0.0
11
-3.028797
21
344.256575
31
0.0
0
LINE
8
0
6
CONTINUOUS
10
-1.701229
20
345.067190
30
0.0
11
-2.598487
21
345.045952
31
0.0
0
LINE
8
0
6
CONTINUOUS
10
2.156859
20
344.256575
30
0.0
11
2.623827
21
343.488396
31
0.0
0
LINE
8
0
6
CONTINUOUS
10
3.521095
20
343.509624
30
0.0
11
3.951395
21
344.299032
31
0.0
0
LINE
8
0
6
CONTINUOUS
10
2.623827
20
343.488396
30
0.0
11
3.521095
21
343.509624
31
0.0
0
LINE
8
0
6
CONTINUOUS
10
-4.642833
20
340.511288
30
0.0
11
-3.745574
21
340.490050
31
0.0
0
LINE
8
0
6
CONTINUOUS
10
-5.073142
20
341.300646
30
0.0
11
-4.642833
21
340.511288
31
0.0
0
LINE
8
0
6
CONTINUOUS
10
-3.745574
20
340.490050
30
0.0
11
-3.278606
21
341.258209
31
0.0
0
LINE
8
0
6
CONTINUOUS
10
-9.810040
20
341.300646
30
0.0
11
-9.379730
21
340.511288
31
0.0
0
LINE
8
0
6
CONTINUOUS
10
-8.482472
20
340.490050
30
0.0
11
-8.015503
21
341.258209
31
0.0
0
LINE
8
0
6
CONTINUOUS
10
-9.379730
20
340.511288
30
0.0
11
-8.482472
21
340.490050
31
0.0
0
LINE
8
0
6
CONTINUOUS
10
-10.508617
20
344.299012
30
0.0
11
-10.975586
21
345.067170
31
0.0
0
LINE
8
0
6
CONTINUOUS
10
-11.872844
20
345.045952
30
0.0
11
-12.303134
21
344.256555
31
0.0
0
LINE
8
0
6
CONTINUOUS
10
-10.975586
20
345.067170
30
0.0
11
-11.872844
21
345.045952
31
0.0
0
LINE
8
0
6
CONTINUOUS
10
-0.336245
20
341.300656
30
0.0
11
0.130723
21
340.532487
31
0.0
0
LINE
8
0
6
CONTINUOUS
10
1.027982
20
340.553725
30
0.0
11
1.458291
21
341.343112
31
0.0
0
LINE
8
0
6
CONTINUOUS
10
0.130723
20
340.532487
30
0.0
11
1.027982
21
340.553725
31
0.0
0
LINE
8
0
6
CONTINUOUS
10
-7.117487
20
344.256555
30
0.0
11
-6.650509
21
343.488376
31
0.0
0
LINE
8
0
6
CONTINUOUS
10
-5.753251
20
343.509605
30
0.0
11
-5.322951
21
344.299012
31
0.0
0
LINE
8
0
6
CONTINUOUS
10
-6.650509
20
343.488376
30
0.0
11
-5.753251
21
343.509605
31
0.0
0
LINE
8
0
6
CONTINUOUS
10
-10.938907
20
343.509624
30
0.0
11
-10.508617
21
344.299012
31
0.0
0
LINE
8
0
6
CONTINUOUS
10
-11.836165
20
343.488406
30
0.0
11
-10.938907
21
343.509624
31
0.0
0
LINE
8
0
6
CONTINUOUS
10
-12.303134
20
344.256555
30
0.0
11
-11.836165
21
343.488406
31
0.0
0
LINE
8
0
6
CONTINUOUS
10
-6.687178
20
345.045932
30
0.0
11
-7.117487
21
344.256555
31
0.0
0
LINE
8
0
6
CONTINUOUS
10
-5.789920
20
345.067170
30
0.0
11
-6.687178
21
345.045932
31
0.0
0
LINE
8
0
6
CONTINUOUS
10
-5.322951
20
344.299012
30
0.0
11
-5.789920
21
345.067170
31
0.0
0
LINE
8
0
6
CONTINUOUS
10
-1.664571
20
343.509624
30
0.0
11
-1.234261
21
344.299032
31
0.0
0
LINE
8
0
6
CONTINUOUS
10
-2.561829
20
343.488396
30
0.0
11
-1.664571
21
343.509624
31
0.0
0
LINE
8
0
6
CONTINUOUS
10
-3.028797
20
344.256575
30
0.0
11
-2.561829
21
343.488396
31
0.0
0
LINE
8
0
6
CONTINUOUS
10
2.587169
20
345.045952
30
0.0
11
2.156859
21
344.256575
31
0.0
0
LINE
8
0
6
CONTINUOUS
10
3.484427
20
345.067190
30
0.0
11
2.587169
21
345.045952
31
0.0
0
LINE
8
0
6
CONTINUOUS
10
3.951395
20
344.299032
30
0.0
11
3.484427
21
345.067190
31
0.0
0
LINE
8
0
6
CONTINUOUS
10
-9.343071
20
342.068844
30
0.0
11
-9.810040
21
341.300646
31
0.0
0
LINE
8
0
6
CONTINUOUS
10
-8.445813
20
342.047586
30
0.0
11
-9.343071
21
342.068844
31
0.0
0
LINE
8
0
6
CONTINUOUS
10
-8.015503
20
341.258209
30
0.0
11
-8.445813
21
342.047586
31
0.0
0
LINE
8
0
6
CONTINUOUS
10
-4.606174
20
342.068844
30
0.0
11
-5.073142
21
341.300646
31
0.0
0
LINE
8
0
6
CONTINUOUS
10
-3.708916
20
342.047586
30
0.0
11
-4.606174
21
342.068844
31
0.0
0
LINE
8
0
6
CONTINUOUS
10
-3.278606
20
341.258209
30
0.0
11
-3.708916
21
342.047586
31
0.0
0
LINE
8
0
6
CONTINUOUS
10
-1.234261
20
338.302969
30
0.0
11
-1.701229
21
339.071138
31
0.0
0
LINE
8
0
6
CONTINUOUS
10
-2.598487
20
339.049900
30
0.0
11
-3.028797
21
338.260513
31
0.0
0
LINE
8
0
6
CONTINUOUS
10
-1.701229
20
339.071138
30
0.0
11
-2.598487
21
339.049900
31
0.0
0
LINE
8
0
6
CONTINUOUS
10
2.156859
20
338.260513
30
0.0
11
2.623827
21
337.492334
31
0.0
0
LINE
8
0
6
CONTINUOUS
10
3.521095
20
337.513572
30
0.0
11
3.951395
21
338.302969
31
0.0
0
LINE
8
0
6
CONTINUOUS
10
2.623827
20
337.492334
30
0.0
11
3.521095
21
337.513572
31
0.0
0
LINE
8
0
6
CONTINUOUS
10
-4.642833
20
334.515226
30
0.0
11
-3.745574
21
334.493988
31
0.0
0
LINE
8
0
6
CONTINUOUS
10
-5.073142
20
335.304583
30
0.0
11
-4.642833
21
334.515226
31
0.0
0
LINE
8
0
6
CONTINUOUS
10
-3.745574
20
334.493988
30
0.0
11
-3.278606
21
335.262147
31
0.0
0
LINE
8
0
6
CONTINUOUS
10
-9.810040
20
335.304583
30
0.0
11
-9.379730
21
334.515226
31
0.0
0
LINE
8
0
6
CONTINUOUS
10
-8.482472
20
334.493988
30
0.0
11
-8.015503
21
335.262147
31
0.0
0
LINE
8
0
6
CONTINUOUS
10
-9.379730
20
334.515226
30
0.0
11
-8.482472
21
334.493988
31
0.0
0
LINE
8
0
6
CONTINUOUS
10
-10.508617
20
338.302949
30
0.0
11
-10.975586
21
339.071118
31
0.0
0
LINE
8
0
6
CONTINUOUS
10
-11.872844
20
339.049900
30
0.0
11
-12.303134
21
338.260493
31
0.0
0
LINE
8
0
6
CONTINUOUS
10
-10.975586
20
339.071118
30
0.0
11
-11.872844
21
339.049900
31
0.0
0
LINE
8
0
6
CONTINUOUS
10
-0.336245
20
335.304603
30
0.0
11
0.130723
21
334.536414
31
0.0
0
LINE
8
0
6
CONTINUOUS
10
1.027982
20
334.557653
30
0.0
11
1.458291
21
335.347060
31
0.0
0
LINE
8
0
6
CONTINUOUS
10
0.130723
20
334.536414
30
0.0
11
1.027982
21
334.557653
31
0.0
0
LINE
8
0
6
CONTINUOUS
10
-7.117487
20
338.260493
30
0.0
11
-6.650509
21
337.492314
31
0.0
0
LINE
8
0
6
CONTINUOUS
10
-5.753251
20
337.513552
30
0.0
11
-5.322951
21
338.302949
31
0.0
0
LINE
8
0
6
CONTINUOUS
10
-6.650509
20
337.492314
30
0.0
11
-5.753251
21
337.513552
31
0.0
0
LINE
8
0
6
CONTINUOUS
10
-10.938907
20
337.513572
30
0.0
11
-10.508617
21
338.302949
31
0.0
0
LINE
8
0
6
CONTINUOUS
10
-11.836165
20
337.492354
30
0.0
11
-10.938907
21
337.513572
31
0.0
0
LINE
8
0
6
CONTINUOUS
10
-12.303134
20
338.260493
30
0.0
11
-11.836165
21
337.492354
31
0.0
0
LINE
8
0
6
CONTINUOUS
10
-6.687178
20
339.049880
30
0.0
11
-7.117487
21
338.260493
31
0.0
0
LINE
8
0
6
CONTINUOUS
10
-5.789920
20
339.071118
30
0.0
11
-6.687178
21
339.049880
31
0.0
0
LINE
8
0
6
CONTINUOUS
10
-5.322951
20
338.302949
30
0.0
11
-5.789920
21
339.071118
31
0.0
0
LINE
8
0
6
CONTINUOUS
10
-1.664571
20
337.513572
30
0.0
11
-1.234261
21
338.302969
31
0.0
0
LINE
8
0
6
CONTINUOUS
10
-2.561829
20
337.492334
30
0.0
11
-1.664571
21
337.513572
31
0.0
0
LINE
8
0
6
CONTINUOUS
10
-3.028797
20
338.260513
30
0.0
11
-2.561829
21
337.492334
31
0.0
0
LINE
8
0
6
CONTINUOUS
10
2.587169
20
339.049900
30
0.0
11
2.156859
21
338.260513
31
0.0
0
LINE
8
0
6
CONTINUOUS
10
3.484427
20
339.071138
30
0.0
11
2.587169
21
339.049900
31
0.0
0
LINE
8
0
6
CONTINUOUS
10
3.951395
20
338.302969
30
0.0
11
3.484427
21
339.071138
31
0.0
0
LINE
8
0
6
CONTINUOUS
10
-9.343071
20
336.072782
30
0.0
11
-9.810040
21
335.304583
31
0.0
0
LINE
8
0
6
CONTINUOUS
10
-8.445813
20
336.051534
30
0.0
11
-9.343071
21
336.072782
31
0.0
0
LINE
8
0
6
CONTINUOUS
10
-8.015503
20
335.262147
30
0.0
11
-8.445813
21
336.051534
31
0.0
0
LINE
8
0
6
CONTINUOUS
10
-4.606174
20
336.072782
30
0.0
11
-5.073142
21
335.304583
31
0.0
0
LINE
8
0
6
CONTINUOUS
10
-3.708916
20
336.051534
30
0.0
11
-4.606174
21
336.072782
31
0.0
0
LINE
8
0
6
CONTINUOUS
10
-3.278606
20
335.262147
30
0.0
11
-3.708916
21
336.051534
31
0.0
0
LINE
8
0
6
CONTINUOUS
10
0.094055
20
336.093980
30
0.0
11
-0.336245
21
335.304603
31
0.0
0
LINE
8
0
6
CONTINUOUS
10
0.991313
20
336.115219
30
0.0
11
0.094055
21
336.093980
31
0.0
0
LINE
8
0
6
CONTINUOUS
10
1.458291
20
335.347060
30
0.0
11
0.991313
21
336.115219
31
0.0
0
LINE
8
0
6
CONTINUOUS
10
-1.234261
20
332.306907
30
0.0
11
-1.701229
21
333.075066
31
0.0
0
LINE
8
0
6
CONTINUOUS
10
-2.598487
20
333.053827
30
0.0
11
-3.028797
21
332.264450
31
0.0
0
LINE
8
0
6
CONTINUOUS
10
-1.701229
20
333.075066
30
0.0
11
-2.598487
21
333.053827
31
0.0
0
LINE
8
0
6
CONTINUOUS
10
2.156859
20
332.264450
30
0.0
11
2.623827
21
331.496261
31
0.0
0
LINE
8
0
6
CONTINUOUS
10
3.521095
20
331.517500
30
0.0
11
3.951395
21
332.306907
31
0.0
0
LINE
8
0
6
CONTINUOUS
10
2.623827
20
331.496261
30
0.0
11
3.521095
21
331.517500
31
0.0
0
LINE
8
0
6
CONTINUOUS
10
-9.810040
20
329.308511
30
0.0
11
-9.379730
21
328.519154
31
0.0
0
LINE
8
0
6
CONTINUOUS
10
-8.482472
20
328.497915
30
0.0
11
-8.015503
21
329.266084
31
0.0
0
LINE
8
0
6
CONTINUOUS
10
-9.379730
20
328.519154
30
0.0
11
-8.482472
21
328.497915
31
0.0
0
LINE
8
0
6
CONTINUOUS
10
-10.508617
20
332.306887
30
0.0
11
-10.975586
21
333.075046
31
0.0
0
LINE
8
0
6
CONTINUOUS
10
-11.872844
20
333.053827
30
0.0
11
-12.303134
21
332.264430
31
0.0
0
LINE
8
0
6
CONTINUOUS
10
-10.975586
20
333.075046
30
0.0
11
-11.872844
21
333.053827
31
0.0
0
LINE
8
0
6
CONTINUOUS
10
-0.336245
20
329.308531
30
0.0
11
0.130723
21
328.540352
31
0.0
0
LINE
8
0
6
CONTINUOUS
10
1.027982
20
328.561590
30
0.0
11
1.458291
21
329.350988
31
0.0
0
LINE
8
0
6
CONTINUOUS
10
0.130723
20
328.540352
30
0.0
11
1.027982
21
328.561590
31
0.0
0
LINE
8
0
6
CONTINUOUS
10
-7.117487
20
332.264430
30
0.0
11
-6.650509
21
331.496251
31
0.0
0
LINE
8
0
6
CONTINUOUS
10
-5.753251
20
331.517480
30
0.0
11
-5.322951
21
332.306887
31
0.0
0
LINE
8
0
6
CONTINUOUS
10
-6.650509
20
331.496251
30
0.0
11
-5.753251
21
331.517480
31
0.0
0
LINE
8
0
6
CONTINUOUS
10
-10.938907
20
331.517500
30
0.0
11
-10.508617
21
332.306887
31
0.0
0
LINE
8
0
6
CONTINUOUS
10
-11.836165
20
331.496281
30
0.0
11
-10.938907
21
331.517500
31
0.0
0
LINE
8
0
6
CONTINUOUS
10
-12.303134
20
332.264430
30
0.0
11
-11.836165
21
331.496281
31
0.0
0
LINE
8
0
6
CONTINUOUS
10
-6.687178
20
333.053807
30
0.0
11
-7.117487
21
332.264430
31
0.0
0
LINE
8
0
6
CONTINUOUS
10
-5.789920
20
333.075046
30
0.0
11
-6.687178
21
333.053807
31
0.0
0
LINE
8
0
6
CONTINUOUS
10
-5.322951
20
332.306887
30
0.0
11
-5.789920
21
333.075046
31
0.0
0
LINE
8
0
6
CONTINUOUS
10
-1.664571
20
331.517500
30
0.0
11
-1.234261
21
332.306907
31
0.0
0
LINE
8
0
6
CONTINUOUS
10
-2.561829
20
331.496261
30
0.0
11
-1.664571
21
331.517500
31
0.0
0
LINE
8
0
6
CONTINUOUS
10
-3.028797
20
332.264450
30
0.0
11
-2.561829
21
331.496261
31
0.0
0
LINE
8
0
6
CONTINUOUS
10
2.587169
20
333.053827
30
0.0
11
2.156859
21
332.264450
31
0.0
0
LINE
8
0
6
CONTINUOUS
10
3.484427
20
333.075066
30
0.0
11
2.587169
21
333.053827
31
0.0
0
LINE
8
0
6
CONTINUOUS
10
3.951395
20
332.306907
30
0.0
11
3.484427
21
333.075066
31
0.0
0
LINE
8
0
6
CONTINUOUS
10
-9.343071
20
330.076720
30
0.0
11
-9.810040
21
329.308511
31
0.0
0
LINE
8
0
6
CONTINUOUS
10
-8.445813
20
330.055461
30
0.0
11
-9.343071
21
330.076720
31
0.0
0
LINE
8
0
6
CONTINUOUS
10
-8.015503
20
329.266084
30
0.0
11
-8.445813
21
330.055461
31
0.0
0
LINE
8
0
6
CONTINUOUS
10
0.094055
20
330.097918
30
0.0
11
-0.336245
21
329.308531
31
0.0
0
LINE
8
0
6
CONTINUOUS
10
0.991313
20
330.119156
30
0.0
11
0.094055
21
330.097918
31
0.0
0
LINE
8
0
6
CONTINUOUS
10
1.458291
20
329.350988
30
0.0
11
0.991313
21
330.119156
31
0.0
0
LINE
8
0
6
CONTINUOUS
10
2.156859
20
326.268388
30
0.0
11
2.623827
21
325.500209
31
0.0
0
LINE
8
0
6
CONTINUOUS
10
3.521095
20
325.521447
30
0.0
11
3.951395
21
326.310845
31
0.0
0
LINE
8
0
6
CONTINUOUS
10
2.623827
20
325.500209
30
0.0
11
3.521095
21
325.521447
31
0.0
0
LINE
8
0
6
CONTINUOUS
10
-4.642833
20
322.523091
30
0.0
11
-3.745574
21
322.501863
31
0.0
0
LINE
8
0
6
CONTINUOUS
10
-5.073142
20
323.312459
30
0.0
11
-4.642833
21
322.523091
31
0.0
0
LINE
8
0
6
CONTINUOUS
10
-3.745574
20
322.501863
30
0.0
11
-3.278606
21
323.270022
31
0.0
0
LINE
8
0
6
CONTINUOUS
10
-9.810040
20
323.312459
30
0.0
11
-9.379730
21
322.523091
31
0.0
0
LINE
8
0
6
CONTINUOUS
10
-8.482472
20
322.501863
30
0.0
11
-8.015503
21
323.270022
31
0.0
0
LINE
8
0
6
CONTINUOUS
10
-9.379730
20
322.523091
30
0.0
11
-8.482472
21
322.501863
31
0.0
0
LINE
8
0
6
CONTINUOUS
10
-10.508617
20
326.310825
30
0.0
11
-10.975586
21
327.078993
31
0.0
0
LINE
8
0
6
CONTINUOUS
10
-11.872844
20
327.057775
30
0.0
11
-12.303134
21
326.268368
31
0.0
0
LINE
8
0
6
CONTINUOUS
10
-10.975586
20
327.078993
30
0.0
11
-11.872844
21
327.057775
31
0.0
0
LINE
8
0
6
CONTINUOUS
10
-0.336245
20
323.312479
30
0.0
11
0.130723
21
322.544290
31
0.0
0
LINE
8
0
6
CONTINUOUS
10
1.027982
20
322.565528
30
0.0
11
1.458291
21
323.354925
31
0.0
0
LINE
8
0
6
CONTINUOUS
10
0.130723
20
322.544290
30
0.0
11
1.027982
21
322.565528
31
0.0
0
LINE
8
0
6
CONTINUOUS
10
-7.117487
20
326.268368
30
0.0
11
-6.650509
21
325.500189
31
0.0
0
LINE
8
0
6
CONTINUOUS
10
-5.753251
20
325.521427
30
0.0
11
-5.322951
21
326.310825
31
0.0
0
LINE
8
0
6
CONTINUOUS
10
-6.650509
20
325.500189
30
0.0
11
-5.753251
21
325.521427
31
0.0
0
LINE
8
0
6
CONTINUOUS
10
-10.938907
20
325.521447
30
0.0
11
-10.508617
21
326.310825
31
0.0
0
LINE
8
0
6
CONTINUOUS
10
-11.836165
20
325.500229
30
0.0
11
-10.938907
21
325.521447
31
0.0
0
LINE
8
0
6
CONTINUOUS
10
-12.303134
20
326.268368
30
0.0
11
-11.836165
21
325.500229
31
0.0
0
LINE
8
0
6
CONTINUOUS
10
-6.687178
20
327.057755
30
0.0
11
-7.117487
21
326.268368
31
0.0
0
LINE
8
0
6
CONTINUOUS
10
-5.789920
20
327.078993
30
0.0
11
-6.687178
21
327.057755
31
0.0
0
LINE
8
0
6
CONTINUOUS
10
-5.322951
20
326.310825
30
0.0
11
-5.789920
21
327.078993
31
0.0
0
LINE
8
0
6
CONTINUOUS
10
2.587169
20
327.057775
30
0.0
11
2.156859
21
326.268388
31
0.0
0
LINE
8
0
6
CONTINUOUS
10
3.484427
20
327.079003
30
0.0
11
2.587169
21
327.057775
31
0.0
0
LINE
8
0
6
CONTINUOUS
10
3.951395
20
326.310845
30
0.0
11
3.484427
21
327.079003
31
0.0
0
LINE
8
0
6
CONTINUOUS
10
-9.343071
20
324.080657
30
0.0
11
-9.810040
21
323.312459
31
0.0
0
LINE
8
0
6
CONTINUOUS
10
-8.445813
20
324.059409
30
0.0
11
-9.343071
21
324.080657
31
0.0
0
LINE
8
0
6
CONTINUOUS
10
-8.015503
20
323.270022
30
0.0
11
-8.445813
21
324.059409
31
0.0
0
LINE
8
0
6
CONTINUOUS
10
-4.606174
20
324.080657
30
0.0
11
-5.073142
21
323.312459
31
0.0
0
LINE
8
0
6
CONTINUOUS
10
-3.708916
20
324.059409
30
0.0
11
-4.606174
21
324.080657
31
0.0
0
LINE
8
0
6
CONTINUOUS
10
-3.278606
20
323.270022
30
0.0
11
-3.708916
21
324.059409
31
0.0
0
LINE
8
0
6
CONTINUOUS
10
0.094055
20
324.101856
30
0.0
11
-0.336245
21
323.312479
31
0.0
0
LINE
8
0
6
CONTINUOUS
10
0.991313
20
324.123094
30
0.0
11
0.094055
21
324.101856
31
0.0
0
LINE
8
0
6
CONTINUOUS
10
1.458291
20
323.354925
30
0.0
11
0.991313
21
324.123094
31
0.0
0
LINE
8
0
6
CONTINUOUS
10
-1.234261
20
320.314772
30
0.0
11
-1.701229
21
321.082941
31
0.0
0
LINE
8
0
6
CONTINUOUS
10
-2.598487
20
321.061703
30
0.0
11
-3.028797
21
320.272325
31
0.0
0
LINE
8
0
6
CONTINUOUS
10
-1.701229
20
321.082941
30
0.0
11
-2.598487
21
321.061703
31
0.0
0
LINE
8
0
6
CONTINUOUS
10
2.156859
20
320.272325
30
0.0
11
2.623827
21
319.504137
31
0.0
0
LINE
8
0
6
CONTINUOUS
10
3.521095
20
319.525375
30
0.0
11
3.951395
21
320.314772
31
0.0
0
LINE
8
0
6
CONTINUOUS
10
2.623827
20
319.504137
30
0.0
11
3.521095
21
319.525375
31
0.0
0
LINE
8
0
6
CONTINUOUS
10
-4.642833
20
316.527029
30
0.0
11
-3.745574
21
316.505791
31
0.0
0
LINE
8
0
6
CONTINUOUS
10
-5.073142
20
317.316386
30
0.0
11
-4.642833
21
316.527029
31
0.0
0
LINE
8
0
6
CONTINUOUS
10
-3.745574
20
316.505791
30
0.0
11
-3.278606
21
317.273959
31
0.0
0
LINE
8
0
6
CONTINUOUS
10
-10.508617
20
320.314752
30
0.0
11
-10.975586
21
321.082921
31
0.0
0
LINE
8
0
6
CONTINUOUS
10
-11.872844
20
321.061703
30
0.0
11
-12.303134
21
320.272305
31
0.0
0
LINE
8
0
6
CONTINUOUS
10
-10.975586
20
321.082921
30
0.0
11
-11.872844
21
321.061703
31
0.0
0
LINE
8
0
6
CONTINUOUS
10
-0.336245
20
317.316406
30
0.0
11
0.130723
21
316.548227
31
0.0
0
LINE
8
0
6
CONTINUOUS
10
1.027982
20
316.569466
30
0.0
11
1.458291
21
317.358863
31
0.0
0
LINE
8
0
6
CONTINUOUS
10
0.130723
20
316.548227
30
0.0
11
1.027982
21
316.569466
31
0.0
0
LINE
8
0
6
CONTINUOUS
10
-7.117487
20
320.272305
30
0.0
11
-6.650509
21
319.504117
31
0.0
0
LINE
8
0
6
CONTINUOUS
10
-5.753251
20
319.525355
30
0.0
11
-5.322951
21
320.314752
31
0.0
0
LINE
8
0
6
CONTINUOUS
10
-6.650509
20
319.504117
30
0.0
11
-5.753251
21
319.525355
31
0.0
0
LINE
8
0
6
CONTINUOUS
10
-10.938907
20
319.525375
30
0.0
11
-10.508617
21
320.314752
31
0.0
0
LINE
8
0
6
CONTINUOUS
10
-11.836165
20
319.504157
30
0.0
11
-10.938907
21
319.525375
31
0.0
0
LINE
8
0
6
CONTINUOUS
10
-12.303134
20
320.272305
30
0.0
11
-11.836165
21
319.504157
31
0.0
0
LINE
8
0
6
CONTINUOUS
10
-6.687178
20
321.061683
30
0.0
11
-7.117487
21
320.272305
31
0.0
0
LINE
8
0
6
CONTINUOUS
10
-5.789920
20
321.082921
30
0.0
11
-6.687178
21
321.061683
31
0.0
0
LINE
8
0
6
CONTINUOUS
10
-5.322951
20
320.314752
30
0.0
11
-5.789920
21
321.082921
31
0.0
0
LINE
8
0
6
CONTINUOUS
10
-1.664571
20
319.525375
30
0.0
11
-1.234261
21
320.314772
31
0.0
0
LINE
8
0
6
CONTINUOUS
10
-2.561829
20
319.504137
30
0.0
11
-1.664571
21
319.525375
31
0.0
0
LINE
8
0
6
CONTINUOUS
10
-3.028797
20
320.272325
30
0.0
11
-2.561829
21
319.504137
31
0.0
0
LINE
8
0
6
CONTINUOUS
10
2.587169
20
321.061703
30
0.0
11
2.156859
21
320.272325
31
0.0
0
LINE
8
0
6
CONTINUOUS
10
3.484427
20
321.082941
30
0.0
11
2.587169
21
321.061703
31
0.0
0
LINE
8
0
6
CONTINUOUS
10
3.951395
20
320.314772
30
0.0
11
3.484427
21
321.082941
31
0.0
0
LINE
8
0
6
CONTINUOUS
10
-4.606174
20
318.084595
30
0.0
11
-5.073142
21
317.316386
31
0.0
0
LINE
8
0
6
CONTINUOUS
10
-3.708916
20
318.063337
30
0.0
11
-4.606174
21
318.084595
31
0.0
0
LINE
8
0
6
CONTINUOUS
10
-3.278606
20
317.273959
30
0.0
11
-3.708916
21
318.063337
31
0.0
0
LINE
8
0
6
CONTINUOUS
10
0.094055
20
318.105793
30
0.0
11
-0.336245
21
317.316406
31
0.0
0
LINE
8
0
6
CONTINUOUS
10
0.991313
20
318.127022
30
0.0
11
0.094055
21
318.105793
31
0.0
0
LINE
8
0
6
CONTINUOUS
10
1.458291
20
317.358863
30
0.0
11
0.991313
21
318.127022
31
0.0
0
LINE
8
0
6
CONTINUOUS
10
-1.234261
20
314.318710
30
0.0
11
-1.701229
21
315.086869
31
0.0
0
LINE
8
0
6
CONTINUOUS
10
-2.598487
20
315.065640
30
0.0
11
-3.028797
21
314.276253
31
0.0
0
LINE
8
0
6
CONTINUOUS
10
-1.701229
20
315.086869
30
0.0
11
-2.598487
21
315.065640
31
0.0
0
LINE
8
0
6
CONTINUOUS
10
2.156859
20
314.276253
30
0.0
11
2.623827
21
313.508074
31
0.0
0
LINE
8
0
6
CONTINUOUS
10
3.521095
20
313.529313
30
0.0
11
3.951395
21
314.318710
31
0.0
0
LINE
8
0
6
CONTINUOUS
10
2.623827
20
313.508074
30
0.0
11
3.521095
21
313.529313
31
0.0
0
LINE
8
0
6
CONTINUOUS
10
-4.642833
20
310.530957
30
0.0
11
-3.745574
21
310.509728
31
0.0
0
LINE
8
0
6
CONTINUOUS
10
-5.073142
20
311.320324
30
0.0
11
-4.642833
21
310.530957
31
0.0
0
LINE
8
0
6
CONTINUOUS
10
-3.745574
20
310.509728
30
0.0
11
-3.278606
21
311.277887
31
0.0
0
LINE
8
0
6
CONTINUOUS
10
-9.810040
20
311.320324
30
0.0
11
-9.379730
21
310.530957
31
0.0
0
LINE
8
0
6
CONTINUOUS
10
-8.482472
20
310.509728
30
0.0
11
-8.015503
21
311.277887
31
0.0
0
LINE
8
0
6
CONTINUOUS
10
-9.379730
20
310.530957
30
0.0
11
-8.482472
21
310.509728
31
0.0
0
LINE
8
0
6
CONTINUOUS
10
-10.508617
20
314.318690
30
0.0
11
-10.975586
21
315.086849
31
0.0
0
LINE
8
0
6
CONTINUOUS
10
-11.872844
20
315.065640
30
0.0
11
-12.303134
21
314.276233
31
0.0
0
LINE
8
0
6
CONTINUOUS
10
-10.975586
20
315.086849
30
0.0
11
-11.872844
21
315.065640
31
0.0
0
LINE
8
0
6
CONTINUOUS
10
-10.938907
20
313.529313
30
0.0
11
-10.508617
21
314.318690
31
0.0
0
LINE
8
0
6
CONTINUOUS
10
-11.836165
20
313.508094
30
0.0
11
-10.938907
21
313.529313
31
0.0
0
LINE
8
0
6
CONTINUOUS
10
-12.303134
20
314.276233
30
0.0
11
-11.836165
21
313.508094
31
0.0
0
LINE
8
0
6
CONTINUOUS
10
-1.664571
20
313.529313
30
0.0
11
-1.234261
21
314.318710
31
0.0
0
LINE
8
0
6
CONTINUOUS
10
-2.561829
20
313.508074
30
0.0
11
-1.664571
21
313.529313
31
0.0
0
LINE
8
0
6
CONTINUOUS
10
-3.028797
20
314.276253
30
0.0
11
-2.561829
21
313.508074
31
0.0
0
LINE
8
0
6
CONTINUOUS
10
2.587169
20
315.065640
30
0.0
11
2.156859
21
314.276253
31
0.0
0
LINE
8
0
6
CONTINUOUS
10
3.484427
20
315.086869
30
0.0
11
2.587169
21
315.065640
31
0.0
0
LINE
8
0
6
CONTINUOUS
10
3.951395
20
314.318710
30
0.0
11
3.484427
21
315.086869
31
0.0
0
LINE
8
0
6
CONTINUOUS
10
-9.343071
20
312.088523
30
0.0
11
-9.810040
21
311.320324
31
0.0
0
LINE
8
0
6
CONTINUOUS
10
-8.445813
20
312.067264
30
0.0
11
-9.343071
21
312.088523
31
0.0
0
LINE
8
0
6
CONTINUOUS
10
-8.015503
20
311.277887
30
0.0
11
-8.445813
21
312.067264
31
0.0
0
LINE
8
0
6
CONTINUOUS
10
-4.606174
20
312.088523
30
0.0
11
-5.073142
21
311.320324
31
0.0
0
LINE
8
0
6
CONTINUOUS
10
-3.708916
20
312.067264
30
0.0
11
-4.606174
21
312.088523
31
0.0
0
LINE
8
0
6
CONTINUOUS
10
-3.278606
20
311.277887
30
0.0
11
-3.708916
21
312.067264
31
0.0
0
LINE
8
0
6
CONTINUOUS
10
-1.234261
20
308.322637
30
0.0
11
-1.701229
21
309.090806
31
0.0
0
LINE
8
0
6
CONTINUOUS
10
-2.598487
20
309.069568
30
0.0
11
-3.028797
21
308.280191
31
0.0
0
LINE
8
0
6
CONTINUOUS
10
-1.701229
20
309.090806
30
0.0
11
-2.598487
21
309.069568
31
0.0
0
LINE
8
0
6
CONTINUOUS
10
2.156859
20
308.280191
30
0.0
11
2.623827
21
307.512002
31
0.0
0
LINE
8
0
6
CONTINUOUS
10
3.521095
20
307.533240
30
0.0
11
3.951395
21
308.322637
31
0.0
0
LINE
8
0
6
CONTINUOUS
10
2.623827
20
307.512002
30
0.0
11
3.521095
21
307.533240
31
0.0
0
LINE
8
0
6
CONTINUOUS
10
-4.642833
20
304.534894
30
0.0
11
-3.745574
21
304.513656
31
0.0
0
LINE
8
0
6
CONTINUOUS
10
-5.073142
20
305.324251
30
0.0
11
-4.642833
21
304.534894
31
0.0
0
LINE
8
0
6
CONTINUOUS
10
-3.745574
20
304.513656
30
0.0
11
-3.278606
21
305.281825
31
0.0
0
LINE
8
0
6
CONTINUOUS
10
-9.810040
20
305.324251
30
0.0
11
-9.379730
21
304.534894
31
0.0
0
LINE
8
0
6
CONTINUOUS
10
-8.482472
20
304.513656
30
0.0
11
-8.015503
21
305.281825
31
0.0
0
LINE
8
0
6
CONTINUOUS
10
-9.379730
20
304.534894
30
0.0
11
-8.482472
21
304.513656
31
0.0
0
LINE
8
0
6
CONTINUOUS
10
-10.508617
20
308.322617
30
0.0
11
-10.975586
21
309.090786
31
0.0
0
LINE
8
0
6
CONTINUOUS
10
-11.872844
20
309.069568
30
0.0
11
-12.303134
21
308.280171
31
0.0
0
LINE
8
0
6
CONTINUOUS
10
-10.975586
20
309.090786
30
0.0
11
-11.872844
21
309.069568
31
0.0
0
LINE
8
0
6
CONTINUOUS
10
-0.336245
20
305.324271
30
0.0
11
0.130723
21
304.556093
31
0.0
0
LINE
8
0
6
CONTINUOUS
10
1.027982
20
304.577331
30
0.0
11
1.458291
21
305.366728
31
0.0
0
LINE
8
0
6
CONTINUOUS
10
0.130723
20
304.556093
30
0.0
11
1.027982
21
304.577331
31
0.0
0
LINE
8
0
6
CONTINUOUS
10
-7.117487
20
308.280171
30
0.0
11
-6.650509
21
307.511982
31
0.0
0
LINE
8
0
6
CONTINUOUS
10
-5.753251
20
307.533220
30
0.0
11
-5.322951
21
308.322617
31
0.0
0
LINE
8
0
6
CONTINUOUS
10
-6.650509
20
307.511982
30
0.0
11
-5.753251
21
307.533220
31
0.0
0
LINE
8
0
6
CONTINUOUS
10
-10.938907
20
307.533240
30
0.0
11
-10.508617
21
308.322617
31
0.0
0
LINE
8
0
6
CONTINUOUS
10
-11.836165
20
307.512022
30
0.0
11
-10.938907
21
307.533240
31
0.0
0
LINE
8
0
6
CONTINUOUS
10
-12.303134
20
308.280171
30
0.0
11
-11.836165
21
307.512022
31
0.0
0
LINE
8
0
6
CONTINUOUS
10
-6.687178
20
309.069548
30
0.0
11
-7.117487
21
308.280171
31
0.0
0
LINE
8
0
6
CONTINUOUS
10
-5.789920
20
309.090786
30
0.0
11
-6.687178
21
309.069548
31
0.0
0
LINE
8
0
6
CONTINUOUS
10
-5.322951
20
308.322617
30
0.0
11
-5.789920
21
309.090786
31
0.0
0
LINE
8
0
6
CONTINUOUS
10
-1.664571
20
307.533240
30
0.0
11
-1.234261
21
308.322637
31
0.0
0
LINE
8
0
6
CONTINUOUS
10
-2.561829
20
307.512002
30
0.0
11
-1.664571
21
307.533240
31
0.0
0
LINE
8
0
6
CONTINUOUS
10
-3.028797
20
308.280191
30
0.0
11
-2.561829
21
307.512002
31
0.0
0
LINE
8
0
6
CONTINUOUS
10
2.587169
20
309.069568
30
0.0
11
2.156859
21
308.280191
31
0.0
0
LINE
8
0
6
CONTINUOUS
10
3.484427
20
309.090806
30
0.0
11
2.587169
21
309.069568
31
0.0
0
LINE
8
0
6
CONTINUOUS
10
3.951395
20
308.322637
30
0.0
11
3.484427
21
309.090806
31
0.0
0
LINE
8
0
6
CONTINUOUS
10
-9.343071
20
306.092460
30
0.0
11
-9.810040
21
305.324251
31
0.0
0
LINE
8
0
6
CONTINUOUS
10
-8.445813
20
306.071202
30
0.0
11
-9.343071
21
306.092460
31
0.0
0
LINE
8
0
6
CONTINUOUS
10
-8.015503
20
305.281825
30
0.0
11
-8.445813
21
306.071202
31
0.0
0
LINE
8
0
6
CONTINUOUS
10
-4.606174
20
306.092460
30
0.0
11
-5.073142
21
305.324251
31
0.0
0
LINE
8
0
6
CONTINUOUS
10
-3.708916
20
306.071202
30
0.0
11
-4.606174
21
306.092460
31
0.0
0
LINE
8
0
6
CONTINUOUS
10
-3.278606
20
305.281825
30
0.0
11
-3.708916
21
306.071202
31
0.0
0
LINE
8
0
6
CONTINUOUS
10
0.094055
20
306.113659
30
0.0
11
-0.336245
21
305.324271
31
0.0
0
LINE
8
0
6
CONTINUOUS
10
0.991313
20
306.134887
30
0.0
11
0.094055
21
306.113659
31
0.0
0
LINE
8
0
6
CONTINUOUS
10
1.458291
20
305.366728
30
0.0
11
0.991313
21
306.134887
31
0.0
0
LINE
8
0
6
CONTINUOUS
10
-1.234261
20
302.326585
30
0.0
11
-1.701229
21
303.094744
31
0.0
0
LINE
8
0
6
CONTINUOUS
10
-2.598487
20
303.073506
30
0.0
11
-3.028797
21
302.284128
31
0.0
0
LINE
8
0
6
CONTINUOUS
10
-1.701229
20
303.094744
30
0.0
11
-2.598487
21
303.073506
31
0.0
0
LINE
8
0
6
CONTINUOUS
10
2.156859
20
302.284128
30
0.0
11
2.623827
21
301.515950
31
0.0
0
LINE
8
0
6
CONTINUOUS
10
3.521095
20
301.537178
30
0.0
11
3.951395
21
302.326585
31
0.0
0
LINE
8
0
6
CONTINUOUS
10
2.623827
20
301.515950
30
0.0
11
3.521095
21
301.537178
31
0.0
0
LINE
8
0
6
CONTINUOUS
10
-9.810040
20
299.328199
30
0.0
11
-9.379730
21
298.538832
31
0.0
0
LINE
8
0
6
CONTINUOUS
10
-8.482472
20
298.517594
30
0.0
11
-8.015503
21
299.285762
31
0.0
0
LINE
8
0
6
CONTINUOUS
10
-9.379730
20
298.538832
30
0.0
11
-8.482472
21
298.517594
31
0.0
0
LINE
8
0
6
CONTINUOUS
10
-10.508617
20
302.326565
30
0.0
11
-10.975586
21
303.094724
31
0.0
0
LINE
8
0
6
CONTINUOUS
10
-11.872844
20
303.073506
30
0.0
11
-12.303134
21
302.284108
31
0.0
0
LINE
8
0
6
CONTINUOUS
10
-10.975586
20
303.094724
30
0.0
11
-11.872844
21
303.073506
31
0.0
0
LINE
8
0
6
CONTINUOUS
10
-0.336245
20
299.328219
30
0.0
11
0.130723
21
298.560030
31
0.0
0
LINE
8
0
6
CONTINUOUS
10
1.027982
20
298.581269
30
0.0
11
1.458291
21
299.370666
31
0.0
0
LINE
8
0
6
CONTINUOUS
10
0.130723
20
298.560030
30
0.0
11
1.027982
21
298.581269
31
0.0
0
LINE
8
0
6
CONTINUOUS
10
-7.117487
20
302.284108
30
0.0
11
-6.650509
21
301.515930
31
0.0
0
LINE
8
0
6
CONTINUOUS
10
-5.753251
20
301.537168
30
0.0
11
-5.322951
21
302.326565
31
0.0
0
LINE
8
0
6
CONTINUOUS
10
-6.650509
20
301.515930
30
0.0
11
-5.753251
21
301.537168
31
0.0
0
LINE
8
0
6
CONTINUOUS
10
-10.938907
20
301.537178
30
0.0
11
-10.508617
21
302.326565
31
0.0
0
LINE
8
0
6
CONTINUOUS
10
-11.836165
20
301.515970
30
0.0
11
-10.938907
21
301.537178
31
0.0
0
LINE
8
0
6
CONTINUOUS
10
-12.303134
20
302.284108
30
0.0
11
-11.836165
21
301.515970
31
0.0
0
LINE
8
0
6
CONTINUOUS
10
-6.687178
20
303.073496
30
0.0
11
-7.117487
21
302.284108
31
0.0
0
LINE
8
0
6
CONTINUOUS
10
-5.789920
20
303.094724
30
0.0
11
-6.687178
21
303.073496
31
0.0
0
LINE
8
0
6
CONTINUOUS
10
-5.322951
20
302.326565
30
0.0
11
-5.789920
21
303.094724
31
0.0
0
LINE
8
0
6
CONTINUOUS
10
-1.664571
20
301.537178
30
0.0
11
-1.234261
21
302.326585
31
0.0
0
LINE
8
0
6
CONTINUOUS
10
-2.561829
20
301.515950
30
0.0
11
-1.664571
21
301.537178
31
0.0
0
LINE
8
0
6
CONTINUOUS
10
-3.028797
20
302.284128
30
0.0
11
-2.561829
21
301.515950
31
0.0
0
LINE
8
0
6
CONTINUOUS
10
2.587169
20
303.073506
30
0.0
11
2.156859
21
302.284128
31
0.0
0
LINE
8
0
6
CONTINUOUS
10
3.484427
20
303.094744
30
0.0
11
2.587169
21
303.073506
31
0.0
0
LINE
8
0
6
CONTINUOUS
10
3.951395
20
302.326585
30
0.0
11
3.484427
21
303.094744
31
0.0
0
LINE
8
0
6
CONTINUOUS
10
-9.343071
20
300.096398
30
0.0
11
-9.810040
21
299.328199
31
0.0
0
LINE
8
0
6
CONTINUOUS
10
-8.445813
20
300.075140
30
0.0
11
-9.343071
21
300.096398
31
0.0
0
LINE
8
0
6
CONTINUOUS
10
-8.015503
20
299.285762
30
0.0
11
-8.445813
21
300.075140
31
0.0
0
LINE
8
0
6
CONTINUOUS
10
-4.606174
20
300.096398
30
0.0
11
-5.073142
21
299.328199
31
0.0
0
LINE
8
0
6
CONTINUOUS
10
-3.708916
20
300.075140
30
0.0
11
-4.606174
21
300.096398
31
0.0
0
LINE
8
0
6
CONTINUOUS
10
-3.278606
20
299.285762
30
0.0
11
-3.708916
21
300.075140
31
0.0
0
LINE
8
0
6
CONTINUOUS
10
0.094055
20
300.117596
30
0.0
11
-0.336245
21
299.328219
31
0.0
0
LINE
8
0
6
CONTINUOUS
10
0.991313
20
300.138835
30
0.0
11
0.094055
21
300.117596
31
0.0
0
LINE
8
0
6
CONTINUOUS
10
1.458291
20
299.370666
30
0.0
11
0.991313
21
300.138835
31
0.0
0
LINE
8
0
6
CONTINUOUS
10
-1.234261
20
296.330523
30
0.0
11
-1.701229
21
297.098691
31
0.0
0
LINE
8
0
6
CONTINUOUS
10
-2.598487
20
297.077453
30
0.0
11
-3.028797
21
296.288076
31
0.0
0
LINE
8
0
6
CONTINUOUS
10
-1.701229
20
297.098691
30
0.0
11
-2.598487
21
297.077453
31
0.0
0
LINE
8
0
6
CONTINUOUS
10
2.156859
20
296.288076
30
0.0
11
2.623827
21
295.519887
31
0.0
0
LINE
8
0
6
CONTINUOUS
10
3.521095
20
295.541126
30
0.0
11
3.951395
21
296.330523
31
0.0
0
LINE
8
0
6
CONTINUOUS
10
2.623827
20
295.519887
30
0.0
11
3.521095
21
295.541126
31
0.0
0
LINE
8
0
6
CONTINUOUS
10
-4.642833
20
292.542779
30
0.0
11
-3.745574
21
292.521541
31
0.0
0
LINE
8
0
6
CONTINUOUS
10
-5.073142
20
293.332137
30
0.0
11
-4.642833
21
292.542779
31
0.0
0
LINE
8
0
6
CONTINUOUS
10
-3.745574
20
292.521541
30
0.0
11
-3.278606
21
293.289700
31
0.0
0
LINE
8
0
6
CONTINUOUS
10
-9.810040
20
293.332137
30
0.0
11
-9.379730
21
292.542779
31
0.0
0
LINE
8
0
6
CONTINUOUS
10
-8.482472
20
292.521541
30
0.0
11
-8.015503
21
293.289700
31
0.0
0
LINE
8
0
6
CONTINUOUS
10
-9.379730
20
292.542779
30
0.0
11
-8.482472
21
292.521541
31
0.0
0
LINE
8
0
6
CONTINUOUS
10
-10.508617
20
296.330503
30
0.0
11
-10.975586
21
297.098672
31
0.0
0
LINE
8
0
6
CONTINUOUS
10
-11.872844
20
297.077453
30
0.0
11
-12.303134
21
296.288056
31
0.0
0
LINE
8
0
6
CONTINUOUS
10
-10.975586
20
297.098672
30
0.0
11
-11.872844
21
297.077453
31
0.0
0
LINE
8
0
6
CONTINUOUS
10
-0.336245
20
293.332157
30
0.0
11
0.130723
21
292.563978
31
0.0
0
LINE
8
0
6
CONTINUOUS
10
1.027982
20
292.585206
30
0.0
11
1.458291
21
293.374613
31
0.0
0
LINE
8
0
6
CONTINUOUS
10
0.130723
20
292.563978
30
0.0
11
1.027982
21
292.585206
31
0.0
0
LINE
8
0
6
CONTINUOUS
10
-7.117487
20
296.288056
30
0.0
11
-6.650509
21
295.519867
31
0.0
0
LINE
8
0
6
CONTINUOUS
10
-5.753251
20
295.541106
30
0.0
11
-5.322951
21
296.330503
31
0.0
0
LINE
8
0
6
CONTINUOUS
10
-6.650509
20
295.519867
30
0.0
11
-5.753251
21
295.541106
31
0.0
0
LINE
8
0
6
CONTINUOUS
10
-10.938907
20
295.541126
30
0.0
11
-10.508617
21
296.330503
31
0.0
0
LINE
8
0
6
CONTINUOUS
10
-11.836165
20
295.519907
30
0.0
11
-10.938907
21
295.541126
31
0.0
0
LINE
8
0
6
CONTINUOUS
10
-12.303134
20
296.288056
30
0.0
11
-11.836165
21
295.519907
31
0.0
0
LINE
8
0
6
CONTINUOUS
10
-6.687178
20
297.077433
30
0.0
11
-7.117487
21
296.288056
31
0.0
0
LINE
8
0
6
CONTINUOUS
10
-5.789920
20
297.098672
30
0.0
11
-6.687178
21
297.077433
31
0.0
0
LINE
8
0
6
CONTINUOUS
10
-5.322951
20
296.330503
30
0.0
11
-5.789920
21
297.098672
31
0.0
0
LINE
8
0
6
CONTINUOUS
10
-1.664571
20
295.541126
30
0.0
11
-1.234261
21
296.330523
31
0.0
0
LINE
8
0
6
CONTINUOUS
10
-2.561829
20
295.519887
30
0.0
11
-1.664571
21
295.541126
31
0.0
0
LINE
8
0
6
CONTINUOUS
10
-3.028797
20
296.288076
30
0.0
11
-2.561829
21
295.519887
31
0.0
0
LINE
8
0
6
CONTINUOUS
10
2.587169
20
297.077453
30
0.0
11
2.156859
21
296.288076
31
0.0
0
LINE
8
0
6
CONTINUOUS
10
3.484427
20
297.098691
30
0.0
11
2.587169
21
297.077453
31
0.0
0
LINE
8
0
6
CONTINUOUS
10
3.951395
20
296.330523
30
0.0
11
3.484427
21
297.098691
31
0.0
0
LINE
8
0
6
CONTINUOUS
10
-9.343071
20
294.100335
30
0.0
11
-9.810040
21
293.332137
31
0.0
0
LINE
8
0
6
CONTINUOUS
10
-8.445813
20
294.079087
30
0.0
11
-9.343071
21
294.100335
31
0.0
0
LINE
8
0
6
CONTINUOUS
10
-8.015503
20
293.289700
30
0.0
11
-8.445813
21
294.079087
31
0.0
0
LINE
8
0
6
CONTINUOUS
10
-4.606174
20
294.100335
30
0.0
11
-5.073142
21
293.332137
31
0.0
0
LINE
8
0
6
CONTINUOUS
10
-3.708916
20
294.079087
30
0.0
11
-4.606174
21
294.100335
31
0.0
0
LINE
8
0
6
CONTINUOUS
10
-3.278606
20
293.289700
30
0.0
11
-3.708916
21
294.079087
31
0.0
0
LINE
8
0
6
CONTINUOUS
10
-1.234261
20
290.334460
30
0.0
11
-1.701229
21
291.102619
31
0.0
0
LINE
8
0
6
CONTINUOUS
10
-2.598487
20
291.081381
30
0.0
11
-3.028797
21
290.292004
31
0.0
0
LINE
8
0
6
CONTINUOUS
10
-1.701229
20
291.102619
30
0.0
11
-2.598487
21
291.081381
31
0.0
0
LINE
8
0
6
CONTINUOUS
10
2.156859
20
290.292004
30
0.0
11
2.623827
21
289.523825
31
0.0
0
LINE
8
0
6
CONTINUOUS
10
3.521095
20
289.545053
30
0.0
11
3.951395
21
290.334460
31
0.0
0
LINE
8
0
6
CONTINUOUS
10
2.623827
20
289.523825
30
0.0
11
3.521095
21
289.545053
31
0.0
0
LINE
8
0
6
CONTINUOUS
10
-10.508617
20
290.334440
30
0.0
11
-10.975586
21
291.102599
31
0.0
0
LINE
8
0
6
CONTINUOUS
10
-11.872844
20
291.081381
30
0.0
11
-12.303134
21
290.291984
31
0.0
0
LINE
8
0
6
CONTINUOUS
10
-10.975586
20
291.102599
30
0.0
11
-11.872844
21
291.081381
31
0.0
0
LINE
8
0
6
CONTINUOUS
10
-7.117487
20
290.291984
30
0.0
11
-6.650509
21
289.523805
31
0.0
0
LINE
8
0
6
CONTINUOUS
10
-5.753251
20
289.545033
30
0.0
11
-5.322951
21
290.334440
31
0.0
0
LINE
8
0
6
CONTINUOUS
10
-6.650509
20
289.523805
30
0.0
11
-5.753251
21
289.545033
31
0.0
0
LINE
8
0
6
CONTINUOUS
10
-10.938907
20
289.545053
30
0.0
11
-10.508617
21
290.334440
31
0.0
0
LINE
8
0
6
CONTINUOUS
10
-11.836165
20
289.523835
30
0.0
11
-10.938907
21
289.545053
31
0.0
0
LINE
8
0
6
CONTINUOUS
10
-12.303134
20
290.291984
30
0.0
11
-11.836165
21
289.523835
31
0.0
0
LINE
8
0
6
CONTINUOUS
10
-6.687178
20
291.081361
30
0.0
11
-7.117487
21
290.291984
31
0.0
0
LINE
8
0
6
CONTINUOUS
10
-5.789920
20
291.102599
30
0.0
11
-6.687178
21
291.081361
31
0.0
0
LINE
8
0
6
CONTINUOUS
10
-5.322951
20
290.334440
30
0.0
11
-5.789920
21
291.102599
31
0.0
0
LINE
8
0
6
CONTINUOUS
10
-1.664571
20
289.545053
30
0.0
11
-1.234261
21
290.334460
31
0.0
0
LINE
8
0
6
CONTINUOUS
10
-2.561829
20
289.523825
30
0.0
11
-1.664571
21
289.545053
31
0.0
0
LINE
8
0
6
CONTINUOUS
10
-3.028797
20
290.292004
30
0.0
11
-2.561829
21
289.523825
31
0.0
0
LINE
8
0
6
CONTINUOUS
10
2.587169
20
291.081381
30
0.0
11
2.156859
21
290.292004
31
0.0
0
LINE
8
0
6
CONTINUOUS
10
3.484427
20
291.102619
30
0.0
11
2.587169
21
291.081381
31
0.0
0
LINE
8
0
6
CONTINUOUS
10
3.951395
20
290.334460
30
0.0
11
3.484427
21
291.102619
31
0.0
0
LINE
8
0
6
CONTINUOUS
10
-15.901540
20
371.681438
30
0.0
11
-15.901540
21
371.560824
31
0.0
0
LINE
8
0
6
CONTINUOUS
10
-15.901540
20
371.560824
30
0.0
11
-14.338115
21
371.560824
31
0.0
0
LINE
8
0
6
CONTINUOUS
10
1.686999
20
371.560824
30
0.0
11
5.986406
21
371.560824
31
0.0
0
LINE
8
0
6
CONTINUOUS
10
7.549842
20
371.560824
30
0.0
11
7.549842
21
371.681438
31
0.0
0
LINE
8
0
6
CONTINUOUS
10
5.986406
20
371.560824
30
0.0
11
7.549842
21
371.560824
31
0.0
0
LINE
8
0
6
CONTINUOUS
10
5.986406
20
371.681438
30
0.0
11
5.986406
21
371.560824
31
0.0
0
LINE
8
0
6
CONTINUOUS
10
1.686999
20
371.560824
30
0.0
11
1.686999
21
371.681438
31
0.0
0
LINE
8
0
6
CONTINUOUS
10
-4.175854
20
371.560824
30
0.0
11
1.686999
21
371.560824
31
0.0
0
LINE
8
0
6
CONTINUOUS
10
-4.175854
20
371.560824
30
0.0
11
-4.175854
21
371.681438
31
0.0
0
LINE
8
0
6
CONTINUOUS
10
-10.038697
20
371.560824
30
0.0
11
-4.175854
21
371.560824
31
0.0
0
LINE
8
0
6
CONTINUOUS
10
-10.038697
20
371.560824
30
0.0
11
-10.038697
21
371.681438
31
0.0
0
LINE
8
0
6
CONTINUOUS
10
-14.338115
20
371.560824
30
0.0
11
-10.038697
21
371.560824
31
0.0
0
LINE
8
0
6
CONTINUOUS
10
-14.338115
20
371.681438
30
0.0
11
-14.338115
21
371.560824
31
0.0
0
LINE
8
0
6
CONTINUOUS
10
-4.175854
20
371.161743
30
0.0
11
-10.159304
21
371.161743
31
0.0
0
LINE
8
0
6
CONTINUOUS
10
6.195458
20
371.161743
30
0.0
11
1.807605
21
371.161743
31
0.0
0
LINE
8
0
6
CONTINUOUS
10
-16.142743
20
371.161743
30
0.0
11
-16.142743
21
370.662027
31
0.0
0
LINE
8
0
6
CONTINUOUS
10
-14.547166
20
371.161743
30
0.0
11
-16.142743
21
371.161743
31
0.0
0
LINE
8
0
6
CONTINUOUS
10
7.791044
20
370.662027
30
0.0
11
7.791044
21
371.161743
31
0.0
0
LINE
8
0
6
CONTINUOUS
10
6.195458
20
371.161743
30
0.0
11
6.195458
21
370.662027
31
0.0
0
LINE
8
0
6
CONTINUOUS
10
7.791044
20
371.161743
30
0.0
11
6.195458
21
371.161743
31
0.0
0
LINE
8
0
6
CONTINUOUS
10
-10.159304
20
370.662027
30
0.0
11
-10.159304
21
371.161743
31
0.0
0
LINE
8
0
6
CONTINUOUS
10
-14.547166
20
371.161743
30
0.0
11
-14.547166
21
370.662027
31
0.0
0
LINE
8
0
6
CONTINUOUS
10
-10.159304
20
371.161743
30
0.0
11
-14.547166
21
371.161743
31
0.0
0
LINE
8
0
6
CONTINUOUS
10
-4.175854
20
371.161743
30
0.0
11
-4.175854
21
370.662027
31
0.0
0
LINE
8
0
6
CONTINUOUS
10
1.807605
20
371.161743
30
0.0
11
-4.175854
21
371.161743
31
0.0
0
LINE
8
0
6
CONTINUOUS
10
1.807605
20
370.662027
30
0.0
11
1.807605
21
371.161743
31
0.0
0
LINE
8
0
6
CONTINUOUS
10
5.986406
20
372.061460
30
0.0
11
1.686999
21
372.061460
31
0.0
0
LINE
8
0
6
CONTINUOUS
10
-4.175854
20
372.061460
30
0.0
11
-10.038697
21
372.061460
31
0.0
0
LINE
8
0
6
CONTINUOUS
10
-10.038697
20
371.940846
30
0.0
11
-10.038697
21
372.061460
31
0.0
0
LINE
8
0
6
CONTINUOUS
10
-10.038697
20
372.061460
30
0.0
11
-14.338115
21
372.061460
31
0.0
0
LINE
8
0
6
CONTINUOUS
10
7.549842
20
371.940846
30
0.0
11
7.549842
21
372.061460
31
0.0
0
LINE
8
0
6
CONTINUOUS
10
5.986406
20
372.061460
30
0.0
11
5.986406
21
371.940846
31
0.0
0
LINE
8
0
6
CONTINUOUS
10
7.549842
20
372.061460
30
0.0
11
5.986406
21
372.061460
31
0.0
0
LINE
8
0
6
CONTINUOUS
10
-15.901540
20
372.061460
30
0.0
11
-15.901540
21
371.940846
31
0.0
0
LINE
8
0
6
CONTINUOUS
10
-14.338115
20
372.061460
30
0.0
11
-15.901540
21
372.061460
31
0.0
0
LINE
8
0
6
CONTINUOUS
10
-14.338115
20
371.940846
30
0.0
11
-14.338115
21
372.061460
31
0.0
0
LINE
8
0
6
CONTINUOUS
10
-4.175854
20
372.061460
30
0.0
11
-4.175854
21
371.940846
31
0.0
0
LINE
8
0
6
CONTINUOUS
10
1.686999
20
372.061460
30
0.0
11
-4.175854
21
372.061460
31
0.0
0
LINE
8
0
6
CONTINUOUS
10
1.686999
20
371.940846
30
0.0
11
1.686999
21
372.061460
31
0.0
0
LINE
8
0
6
CONTINUOUS
10
1.807605
20
201.454773
30
0.0
11
6.195458
21
201.454773
31
0.0
0
LINE
8
0
6
CONTINUOUS
10
-16.142743
20
201.668096
30
0.0
11
-16.142743
21
201.454773
31
0.0
0
LINE
8
0
6
CONTINUOUS
10
-16.142743
20
201.454773
30
0.0
11
-14.547166
21
201.454773
31
0.0
0
LINE
8
0
6
CONTINUOUS
10
-14.547166
20
201.454773
30
0.0
11
-10.159304
21
201.454773
31
0.0
0
LINE
8
0
6
CONTINUOUS
10
-14.547166
20
201.668096
30
0.0
11
-14.547166
21
201.454773
31
0.0
0
LINE
8
0
6
CONTINUOUS
10
7.791044
20
201.454773
30
0.0
11
7.791044
21
201.668096
31
0.0
0
LINE
8
0
6
CONTINUOUS
10
6.195458
20
201.454773
30
0.0
11
7.791044
21
201.454773
31
0.0
0
LINE
8
0
6
CONTINUOUS
10
6.195458
20
201.668096
30
0.0
11
6.195458
21
201.454773
31
0.0
0
LINE
8
0
6
CONTINUOUS
10
-10.159304
20
201.454773
30
0.0
11
-4.175854
21
201.454773
31
0.0
0
LINE
8
0
6
CONTINUOUS
10
-10.159304
20
201.668096
30
0.0
11
-10.159304
21
201.454773
31
0.0
0
LINE
8
0
6
CONTINUOUS
10
-4.175854
20
201.668096
30
0.0
11
-4.175854
21
201.454773
31
0.0
0
LINE
8
0
6
CONTINUOUS
10
1.807605
20
201.454773
30
0.0
11
1.807605
21
201.668096
31
0.0
0
LINE
8
0
6
CONTINUOUS
10
-4.175854
20
201.454773
30
0.0
11
1.807605
21
201.454773
31
0.0
0
LINE
8
0
6
CONTINUOUS
10
6.690499
20
370.862067
30
0.0
11
6.690499
21
371.560824
31
0.0
0
LINE
8
0
6
CONTINUOUS
10
5.241586
20
370.862067
30
0.0
11
5.241586
21
371.560824
31
0.0
0
LINE
8
0
6
CONTINUOUS
10
1.257566
20
370.862067
30
0.0
11
1.257566
21
371.560824
31
0.0
0
LINE
8
0
6
CONTINUOUS
10
-4.175854
20
371.560824
30
0.0
11
-4.175854
21
370.862067
31
0.0
0
LINE
8
0
6
CONTINUOUS
10
-9.609265
20
370.862067
30
0.0
11
-9.609265
21
371.560824
31
0.0
0
LINE
8
0
6
CONTINUOUS
10
-13.593285
20
370.862067
30
0.0
11
-13.593285
21
371.560824
31
0.0
0
LINE
8
0
6
CONTINUOUS
10
-15.042197
20
371.560824
30
0.0
11
-15.042197
21
370.862067
31
0.0
0
ENDSEC
0
EOF
