999
Erzeugt mit innoplus bad 
0
SECTION
2
HEADER
9
$ACADVER
1
AC1009
9
$DWGCODEPAGE
3
ISO8859-1
0
ENDSEC
0
SECTION
2
TABLES
0
TABLE
2
LAYER
70
1
0
LAYER
2
0
70
0
62
7
6
CONTINUOUS
0
ENDTAB
0
ENDSEC
0
SECTION
2
ENTITIES
0
LINE
8
0
6
CONTINUOUS
10
-12.467595
20
47.998809
30
0.0
11
-12.467595
21
16.711748
31
0.0
0
LINE
8
0
6
CONTINUOUS
10
-11.857395
20
12.053682
30
0.0
11
-10.086550
21
8.560842
31
0.0
0
LINE
8
0
6
CONTINUOUS
10
-10.086550
20
23.290188
30
0.0
11
-11.857395
21
19.797358
31
0.0
0
LINE
8
0
6
CONTINUOUS
10
7.327806
20
5.788920
30
0.0
11
10.085971
21
8.560842
31
0.0
0
LINE
8
0
6
CONTINUOUS
10
-0.000294
20
3.395992
30
0.0
11
3.852321
21
4.009237
31
0.0
0
LINE
8
0
6
CONTINUOUS
10
7.327806
20
26.062120
30
0.0
11
3.852321
21
27.841813
31
0.0
0
LINE
8
0
6
CONTINUOUS
10
-7.328384
20
5.788920
30
0.0
11
-3.852900
21
4.009237
31
0.0
0
LINE
8
0
6
CONTINUOUS
10
11.856817
20
12.053682
30
0.0
11
12.467006
21
15.925515
31
0.0
0
LINE
8
0
6
CONTINUOUS
10
-0.000294
20
28.455038
30
0.0
11
-3.852900
21
27.841813
31
0.0
0
LINE
8
0
6
CONTINUOUS
10
-3.852900
20
4.009237
30
0.0
11
-0.000294
21
3.395992
31
0.0
0
LINE
8
0
6
CONTINUOUS
10
-11.857395
20
19.797358
30
0.0
11
-12.467595
21
15.925515
31
0.0
0
LINE
8
0
6
CONTINUOUS
10
-7.328384
20
26.062120
30
0.0
11
-10.086550
21
23.290188
31
0.0
0
LINE
8
0
6
CONTINUOUS
10
3.852321
20
4.009237
30
0.0
11
7.327806
21
5.788920
31
0.0
0
LINE
8
0
6
CONTINUOUS
10
-12.467595
20
15.925515
30
0.0
11
-11.857395
21
12.053682
31
0.0
0
LINE
8
0
6
CONTINUOUS
10
-10.086550
20
8.560842
30
0.0
11
-7.328384
21
5.788920
31
0.0
0
LINE
8
0
6
CONTINUOUS
10
11.856817
20
19.797358
30
0.0
11
10.085971
21
23.290188
31
0.0
0
LINE
8
0
6
CONTINUOUS
10
12.467006
20
15.925515
30
0.0
11
11.856817
21
19.797358
31
0.0
0
LINE
8
0
6
CONTINUOUS
10
10.085971
20
23.290188
30
0.0
11
7.327806
21
26.062120
31
0.0
0
LINE
8
0
6
CONTINUOUS
10
3.852321
20
27.841813
30
0.0
11
-0.000294
21
28.455038
31
0.0
0
LINE
8
0
6
CONTINUOUS
10
10.085971
20
8.560842
30
0.0
11
11.856817
21
12.053682
31
0.0
0
LINE
8
0
6
CONTINUOUS
10
-3.852900
20
27.841813
30
0.0
11
-7.328384
21
26.062120
31
0.0
0
LINE
8
0
6
CONTINUOUS
10
10.085971
20
48.500000
30
0.0
11
7.327806
21
48.500000
31
0.0
0
LINE
8
0
6
CONTINUOUS
10
12.467006
20
47.998809
30
0.0
11
12.467006
21
48.500000
31
0.0
0
LINE
8
0
6
CONTINUOUS
10
12.467006
20
48.500000
30
0.0
11
11.856817
21
48.500000
31
0.0
0
LINE
8
0
6
CONTINUOUS
10
-10.086550
20
48.500000
30
0.0
11
-11.857395
21
48.500000
31
0.0
0
LINE
8
0
6
CONTINUOUS
10
7.327806
20
48.500000
30
0.0
11
3.852321
21
48.500000
31
0.0
0
LINE
8
0
6
CONTINUOUS
10
-0.000284
20
48.500000
30
0.0
11
-3.852900
21
48.500000
31
0.0
0
LINE
8
0
6
CONTINUOUS
10
11.856817
20
48.500000
30
0.0
11
10.085971
21
48.500000
31
0.0
0
LINE
8
0
6
CONTINUOUS
10
-12.467595
20
48.500000
30
0.0
11
-12.467595
21
47.998809
31
0.0
0
LINE
8
0
6
CONTINUOUS
10
-11.857395
20
48.500000
30
0.0
11
-12.467595
21
48.500000
31
0.0
0
LINE
8
0
6
CONTINUOUS
10
3.852321
20
48.500000
30
0.0
11
-0.000284
21
48.500000
31
0.0
0
LINE
8
0
6
CONTINUOUS
10
-7.328384
20
48.500000
30
0.0
11
-10.086550
21
48.500000
31
0.0
0
LINE
8
0
6
CONTINUOUS
10
-3.852900
20
48.500000
30
0.0
11
-7.328384
21
48.500000
31
0.0
0
LINE
8
0
6
CONTINUOUS
10
12.467006
20
16.711748
30
0.0
11
12.467006
21
47.998809
31
0.0
0
LINE
8
0
6
CONTINUOUS
10
12.467006
20
15.925515
30
0.0
11
12.467006
21
16.711748
31
0.0
0
LINE
8
0
6
CONTINUOUS
10
-12.467595
20
16.711748
30
0.0
11
-12.467595
21
15.925515
31
0.0
0
LINE
8
0
6
CONTINUOUS
10
-11.864317
20
-32.042541
30
0.0
11
-11.816183
21
-32.338178
31
0.0
0
LINE
8
0
6
CONTINUOUS
10
-11.881422
20
-31.829870
30
0.0
11
-11.864317
21
-32.042541
31
0.0
0
LINE
8
0
6
CONTINUOUS
10
-11.904731
20
-28.978091
30
0.0
11
-11.881422
21
-31.829870
31
0.0
0
LINE
8
0
6
CONTINUOUS
10
11.815725
20
-32.338178
30
0.0
11
11.863858
21
-32.042541
31
0.0
0
LINE
8
0
6
CONTINUOUS
10
11.880963
20
-31.829880
30
0.0
11
11.904272
21
-28.978091
31
0.0
0
LINE
8
0
6
CONTINUOUS
10
11.863858
20
-32.042541
30
0.0
11
11.880963
21
-31.829880
31
0.0
0
LINE
8
0
6
CONTINUOUS
10
4.665468
20
-37.882542
30
0.0
11
2.964799
21
-39.149798
31
0.0
0
LINE
8
0
6
CONTINUOUS
10
2.964799
20
-39.149798
30
0.0
11
1.534381
21
-39.867309
31
0.0
0
LINE
8
0
6
CONTINUOUS
10
-3.625765
20
-22.530979
30
0.0
11
-1.859618
21
-21.909886
31
0.0
0
LINE
8
0
6
CONTINUOUS
10
-8.356228
20
-30.097047
30
0.0
11
-8.344461
21
-29.992090
31
0.0
0
LINE
8
0
6
CONTINUOUS
10
-8.295763
20
-29.557720
30
0.0
11
-8.146728
21
-28.228384
31
0.0
0
LINE
8
0
6
CONTINUOUS
10
-1.859608
20
-38.284199
30
0.0
11
-3.625755
21
-37.663115
31
0.0
0
LINE
8
0
6
CONTINUOUS
10
-3.625755
20
-37.663115
30
0.0
11
-4.091498
21
-37.369011
31
0.0
0
LINE
8
0
6
CONTINUOUS
10
-4.459697
20
-37.136504
30
0.0
11
-5.210110
21
-36.662638
31
0.0
0
LINE
8
0
6
CONTINUOUS
10
-7.528729
20
-33.740673
30
0.0
11
-8.146728
21
-31.965710
31
0.0
0
LINE
8
0
6
CONTINUOUS
10
-5.210110
20
-36.662638
30
0.0
11
-6.533210
21
-35.332935
31
0.0
0
LINE
8
0
6
CONTINUOUS
10
-1.859618
20
-21.909886
30
0.0
11
-0.175450
21
-21.719189
31
0.0
0
LINE
8
0
6
CONTINUOUS
10
-5.210110
20
-23.531457
30
0.0
11
-4.187049
21
-22.885417
31
0.0
0
LINE
8
0
6
CONTINUOUS
10
-3.818848
20
-22.652907
30
0.0
11
-3.625765
21
-22.530979
31
0.0
0
LINE
8
0
6
CONTINUOUS
10
0.931881
20
-38.392414
30
0.0
11
1.859159
21
-38.284199
31
0.0
0
LINE
8
0
6
CONTINUOUS
10
-8.146728
20
-31.965710
30
0.0
11
-8.356228
21
-30.097047
31
0.0
0
LINE
8
0
6
CONTINUOUS
10
-7.528729
20
-26.453422
30
0.0
11
-7.161789
21
-25.866525
31
0.0
0
LINE
8
0
6
CONTINUOUS
10
-6.931691
20
-25.498499
30
0.0
11
-6.533220
21
-24.861170
31
0.0
0
LINE
8
0
6
CONTINUOUS
10
-6.533210
20
-35.332935
30
0.0
11
-7.227503
21
-34.222462
31
0.0
0
LINE
8
0
6
CONTINUOUS
10
-7.457919
20
-33.853928
30
0.0
11
-7.528729
21
-33.740673
31
0.0
0
LINE
8
0
6
CONTINUOUS
10
-6.533220
20
-24.861170
30
0.0
11
-5.210110
21
-23.531457
31
0.0
0
LINE
8
0
6
CONTINUOUS
10
-8.146728
20
-28.228384
30
0.0
11
-7.528729
21
-26.453422
31
0.0
0
LINE
8
0
6
CONTINUOUS
10
1.859149
20
-21.909886
30
0.0
11
3.625297
21
-22.530979
31
0.0
0
LINE
8
0
6
CONTINUOUS
10
8.146269
20
-28.228384
30
0.0
11
8.295304
21
-29.557720
31
0.0
0
LINE
8
0
6
CONTINUOUS
10
8.344002
20
-29.992090
30
0.0
11
8.355769
21
-30.097047
31
0.0
0
LINE
8
0
6
CONTINUOUS
10
3.625307
20
-37.663115
30
0.0
11
1.859159
21
-38.284199
31
0.0
0
LINE
8
0
6
CONTINUOUS
10
5.209651
20
-36.662638
30
0.0
11
4.520736
21
-37.097672
31
0.0
0
LINE
8
0
6
CONTINUOUS
10
4.152540
20
-37.330179
30
0.0
11
3.625307
21
-37.663115
31
0.0
0
LINE
8
0
6
CONTINUOUS
10
8.146269
20
-31.965710
30
0.0
11
7.528270
21
-33.740673
31
0.0
0
LINE
8
0
6
CONTINUOUS
10
6.532761
20
-35.332935
30
0.0
11
5.209651
21
-36.662638
31
0.0
0
LINE
8
0
6
CONTINUOUS
10
0.258920
20
-21.728694
30
0.0
11
1.859149
21
-21.909886
31
0.0
0
LINE
8
0
6
CONTINUOUS
10
3.625297
20
-22.530979
30
0.0
11
3.879895
21
-22.691751
31
0.0
0
LINE
8
0
6
CONTINUOUS
10
4.248091
20
-22.924258
30
0.0
11
5.209651
21
-23.531457
31
0.0
0
LINE
8
0
6
CONTINUOUS
10
-1.859608
20
-38.284199
30
0.0
11
-0.932330
21
-38.392414
31
0.0
0
LINE
8
0
6
CONTINUOUS
10
8.355769
20
-30.097047
30
0.0
11
8.146269
21
-31.965710
31
0.0
0
LINE
8
0
6
CONTINUOUS
10
6.532751
20
-24.861160
30
0.0
11
7.183589
21
-25.902123
31
0.0
0
LINE
8
0
6
CONTINUOUS
10
7.183589
20
-25.902123
30
0.0
11
7.528270
21
-26.453412
31
0.0
0
LINE
8
0
6
CONTINUOUS
10
7.528270
20
-33.740673
30
0.0
11
7.479720
21
-33.818325
31
0.0
0
LINE
8
0
6
CONTINUOUS
10
7.249306
20
-34.186860
30
0.0
11
6.532761
21
-35.332935
31
0.0
0
LINE
8
0
6
CONTINUOUS
10
5.209651
20
-23.531457
30
0.0
11
6.532751
21
-24.861160
31
0.0
0
LINE
8
0
6
CONTINUOUS
10
7.528270
20
-26.453412
30
0.0
11
8.146269
21
-28.228384
31
0.0
0
LINE
8
0
6
CONTINUOUS
10
-2.924185
20
-18.441624
30
0.0
11
-5.659372
21
-19.491858
31
0.0
0
LINE
8
0
6
CONTINUOUS
10
-11.807835
20
-32.385500
30
0.0
11
-11.904582
21
-28.978101
31
0.0
0
LINE
8
0
6
CONTINUOUS
10
-1.965909
20
-47.848635
30
0.0
11
-3.166659
21
-46.783816
31
0.0
0
LINE
8
0
6
CONTINUOUS
10
-5.436596
20
-44.261483
30
0.0
11
-3.166659
21
-46.783816
31
0.0
0
LINE
8
0
6
CONTINUOUS
10
-10.842447
20
-35.637161
30
0.0
11
-9.291595
21
-38.673837
31
0.0
0
LINE
8
0
6
CONTINUOUS
10
-7.461086
20
-41.532372
30
0.0
11
-5.436596
21
-44.261483
31
0.0
0
LINE
8
0
6
CONTINUOUS
10
-0.000234
20
-18.077165
30
0.0
11
-2.924185
21
-18.441624
31
0.0
0
LINE
8
0
6
CONTINUOUS
10
-5.659372
20
-19.491858
30
0.0
11
-8.057063
21
-21.210067
31
0.0
0
LINE
8
0
6
CONTINUOUS
10
-11.807835
20
-32.385500
30
0.0
11
-10.842447
21
-35.637161
31
0.0
0
LINE
8
0
6
CONTINUOUS
10
-9.961099
20
-23.453724
30
0.0
11
-11.276050
21
-26.096070
31
0.0
0
LINE
8
0
6
CONTINUOUS
10
-9.291595
20
-38.673837
30
0.0
11
-7.461086
21
-41.532372
31
0.0
0
LINE
8
0
6
CONTINUOUS
10
-8.057063
20
-21.210067
30
0.0
11
-9.961099
21
-23.453724
31
0.0
0
LINE
8
0
6
CONTINUOUS
10
-11.904582
20
-28.978101
30
0.0
11
-11.276050
21
-26.096070
31
0.0
0
LINE
8
0
6
CONTINUOUS
10
5.658913
20
-19.491858
30
0.0
11
2.923727
21
-18.441634
31
0.0
0
LINE
8
0
6
CONTINUOUS
10
11.807376
20
-32.385500
30
0.0
11
11.904123
21
-28.978101
31
0.0
0
LINE
8
0
6
CONTINUOUS
10
1.965450
20
-47.848645
30
0.0
11
3.166201
21
-46.783816
31
0.0
0
LINE
8
0
6
CONTINUOUS
10
3.166201
20
-46.783816
30
0.0
11
5.436137
21
-44.261483
31
0.0
0
LINE
8
0
6
CONTINUOUS
10
9.291136
20
-38.673837
30
0.0
11
10.841988
21
-35.637161
31
0.0
0
LINE
8
0
6
CONTINUOUS
10
5.436137
20
-44.261483
30
0.0
11
7.460627
21
-41.532372
31
0.0
0
LINE
8
0
6
CONTINUOUS
10
2.923727
20
-18.441634
30
0.0
11
-0.000234
21
-18.077165
31
0.0
0
LINE
8
0
6
CONTINUOUS
10
8.056604
20
-21.210067
30
0.0
11
5.658913
21
-19.491858
31
0.0
0
LINE
8
0
6
CONTINUOUS
10
1.017028
20
-48.288331
30
0.0
11
1.965450
21
-47.848645
31
0.0
0
LINE
8
0
6
CONTINUOUS
10
-1.965909
20
-47.848635
30
0.0
11
-1.017486
21
-48.288321
31
0.0
0
LINE
8
0
6
CONTINUOUS
10
10.841988
20
-35.637161
30
0.0
11
11.807376
21
-32.385500
31
0.0
0
LINE
8
0
6
CONTINUOUS
10
11.275591
20
-26.096070
30
0.0
11
9.960640
21
-23.453724
31
0.0
0
LINE
8
0
6
CONTINUOUS
10
7.460627
20
-41.532372
30
0.0
11
9.291136
21
-38.673837
31
0.0
0
LINE
8
0
6
CONTINUOUS
10
9.960640
20
-23.453724
30
0.0
11
8.056604
21
-21.210067
31
0.0
0
LINE
8
0
6
CONTINUOUS
10
11.904123
20
-28.978101
30
0.0
11
11.275591
21
-26.096070
31
0.0
0
LINE
8
0
6
CONTINUOUS
10
-4.843282
20
-21.021423
30
0.0
11
-2.507030
21
-20.124369
31
0.0
0
LINE
8
0
6
CONTINUOUS
10
-10.101949
20
-32.110161
30
0.0
11
-10.186278
21
-29.140243
31
0.0
0
LINE
8
0
6
CONTINUOUS
10
-1.034791
20
-46.378411
30
0.0
11
-1.960922
21
-45.557126
31
0.0
0
LINE
8
0
6
CONTINUOUS
10
-1.960922
20
-45.557126
30
0.0
11
-4.111721
21
-43.167164
31
0.0
0
LINE
8
0
6
CONTINUOUS
10
-7.805822
20
-37.812898
30
0.0
11
-9.246204
21
-34.992543
31
0.0
0
LINE
8
0
6
CONTINUOUS
10
-4.111721
20
-43.167164
30
0.0
11
-6.052510
21
-40.550900
31
0.0
0
LINE
8
0
6
CONTINUOUS
10
-2.507030
20
-20.124369
30
0.0
11
-0.000234
21
-19.811913
31
0.0
0
LINE
8
0
6
CONTINUOUS
10
-6.890682
20
-22.488610
30
0.0
11
-4.843282
21
-21.021423
31
0.0
0
LINE
8
0
6
CONTINUOUS
10
-9.246204
20
-34.992543
30
0.0
11
-10.101949
21
-32.110161
31
0.0
0
LINE
8
0
6
CONTINUOUS
10
-9.648469
20
-26.674232
30
0.0
11
-8.522342
21
-24.411320
31
0.0
0
LINE
8
0
6
CONTINUOUS
10
-6.052510
20
-40.550900
30
0.0
11
-7.805822
21
-37.812898
31
0.0
0
LINE
8
0
6
CONTINUOUS
10
-8.522342
20
-24.411320
30
0.0
11
-6.890682
21
-22.488610
31
0.0
0
LINE
8
0
6
CONTINUOUS
10
-10.186278
20
-29.140243
30
0.0
11
-9.648469
21
-26.674232
31
0.0
0
LINE
8
0
6
CONTINUOUS
10
4.842823
20
-21.021423
30
0.0
11
2.506571
21
-20.124369
31
0.0
0
LINE
8
0
6
CONTINUOUS
10
10.101491
20
-32.110161
30
0.0
11
10.185820
21
-29.140243
31
0.0
0
LINE
8
0
6
CONTINUOUS
10
1.034332
20
-46.378421
30
0.0
11
1.960463
21
-45.557126
31
0.0
0
LINE
8
0
6
CONTINUOUS
10
1.960463
20
-45.557126
30
0.0
11
4.111262
21
-43.167164
31
0.0
0
LINE
8
0
6
CONTINUOUS
10
7.805363
20
-37.812898
30
0.0
11
9.245745
21
-34.992553
31
0.0
0
LINE
8
0
6
CONTINUOUS
10
4.111262
20
-43.167164
30
0.0
11
6.052052
21
-40.550900
31
0.0
0
LINE
8
0
6
CONTINUOUS
10
2.506571
20
-20.124369
30
0.0
11
-0.000234
21
-19.811913
31
0.0
0
LINE
8
0
6
CONTINUOUS
10
6.890223
20
-22.488610
30
0.0
11
4.842823
21
-21.021423
31
0.0
0
LINE
8
0
6
CONTINUOUS
10
9.245745
20
-34.992553
30
0.0
11
10.101491
21
-32.110161
31
0.0
0
LINE
8
0
6
CONTINUOUS
10
9.648010
20
-26.674222
30
0.0
11
8.521884
21
-24.411320
31
0.0
0
LINE
8
0
6
CONTINUOUS
10
6.052052
20
-40.550900
30
0.0
11
7.805363
21
-37.812898
31
0.0
0
LINE
8
0
6
CONTINUOUS
10
8.521884
20
-24.411320
30
0.0
11
6.890223
21
-22.488610
31
0.0
0
LINE
8
0
6
CONTINUOUS
10
10.185820
20
-29.140243
30
0.0
11
9.648010
21
-26.674222
31
0.0
0
LINE
8
0
6
CONTINUOUS
10
-0.000224
20
-38.439665
30
0.0
11
0.931881
21
-38.392414
31
0.0
0
LINE
8
0
6
CONTINUOUS
10
-0.932330
20
-38.392414
30
0.0
11
-0.000224
21
-38.439665
31
0.0
0
LINE
8
0
6
CONTINUOUS
10
-0.000234
20
-48.500000
30
0.0
11
1.017028
21
-48.288331
31
0.0
0
LINE
8
0
6
CONTINUOUS
10
-0.000234
20
-48.500000
30
0.0
11
-1.017486
21
-48.288321
31
0.0
0
LINE
8
0
6
CONTINUOUS
10
9.846041
20
-42.589112
30
0.0
11
11.313502
21
-41.454489
31
0.0
0
LINE
8
0
6
CONTINUOUS
10
13.856273
20
-38.115251
30
0.0
11
15.454750
21
-34.226648
31
0.0
0
LINE
8
0
6
CONTINUOUS
10
-10.711680
20
-36.285680
30
0.0
11
-11.947379
21
-33.279556
31
0.0
0
LINE
8
0
6
CONTINUOUS
10
-11.947379
20
-33.279556
30
0.0
11
-12.368894
21
-30.053565
31
0.0
0
LINE
8
0
6
CONTINUOUS
10
-12.368894
20
-30.053565
30
0.0
11
-11.947459
21
-26.827553
31
0.0
0
LINE
8
0
6
CONTINUOUS
10
-8.746205
20
-21.239917
30
0.0
11
-6.184484
21
-19.259100
31
0.0
0
LINE
8
0
6
CONTINUOUS
10
-3.201289
20
-18.013856
30
0.0
11
0.000045
21
-17.589115
31
0.0
0
LINE
8
0
6
CONTINUOUS
10
10.711680
20
-36.285680
30
0.0
11
10.132559
21
-37.046171
31
0.0
0
LINE
8
0
6
CONTINUOUS
10
9.543255
20
-42.823234
30
0.0
11
9.846041
21
-42.589112
31
0.0
0
LINE
8
0
6
CONTINUOUS
10
9.544402
20
-42.258523
30
0.0
11
9.543255
21
-42.823234
31
0.0
0
LINE
8
0
6
CONTINUOUS
10
11.313502
20
-41.454489
30
0.0
11
13.856273
21
-38.115251
31
0.0
0
LINE
8
0
6
CONTINUOUS
10
11.947459
20
-26.827553
30
0.0
11
12.368894
21
-30.053565
31
0.0
0
LINE
8
0
6
CONTINUOUS
10
-3.201289
20
-18.013856
30
0.0
11
-6.184484
21
-19.259100
31
0.0
0
LINE
8
0
6
CONTINUOUS
10
-8.746205
20
-21.239917
30
0.0
11
-10.711840
21
-23.821410
31
0.0
0
LINE
8
0
6
CONTINUOUS
10
-10.711840
20
-23.821410
30
0.0
11
-11.947459
21
-26.827553
31
0.0
0
LINE
8
0
6
CONTINUOUS
10
15.454750
20
-34.226648
30
0.0
11
16.000000
21
-30.053645
31
0.0
0
LINE
8
0
6
CONTINUOUS
10
0.000045
20
-17.589115
30
0.0
11
3.201289
21
-18.013856
31
0.0
0
LINE
8
0
6
CONTINUOUS
10
0.000005
20
-13.930053
30
0.0
11
-4.141154
21
-14.479488
31
0.0
0
LINE
8
0
6
CONTINUOUS
10
-4.141154
20
-14.479488
30
0.0
11
-8.000092
21
-16.090293
31
0.0
0
LINE
8
0
6
CONTINUOUS
10
-8.000092
20
-16.090293
30
0.0
11
-11.313811
21
-18.652631
31
0.0
0
LINE
8
0
6
CONTINUOUS
10
-15.454870
20
-25.880592
30
0.0
11
-16.000000
21
-30.053635
31
0.0
0
LINE
8
0
6
CONTINUOUS
10
-16.000000
20
-30.053635
30
0.0
11
-15.454750
21
-34.226638
31
0.0
0
LINE
8
0
6
CONTINUOUS
10
-15.454750
20
-34.226638
30
0.0
11
-13.856273
21
-38.115241
31
0.0
0
LINE
8
0
6
CONTINUOUS
10
-9.544402
20
-42.258523
30
0.0
11
-9.551942
21
-38.544131
31
0.0
0
LINE
8
0
6
CONTINUOUS
10
15.454870
20
-25.880602
30
0.0
11
13.856512
21
-21.991919
31
0.0
0
LINE
8
0
6
CONTINUOUS
10
16.000000
20
-30.053645
30
0.0
11
15.454870
21
-25.880602
31
0.0
0
LINE
8
0
6
CONTINUOUS
10
6.184484
20
-19.259100
30
0.0
11
8.746205
21
-21.239927
31
0.0
0
LINE
8
0
6
CONTINUOUS
10
9.551942
20
-38.544131
30
0.0
11
9.544402
21
-42.258523
31
0.0
0
LINE
8
0
6
CONTINUOUS
10
3.201289
20
-18.013856
30
0.0
11
6.184484
21
-19.259100
31
0.0
0
LINE
8
0
6
CONTINUOUS
10
11.947379
20
-33.279556
30
0.0
11
10.711680
21
-36.285680
31
0.0
0
LINE
8
0
6
CONTINUOUS
10
-13.856512
20
-21.991919
30
0.0
11
-11.313811
21
-18.652631
31
0.0
0
LINE
8
0
6
CONTINUOUS
10
-15.454870
20
-25.880592
30
0.0
11
-13.856512
21
-21.991919
31
0.0
0
LINE
8
0
6
CONTINUOUS
10
10.711840
20
-23.821410
30
0.0
11
8.746205
21
-21.239927
31
0.0
0
LINE
8
0
6
CONTINUOUS
10
13.856512
20
-21.991919
30
0.0
11
11.313821
21
-18.652631
31
0.0
0
LINE
8
0
6
CONTINUOUS
10
8.000092
20
-16.090293
30
0.0
11
4.141164
21
-14.479488
31
0.0
0
LINE
8
0
6
CONTINUOUS
10
12.368894
20
-30.053565
30
0.0
11
11.947379
21
-33.279556
31
0.0
0
LINE
8
0
6
CONTINUOUS
10
11.947459
20
-26.827553
30
0.0
11
10.711840
21
-23.821410
31
0.0
0
LINE
8
0
6
CONTINUOUS
10
11.313821
20
-18.652631
30
0.0
11
8.000092
21
-16.090293
31
0.0
0
LINE
8
0
6
CONTINUOUS
10
0.000005
20
-13.930053
30
0.0
11
4.141164
21
-14.479488
31
0.0
0
LINE
8
0
6
CONTINUOUS
10
-10.132559
20
-37.046171
30
0.0
11
-10.711680
21
-36.285680
31
0.0
0
LINE
8
0
6
CONTINUOUS
10
-9.543255
20
-42.823234
30
0.0
11
-9.544402
21
-42.258523
31
0.0
0
LINE
8
0
6
CONTINUOUS
10
-9.846041
20
-42.589112
30
0.0
11
-9.543255
21
-42.823234
31
0.0
0
LINE
8
0
6
CONTINUOUS
10
-13.856273
20
-38.115241
30
0.0
11
-11.313492
21
-41.454489
31
0.0
0
LINE
8
0
6
CONTINUOUS
10
-11.313492
20
-41.454489
30
0.0
11
-9.846041
21
-42.589112
31
0.0
0
LINE
8
0
6
CONTINUOUS
10
-13.323414
20
7.215530
30
0.0
11
-13.323131
21
-4.378086
31
0.0
0
LINE
8
0
6
CONTINUOUS
10
-0.000145
20
-4.377986
30
0.0
11
-0.000245
21
-0.136885
31
0.0
0
LINE
8
0
6
CONTINUOUS
10
5.098248
20
0.810860
30
0.0
11
5.098383
21
-4.377966
31
0.0
0
LINE
8
0
6
CONTINUOUS
10
-5.098652
20
-4.378026
30
0.0
11
-5.098779
21
0.810830
31
0.0
0
LINE
8
0
6
CONTINUOUS
10
13.322951
20
-4.377896
30
0.0
11
13.322669
21
7.215353
31
0.0
0
LINE
8
0
6
CONTINUOUS
10
13.323199
20
-21.291666
30
0.0
11
13.322981
21
-5.489284
31
0.0
0
LINE
8
0
6
CONTINUOUS
10
5.098413
20
-5.489334
30
0.0
11
5.098542
21
-14.879120
31
0.0
0
LINE
8
0
6
CONTINUOUS
10
0.000005
20
-13.930043
30
0.0
11
-0.000105
21
-5.489365
31
0.0
0
LINE
8
0
6
CONTINUOUS
10
-5.098622
20
-5.489405
30
0.0
11
-5.098493
21
-14.879102
31
0.0
0
LINE
8
0
6
CONTINUOUS
10
-13.323091
20
-5.489465
30
0.0
11
-13.322882
21
-21.291091
31
0.0
0
LINE
8
0
6
CONTINUOUS
10
13.322981
20
-5.489284
30
0.0
11
13.322981
21
-5.211430
31
0.0
0
LINE
8
0
6
CONTINUOUS
10
13.322981
20
-5.211430
30
0.0
11
12.770042
21
-4.933495
31
0.0
0
LINE
8
0
6
CONTINUOUS
10
12.308801
20
-5.211440
30
0.0
11
13.322981
21
-5.211430
31
0.0
0
LINE
8
0
6
CONTINUOUS
10
12.770042
20
-4.933495
30
0.0
11
13.322961
21
-4.655750
31
0.0
0
LINE
8
0
6
CONTINUOUS
10
11.797961
20
-4.933505
30
0.0
11
12.770042
21
-4.933495
31
0.0
0
LINE
8
0
6
CONTINUOUS
10
13.322961
20
-4.655750
30
0.0
11
13.322951
21
-4.377896
31
0.0
0
LINE
8
0
6
CONTINUOUS
10
12.308781
20
-4.655750
30
0.0
11
13.322961
21
-4.655750
31
0.0
0
LINE
8
0
6
CONTINUOUS
10
9.420676
20
-5.211470
30
0.0
11
12.308801
21
-5.211440
31
0.0
0
LINE
8
0
6
CONTINUOUS
10
9.029712
20
-4.933555
30
0.0
11
11.797961
21
-4.933505
31
0.0
0
LINE
8
0
6
CONTINUOUS
10
9.420666
20
-4.655780
30
0.0
11
12.308781
21
-4.655750
31
0.0
0
LINE
8
0
6
CONTINUOUS
10
5.098403
20
-5.211500
30
0.0
11
9.420676
21
-5.211470
31
0.0
0
LINE
8
0
6
CONTINUOUS
10
4.886808
20
-4.933625
30
0.0
11
9.029712
21
-4.933555
31
0.0
0
LINE
8
0
6
CONTINUOUS
10
5.098383
20
-4.655800
30
0.0
11
9.420666
21
-4.655780
31
0.0
0
LINE
8
0
6
CONTINUOUS
10
5.098413
20
-5.489334
30
0.0
11
5.098403
21
-5.211500
31
0.0
0
LINE
8
0
6
CONTINUOUS
10
-0.000115
20
-5.211520
30
0.0
11
5.098403
21
-5.211500
31
0.0
0
LINE
8
0
6
CONTINUOUS
10
-0.000125
20
-4.933665
30
0.0
11
4.886808
21
-4.933625
31
0.0
0
LINE
8
0
6
CONTINUOUS
10
5.098383
20
-4.655800
30
0.0
11
5.098383
21
-4.377966
31
0.0
0
LINE
8
0
6
CONTINUOUS
10
-0.000135
20
-4.655830
30
0.0
11
5.098383
21
-4.655800
31
0.0
0
LINE
8
0
6
CONTINUOUS
10
-0.000105
20
-5.489365
30
0.0
11
-0.000115
21
-5.211520
31
0.0
0
LINE
8
0
6
CONTINUOUS
10
-5.098632
20
-5.211560
30
0.0
11
-0.000115
21
-5.211520
31
0.0
0
LINE
8
0
6
CONTINUOUS
10
-4.887047
20
-4.933735
30
0.0
11
-0.000125
21
-4.933665
31
0.0
0
LINE
8
0
6
CONTINUOUS
10
-0.000135
20
-4.655830
30
0.0
11
-0.000145
21
-4.377986
31
0.0
0
LINE
8
0
6
CONTINUOUS
10
-5.098642
20
-4.655871
30
0.0
11
-0.000135
21
-4.655830
31
0.0
0
LINE
8
0
6
CONTINUOUS
10
-5.098622
20
-5.489405
30
0.0
11
-5.098632
21
-5.211560
31
0.0
0
LINE
8
0
6
CONTINUOUS
10
-9.420916
20
-5.211590
30
0.0
11
-5.098632
21
-5.211560
31
0.0
0
LINE
8
0
6
CONTINUOUS
10
-9.029961
20
-4.933805
30
0.0
11
-4.887047
21
-4.933735
31
0.0
0
LINE
8
0
6
CONTINUOUS
10
-5.098642
20
-4.655871
30
0.0
11
-5.098652
21
-4.378026
31
0.0
0
LINE
8
0
6
CONTINUOUS
10
-9.420936
20
-4.655891
30
0.0
11
-5.098642
21
-4.655871
31
0.0
0
LINE
8
0
6
CONTINUOUS
10
-12.308971
20
-5.211610
30
0.0
11
-9.420916
21
-5.211590
31
0.0
0
LINE
8
0
6
CONTINUOUS
10
-11.798141
20
-4.933856
30
0.0
11
-9.029961
21
-4.933805
31
0.0
0
LINE
8
0
6
CONTINUOUS
10
-12.308991
20
-4.655921
30
0.0
11
-9.420936
21
-4.655891
31
0.0
0
LINE
8
0
6
CONTINUOUS
10
-13.323101
20
-5.211620
30
0.0
11
-13.323091
21
-5.489465
31
0.0
0
LINE
8
0
6
CONTINUOUS
10
-12.770181
20
-4.933866
30
0.0
11
-13.323101
21
-5.211620
31
0.0
0
LINE
8
0
6
CONTINUOUS
10
-13.323101
20
-5.211620
30
0.0
11
-12.308971
21
-5.211610
31
0.0
0
LINE
8
0
6
CONTINUOUS
10
-13.323121
20
-4.655931
30
0.0
11
-12.770181
21
-4.933866
31
0.0
0
LINE
8
0
6
CONTINUOUS
10
-12.770181
20
-4.933866
30
0.0
11
-11.798141
21
-4.933856
31
0.0
0
LINE
8
0
6
CONTINUOUS
10
-13.323131
20
-4.378086
30
0.0
11
-13.323121
21
-4.655931
31
0.0
0
LINE
8
0
6
CONTINUOUS
10
-13.323121
20
-4.655931
30
0.0
11
-12.308991
21
-4.655921
31
0.0
0
LINE
8
0
6
CONTINUOUS
10
-4.136915
20
0.410427
30
0.0
11
-0.000304
21
-0.136893
31
0.0
0
LINE
8
0
6
CONTINUOUS
10
-7.991624
20
2.015058
30
0.0
11
-4.136915
21
0.410427
31
0.0
0
LINE
8
0
6
CONTINUOUS
10
-11.301723
20
4.567683
30
0.0
11
-7.991624
21
2.015058
31
0.0
0
LINE
8
0
6
CONTINUOUS
10
-13.841671
20
7.894301
30
0.0
11
-11.301723
21
4.567683
31
0.0
0
LINE
8
0
6
CONTINUOUS
10
-15.438333
20
11.768259
30
0.0
11
-13.841671
21
7.894301
31
0.0
0
LINE
8
0
6
CONTINUOUS
10
-15.982935
20
15.925505
30
0.0
11
-15.438333
21
11.768259
31
0.0
0
LINE
8
0
6
CONTINUOUS
10
-15.438343
20
20.082771
30
0.0
11
-15.982935
21
15.925505
31
0.0
0
LINE
8
0
6
CONTINUOUS
10
-13.841671
20
23.956719
30
0.0
11
-15.438343
21
20.082771
31
0.0
0
LINE
8
0
6
CONTINUOUS
10
-12.467595
20
25.756378
30
0.0
11
-13.841671
21
23.956719
31
0.0
0
LINE
8
0
6
CONTINUOUS
10
13.841062
20
23.956719
30
0.0
11
12.467006
21
25.756371
31
0.0
0
LINE
8
0
6
CONTINUOUS
10
15.437735
20
20.082771
30
0.0
11
13.841062
21
23.956719
31
0.0
0
LINE
8
0
6
CONTINUOUS
10
15.982336
20
15.925525
30
0.0
11
15.437735
21
20.082771
31
0.0
0
LINE
8
0
6
CONTINUOUS
10
15.437745
20
11.768269
30
0.0
11
15.982336
21
15.925525
31
0.0
0
LINE
8
0
6
CONTINUOUS
10
13.841072
20
7.894321
30
0.0
11
15.437745
21
11.768269
31
0.0
0
LINE
8
0
6
CONTINUOUS
10
11.301134
20
4.567693
30
0.0
11
13.841072
21
7.894321
31
0.0
0
LINE
8
0
6
CONTINUOUS
10
7.991026
20
2.015078
30
0.0
11
11.301134
21
4.567693
31
0.0
0
LINE
8
0
6
CONTINUOUS
10
4.136326
20
0.410427
30
0.0
11
7.991026
21
2.015078
31
0.0
0
LINE
8
0
6
CONTINUOUS
10
-0.000304
20
-0.136893
30
0.0
11
4.136326
21
0.410427
31
0.0
0
LINE
8
0
6
CONTINUOUS
10
-7.342660
20
-29.774910
30
0.0
11
-7.082030
21
-31.686170
31
0.0
0
LINE
8
0
6
CONTINUOUS
10
-6.647660
20
-31.599290
30
0.0
11
-6.908290
21
-29.774910
31
0.0
0
LINE
8
0
6
CONTINUOUS
10
-7.082030
20
-31.686170
30
0.0
11
-6.448136
21
-33.270906
31
0.0
0
LINE
8
0
6
CONTINUOUS
10
-6.448135
20
-33.270908
30
0.0
11
-6.387030
21
-33.423670
31
0.0
0
LINE
8
0
6
CONTINUOUS
10
-5.952660
20
-33.249920
30
0.0
11
-6.042446
21
-33.036677
31
0.0
0
LINE
8
0
6
CONTINUOUS
10
-6.042446
20
-33.036677
30
0.0
11
-6.647660
21
-31.599290
31
0.0
0
LINE
8
0
6
CONTINUOUS
10
-6.387030
20
-33.423670
30
0.0
11
-6.218745
21
-33.640038
31
0.0
0
LINE
8
0
6
CONTINUOUS
10
-6.218745
20
-33.640038
30
0.0
11
-5.170780
21
-34.987430
31
0.0
0
LINE
8
0
6
CONTINUOUS
10
-4.823270
20
-34.639930
30
0.0
11
-5.821865
21
-33.410898
31
0.0
0
LINE
8
0
6
CONTINUOUS
10
-5.821868
20
-33.410894
30
0.0
11
-5.952660
21
-33.249920
31
0.0
0
LINE
8
0
6
CONTINUOUS
10
-4.736410
20
-29.774910
30
0.0
11
-4.562660
21
-30.991170
31
0.0
0
LINE
8
0
6
CONTINUOUS
10
-4.128270
20
-30.904290
30
0.0
11
-4.302020
21
-29.774910
31
0.0
0
LINE
8
0
6
CONTINUOUS
10
-4.562660
20
-30.991170
30
0.0
11
-4.187773
21
-31.965848
31
0.0
0
LINE
8
0
6
CONTINUOUS
10
-4.187773
20
-31.965848
30
0.0
11
-4.128270
21
-32.120550
31
0.0
0
LINE
8
0
6
CONTINUOUS
10
-3.693900
20
-31.946790
30
0.0
11
-3.783270
21
-31.732300
31
0.0
0
LINE
8
0
6
CONTINUOUS
10
-3.783270
20
-31.732300
30
0.0
11
-4.128270
21
-30.904290
31
0.0
0
LINE
8
0
6
CONTINUOUS
10
-4.128270
20
-32.120550
30
0.0
11
-3.964712
21
-32.338631
31
0.0
0
LINE
8
0
6
CONTINUOUS
10
-3.964712
20
-32.338631
30
0.0
11
-3.346410
21
-33.163050
31
0.0
0
LINE
8
0
6
CONTINUOUS
10
-2.998900
20
-32.815550
30
0.0
11
-3.565037
21
-32.107871
31
0.0
0
LINE
8
0
6
CONTINUOUS
10
-3.565037
20
-32.107871
30
0.0
11
-3.693900
21
-31.946790
31
0.0
0
LINE
8
0
6
CONTINUOUS
10
-2.130150
20
-29.774910
30
0.0
11
-2.043270
21
-30.296160
31
0.0
0
LINE
8
0
6
CONTINUOUS
10
-1.608900
20
-30.209290
30
0.0
11
-1.695780
21
-29.774910
31
0.0
0
LINE
8
0
6
CONTINUOUS
10
-2.043270
20
-30.296160
30
0.0
11
-1.922651
21
-30.658039
31
0.0
0
LINE
8
0
6
CONTINUOUS
10
-1.922651
20
-30.658039
30
0.0
11
-1.869530
21
-30.817410
31
0.0
0
LINE
8
0
6
CONTINUOUS
10
-1.435140
20
-30.643660
30
0.0
11
-1.608900
21
-30.209290
31
0.0
0
LINE
8
0
6
CONTINUOUS
10
-1.869530
20
-30.817410
30
0.0
11
-1.719565
21
-31.042355
31
0.0
0
LINE
8
0
6
CONTINUOUS
10
-1.719565
20
-31.042355
30
0.0
11
-1.522020
21
-31.338670
31
0.0
0
LINE
8
0
6
CONTINUOUS
10
-1.174530
20
-30.991170
30
0.0
11
-1.435140
21
-30.643660
31
0.0
0
LINE
8
0
6
CONTINUOUS
10
-1.869530
20
-36.898670
30
0.0
11
0.041730
21
-37.159300
31
0.0
0
LINE
8
0
6
CONTINUOUS
10
0.041730
20
-36.724930
30
0.0
11
-1.782650
21
-36.464300
31
0.0
0
LINE
8
0
6
CONTINUOUS
10
-3.607020
20
-36.203680
30
0.0
11
-1.869530
21
-36.898670
31
0.0
0
LINE
8
0
6
CONTINUOUS
10
-1.782650
20
-36.464300
30
0.0
11
-3.433270
21
-35.769300
31
0.0
0
LINE
8
0
6
CONTINUOUS
10
-5.170780
20
-34.987430
30
0.0
11
-3.607020
21
-36.203680
31
0.0
0
LINE
8
0
6
CONTINUOUS
10
-3.433270
20
-35.769300
30
0.0
11
-4.823270
21
-34.639930
31
0.0
0
LINE
8
0
6
CONTINUOUS
10
-1.174530
20
-34.379300
30
0.0
11
0.041730
21
-34.553050
31
0.0
0
LINE
8
0
6
CONTINUOUS
10
0.041730
20
-34.118670
30
0.0
11
-1.087650
21
-33.944920
31
0.0
0
LINE
8
0
6
CONTINUOUS
10
-2.303900
20
-33.944920
30
0.0
11
-1.174530
21
-34.379300
31
0.0
0
LINE
8
0
6
CONTINUOUS
10
-1.087650
20
-33.944920
30
0.0
11
-2.130150
21
-33.510550
31
0.0
0
LINE
8
0
6
CONTINUOUS
10
-3.346410
20
-33.163050
30
0.0
11
-2.303900
21
-33.944920
31
0.0
0
LINE
8
0
6
CONTINUOUS
10
-2.130150
20
-33.510550
30
0.0
11
-2.998900
21
-32.815550
31
0.0
0
LINE
8
0
6
CONTINUOUS
10
-0.479510
20
-31.859910
30
0.0
11
0.041730
21
-31.946790
31
0.0
0
LINE
8
0
6
CONTINUOUS
10
0.041730
20
-31.512410
30
0.0
11
-0.392650
21
-31.425530
31
0.0
0
LINE
8
0
6
CONTINUOUS
10
-1.000770
20
-31.686170
30
0.0
11
-0.479510
21
-31.859910
31
0.0
0
LINE
8
0
6
CONTINUOUS
10
-0.392650
20
-31.425530
30
0.0
11
-0.827020
21
-31.251790
31
0.0
0
LINE
8
0
6
CONTINUOUS
10
-1.522020
20
-31.338670
30
0.0
11
-1.000770
21
-31.686170
31
0.0
0
LINE
8
0
6
CONTINUOUS
10
-0.827020
20
-31.251790
30
0.0
11
-1.174530
21
-30.991170
31
0.0
0
LINE
8
0
6
CONTINUOUS
10
0.041730
20
-37.159300
30
0.0
11
1.952980
21
-36.898670
31
0.0
0
LINE
8
0
6
CONTINUOUS
10
1.866110
20
-36.464300
30
0.0
11
0.041730
21
-36.724930
31
0.0
0
LINE
8
0
6
CONTINUOUS
10
1.952980
20
-36.898670
30
0.0
11
3.537487
21
-36.264880
31
0.0
0
LINE
8
0
6
CONTINUOUS
10
3.537487
20
-36.264880
30
0.0
11
3.690490
21
-36.203680
31
0.0
0
LINE
8
0
6
CONTINUOUS
10
3.516740
20
-35.769300
30
0.0
11
3.303260
21
-35.859186
31
0.0
0
LINE
8
0
6
CONTINUOUS
10
3.303260
20
-35.859186
30
0.0
11
1.866110
21
-36.464300
31
0.0
0
LINE
8
0
6
CONTINUOUS
10
3.690490
20
-36.203680
30
0.0
11
3.907250
21
-36.035090
31
0.0
0
LINE
8
0
6
CONTINUOUS
10
3.907250
20
-36.035090
30
0.0
11
5.254250
21
-34.987430
31
0.0
0
LINE
8
0
6
CONTINUOUS
10
4.906740
20
-34.639930
30
0.0
11
3.678107
21
-35.638190
31
0.0
0
LINE
8
0
6
CONTINUOUS
10
3.678101
20
-35.638195
30
0.0
11
3.516740
21
-35.769300
31
0.0
0
LINE
8
0
6
CONTINUOUS
10
0.041730
20
-34.553050
30
0.0
11
1.257980
21
-34.379300
31
0.0
0
LINE
8
0
6
CONTINUOUS
10
1.171100
20
-33.944920
30
0.0
11
0.041730
21
-34.118670
31
0.0
0
LINE
8
0
6
CONTINUOUS
10
1.257980
20
-34.379300
30
0.0
11
2.232456
21
-34.004502
31
0.0
0
LINE
8
0
6
CONTINUOUS
10
2.232456
20
-34.004502
30
0.0
11
2.387370
21
-33.944920
31
0.0
0
LINE
8
0
6
CONTINUOUS
10
2.213610
20
-33.510550
30
0.0
11
1.998918
21
-33.600003
31
0.0
0
LINE
8
0
6
CONTINUOUS
10
1.998918
20
-33.600003
30
0.0
11
1.171100
21
-33.944920
31
0.0
0
LINE
8
0
6
CONTINUOUS
10
2.387370
20
-33.944920
30
0.0
11
2.605869
21
-33.781045
31
0.0
0
LINE
8
0
6
CONTINUOUS
10
2.605869
20
-33.781045
30
0.0
11
3.429860
21
-33.163050
31
0.0
0
LINE
8
0
6
CONTINUOUS
10
3.082370
20
-32.815550
30
0.0
11
2.375107
21
-33.381354
31
0.0
0
LINE
8
0
6
CONTINUOUS
10
2.375107
20
-33.381354
30
0.0
11
2.213610
21
-33.510550
31
0.0
0
LINE
8
0
6
CONTINUOUS
10
0.041730
20
-31.946790
30
0.0
11
0.562980
21
-31.859910
31
0.0
0
LINE
8
0
6
CONTINUOUS
10
0.476100
20
-31.425530
30
0.0
11
0.041730
21
-31.512410
31
0.0
0
LINE
8
0
6
CONTINUOUS
10
0.562980
20
-31.859910
30
0.0
11
0.924670
21
-31.739354
31
0.0
0
LINE
8
0
6
CONTINUOUS
10
0.924670
20
-31.739354
30
0.0
11
1.084230
21
-31.686170
31
0.0
0
LINE
8
0
6
CONTINUOUS
10
0.910490
20
-31.251790
30
0.0
11
0.476100
21
-31.425530
31
0.0
0
LINE
8
0
6
CONTINUOUS
10
1.084230
20
-31.686170
30
0.0
11
1.309630
21
-31.535906
31
0.0
0
LINE
8
0
6
CONTINUOUS
10
1.309630
20
-31.535906
30
0.0
11
1.605490
21
-31.338670
31
0.0
0
LINE
8
0
6
CONTINUOUS
10
1.257980
20
-30.991170
30
0.0
11
0.910490
21
-31.251790
31
0.0
0
LINE
8
0
6
CONTINUOUS
10
7.165500
20
-31.686170
30
0.0
11
7.426130
21
-29.774910
31
0.0
0
LINE
8
0
6
CONTINUOUS
10
6.991740
20
-29.774910
30
0.0
11
6.731130
21
-31.599290
31
0.0
0
LINE
8
0
6
CONTINUOUS
10
6.470500
20
-33.423670
30
0.0
11
7.165500
21
-31.686170
31
0.0
0
LINE
8
0
6
CONTINUOUS
10
6.731130
20
-31.599290
30
0.0
11
6.036130
21
-33.249920
31
0.0
0
LINE
8
0
6
CONTINUOUS
10
5.254250
20
-34.987430
30
0.0
11
6.470500
21
-33.423670
31
0.0
0
LINE
8
0
6
CONTINUOUS
10
6.036130
20
-33.249920
30
0.0
11
4.906740
21
-34.639930
31
0.0
0
LINE
8
0
6
CONTINUOUS
10
4.646110
20
-30.991170
30
0.0
11
4.819860
21
-29.774910
31
0.0
0
LINE
8
0
6
CONTINUOUS
10
4.385490
20
-29.774910
30
0.0
11
4.211740
21
-30.904290
31
0.0
0
LINE
8
0
6
CONTINUOUS
10
4.211740
20
-32.120550
30
0.0
11
4.646110
21
-30.991170
31
0.0
0
LINE
8
0
6
CONTINUOUS
10
4.211740
20
-30.904290
30
0.0
11
3.777370
21
-31.946790
31
0.0
0
LINE
8
0
6
CONTINUOUS
10
3.429860
20
-33.163050
30
0.0
11
4.211740
21
-32.120550
31
0.0
0
LINE
8
0
6
CONTINUOUS
10
3.777370
20
-31.946790
30
0.0
11
3.082370
21
-32.815550
31
0.0
0
LINE
8
0
6
CONTINUOUS
10
2.126740
20
-30.296160
30
0.0
11
2.213610
21
-29.774910
31
0.0
0
LINE
8
0
6
CONTINUOUS
10
1.779230
20
-29.774910
30
0.0
11
1.692370
21
-30.209290
31
0.0
0
LINE
8
0
6
CONTINUOUS
10
1.952980
20
-30.817410
30
0.0
11
2.126740
21
-30.296160
31
0.0
0
LINE
8
0
6
CONTINUOUS
10
1.692370
20
-30.209290
30
0.0
11
1.518610
21
-30.643660
31
0.0
0
LINE
8
0
6
CONTINUOUS
10
1.605490
20
-31.338670
30
0.0
11
1.952980
21
-30.817410
31
0.0
0
LINE
8
0
6
CONTINUOUS
10
1.518610
20
-30.643660
30
0.0
11
1.257980
21
-30.991170
31
0.0
0
LINE
8
0
6
CONTINUOUS
10
1.952980
20
-22.651150
30
0.0
11
0.041730
21
-22.390510
31
0.0
0
LINE
8
0
6
CONTINUOUS
10
0.041730
20
-22.824890
30
0.0
11
1.866110
21
-23.085520
31
0.0
0
LINE
8
0
6
CONTINUOUS
10
3.690490
20
-23.346150
30
0.0
11
1.952980
21
-22.651150
31
0.0
0
LINE
8
0
6
CONTINUOUS
10
1.866110
20
-23.085520
30
0.0
11
3.516740
21
-23.780530
31
0.0
0
LINE
8
0
6
CONTINUOUS
10
5.254250
20
-24.562400
30
0.0
11
3.690490
21
-23.346150
31
0.0
0
LINE
8
0
6
CONTINUOUS
10
3.516740
20
-23.780530
30
0.0
11
4.906740
21
-24.909900
31
0.0
0
LINE
8
0
6
CONTINUOUS
10
1.257980
20
-25.170530
30
0.0
11
0.041730
21
-24.996770
31
0.0
0
LINE
8
0
6
CONTINUOUS
10
0.041730
20
-25.431150
30
0.0
11
1.171100
21
-25.604910
31
0.0
0
LINE
8
0
6
CONTINUOUS
10
2.387370
20
-25.604910
30
0.0
11
1.257980
21
-25.170530
31
0.0
0
LINE
8
0
6
CONTINUOUS
10
1.171100
20
-25.604910
30
0.0
11
2.213610
21
-26.039280
31
0.0
0
LINE
8
0
6
CONTINUOUS
10
3.429860
20
-26.386780
30
0.0
11
2.387370
21
-25.604910
31
0.0
0
LINE
8
0
6
CONTINUOUS
10
2.213610
20
-26.039280
30
0.0
11
3.082370
21
-26.734280
31
0.0
0
LINE
8
0
6
CONTINUOUS
10
0.562980
20
-27.689910
30
0.0
11
0.041730
21
-27.603030
31
0.0
0
LINE
8
0
6
CONTINUOUS
10
0.041730
20
-28.037410
30
0.0
11
0.476100
21
-28.124280
31
0.0
0
LINE
8
0
6
CONTINUOUS
10
1.084230
20
-27.863660
30
0.0
11
0.562980
21
-27.689910
31
0.0
0
LINE
8
0
6
CONTINUOUS
10
0.476100
20
-28.124280
30
0.0
11
0.910490
21
-28.298030
31
0.0
0
LINE
8
0
6
CONTINUOUS
10
1.605490
20
-28.211150
30
0.0
11
1.084230
21
-27.863660
31
0.0
0
LINE
8
0
6
CONTINUOUS
10
0.910490
20
-28.298030
30
0.0
11
1.257980
21
-28.558650
31
0.0
0
LINE
8
0
6
CONTINUOUS
10
7.426130
20
-29.774910
30
0.0
11
7.165500
21
-27.863660
31
0.0
0
LINE
8
0
6
CONTINUOUS
10
6.731130
20
-27.950530
30
0.0
11
6.991740
21
-29.774910
31
0.0
0
LINE
8
0
6
CONTINUOUS
10
7.165500
20
-27.863660
30
0.0
11
6.531503
21
-26.278658
31
0.0
0
LINE
8
0
6
CONTINUOUS
10
6.531502
20
-26.278656
30
0.0
11
6.470500
21
-26.126150
31
0.0
0
LINE
8
0
6
CONTINUOUS
10
6.036130
20
-26.299910
30
0.0
11
6.125816
21
-26.512913
31
0.0
0
LINE
8
0
6
CONTINUOUS
10
6.125816
20
-26.512913
30
0.0
11
6.731130
21
-27.950530
31
0.0
0
LINE
8
0
6
CONTINUOUS
10
6.470500
20
-26.126150
30
0.0
11
5.254250
21
-24.562400
31
0.0
0
LINE
8
0
6
CONTINUOUS
10
4.906740
20
-24.909900
30
0.0
11
6.036130
21
-26.299910
31
0.0
0
LINE
8
0
6
CONTINUOUS
10
4.819860
20
-29.774910
30
0.0
11
4.646110
21
-28.558650
31
0.0
0
LINE
8
0
6
CONTINUOUS
10
4.211740
20
-28.645530
30
0.0
11
4.385490
21
-29.774910
31
0.0
0
LINE
8
0
6
CONTINUOUS
10
4.646110
20
-28.558650
30
0.0
11
4.271185
21
-27.583837
31
0.0
0
LINE
8
0
6
CONTINUOUS
10
4.271185
20
-27.583837
30
0.0
11
4.211740
21
-27.429280
31
0.0
0
LINE
8
0
6
CONTINUOUS
10
3.777370
20
-27.603030
30
0.0
11
3.866692
21
-27.817405
31
0.0
0
LINE
8
0
6
CONTINUOUS
10
3.866692
20
-27.817405
30
0.0
11
4.211740
21
-28.645530
31
0.0
0
LINE
8
0
6
CONTINUOUS
10
4.211740
20
-27.429280
30
0.0
11
3.429860
21
-26.386780
31
0.0
0
LINE
8
0
6
CONTINUOUS
10
3.082370
20
-26.734280
30
0.0
11
3.777370
21
-27.603030
31
0.0
0
LINE
8
0
6
CONTINUOUS
10
2.213610
20
-29.774910
30
0.0
11
2.126740
21
-29.253650
31
0.0
0
LINE
8
0
6
CONTINUOUS
10
1.692370
20
-29.340530
30
0.0
11
1.779230
21
-29.774910
31
0.0
0
LINE
8
0
6
CONTINUOUS
10
2.126740
20
-29.253650
30
0.0
11
2.006104
21
-28.891769
31
0.0
0
LINE
8
0
6
CONTINUOUS
10
2.006104
20
-28.891769
30
0.0
11
1.952980
21
-28.732410
31
0.0
0
LINE
8
0
6
CONTINUOUS
10
1.518610
20
-28.906150
30
0.0
11
1.692370
21
-29.340530
31
0.0
0
LINE
8
0
6
CONTINUOUS
10
1.952980
20
-28.732410
30
0.0
11
1.605490
21
-28.211150
31
0.0
0
LINE
8
0
6
CONTINUOUS
10
1.257980
20
-28.558650
30
0.0
11
1.518610
21
-28.906150
31
0.0
0
LINE
8
0
6
CONTINUOUS
10
0.041730
20
-22.390510
30
0.0
11
-1.869530
21
-22.651150
31
0.0
0
LINE
8
0
6
CONTINUOUS
10
-1.782650
20
-23.085520
30
0.0
11
0.041730
21
-22.824890
31
0.0
0
LINE
8
0
6
CONTINUOUS
10
-1.869530
20
-22.651150
30
0.0
11
-3.607020
21
-23.346150
31
0.0
0
LINE
8
0
6
CONTINUOUS
10
-3.433270
20
-23.780530
30
0.0
11
-1.782650
21
-23.085520
31
0.0
0
LINE
8
0
6
CONTINUOUS
10
-3.607020
20
-23.346150
30
0.0
11
-5.170780
21
-24.562400
31
0.0
0
LINE
8
0
6
CONTINUOUS
10
-4.823270
20
-24.909900
30
0.0
11
-3.433270
21
-23.780530
31
0.0
0
LINE
8
0
6
CONTINUOUS
10
0.041730
20
-24.996770
30
0.0
11
-1.174530
21
-25.170530
31
0.0
0
LINE
8
0
6
CONTINUOUS
10
-1.087650
20
-25.604910
30
0.0
11
0.041730
21
-25.431150
31
0.0
0
LINE
8
0
6
CONTINUOUS
10
-1.174530
20
-25.170530
30
0.0
11
-2.303900
21
-25.604910
31
0.0
0
LINE
8
0
6
CONTINUOUS
10
-2.130150
20
-26.039280
30
0.0
11
-1.087650
21
-25.604910
31
0.0
0
LINE
8
0
6
CONTINUOUS
10
-2.303900
20
-25.604910
30
0.0
11
-3.346410
21
-26.386780
31
0.0
0
LINE
8
0
6
CONTINUOUS
10
-2.998900
20
-26.734280
30
0.0
11
-2.130150
21
-26.039280
31
0.0
0
LINE
8
0
6
CONTINUOUS
10
0.041730
20
-27.603030
30
0.0
11
-0.479510
21
-27.689910
31
0.0
0
LINE
8
0
6
CONTINUOUS
10
-0.392650
20
-28.124280
30
0.0
11
0.041730
21
-28.037410
31
0.0
0
LINE
8
0
6
CONTINUOUS
10
-0.479510
20
-27.689910
30
0.0
11
-1.000770
21
-27.863660
31
0.0
0
LINE
8
0
6
CONTINUOUS
10
-0.827020
20
-28.298030
30
0.0
11
-0.392650
21
-28.124280
31
0.0
0
LINE
8
0
6
CONTINUOUS
10
-1.000770
20
-27.863660
30
0.0
11
-1.522020
21
-28.211150
31
0.0
0
LINE
8
0
6
CONTINUOUS
10
-1.174530
20
-28.558650
30
0.0
11
-0.827020
21
-28.298030
31
0.0
0
LINE
8
0
6
CONTINUOUS
10
-7.082030
20
-27.863660
30
0.0
11
-7.342660
21
-29.774910
31
0.0
0
LINE
8
0
6
CONTINUOUS
10
-6.908290
20
-29.774910
30
0.0
11
-6.647660
21
-27.950530
31
0.0
0
LINE
8
0
6
CONTINUOUS
10
-6.387030
20
-26.126150
30
0.0
11
-7.082030
21
-27.863660
31
0.0
0
LINE
8
0
6
CONTINUOUS
10
-6.647660
20
-27.950530
30
0.0
11
-5.952660
21
-26.299910
31
0.0
0
LINE
8
0
6
CONTINUOUS
10
-5.170780
20
-24.562400
30
0.0
11
-6.387030
21
-26.126150
31
0.0
0
LINE
8
0
6
CONTINUOUS
10
-5.952660
20
-26.299910
30
0.0
11
-4.823270
21
-24.909900
31
0.0
0
LINE
8
0
6
CONTINUOUS
10
-4.562660
20
-28.558650
30
0.0
11
-4.736410
21
-29.774910
31
0.0
0
LINE
8
0
6
CONTINUOUS
10
-4.302020
20
-29.774910
30
0.0
11
-4.128270
21
-28.645530
31
0.0
0
LINE
8
0
6
CONTINUOUS
10
-4.128270
20
-27.429280
30
0.0
11
-4.562660
21
-28.558650
31
0.0
0
LINE
8
0
6
CONTINUOUS
10
-4.128270
20
-28.645530
30
0.0
11
-3.693900
21
-27.603030
31
0.0
0
LINE
8
0
6
CONTINUOUS
10
-3.346410
20
-26.386780
30
0.0
11
-4.128270
21
-27.429280
31
0.0
0
LINE
8
0
6
CONTINUOUS
10
-3.693900
20
-27.603030
30
0.0
11
-2.998900
21
-26.734280
31
0.0
0
LINE
8
0
6
CONTINUOUS
10
-2.043270
20
-29.253650
30
0.0
11
-2.130150
21
-29.774910
31
0.0
0
LINE
8
0
6
CONTINUOUS
10
-1.695780
20
-29.774910
30
0.0
11
-1.608900
21
-29.340530
31
0.0
0
LINE
8
0
6
CONTINUOUS
10
-1.869530
20
-28.732410
30
0.0
11
-2.043270
21
-29.253650
31
0.0
0
LINE
8
0
6
CONTINUOUS
10
-1.608900
20
-29.340530
30
0.0
11
-1.435140
21
-28.906150
31
0.0
0
LINE
8
0
6
CONTINUOUS
10
-1.522020
20
-28.211150
30
0.0
11
-1.869530
21
-28.732410
31
0.0
0
LINE
8
0
6
CONTINUOUS
10
-1.435140
20
-28.906150
30
0.0
11
-1.174530
21
-28.558650
31
0.0
0
LINE
8
0
6
CONTINUOUS
10
1.843520
20
-28.985650
30
0.0
11
7.342423
21
-25.810402
31
0.0
0
LINE
8
0
6
CONTINUOUS
10
1.626340
20
-28.609490
30
0.0
11
1.843520
21
-28.985650
31
0.0
0
LINE
8
0
6
CONTINUOUS
10
7.120736
20
-25.437546
30
0.0
11
1.626340
21
-28.609490
31
0.0
0
LINE
8
0
6
CONTINUOUS
10
-0.747100
20
-27.973470
30
0.0
11
-3.923822
21
-22.471081
31
0.0
0
LINE
8
0
6
CONTINUOUS
10
-1.124140
20
-28.190660
30
0.0
11
-0.747100
21
-27.973470
31
0.0
0
LINE
8
0
6
CONTINUOUS
10
-4.290374
20
-22.706450
30
0.0
11
-1.124140
21
-28.190660
31
0.0
0
LINE
8
0
6
CONTINUOUS
10
7.342423
20
-25.810402
30
0.0
11
1.843520
21
-28.985650
31
0.0
0
LINE
8
0
6
CONTINUOUS
10
-1.542870
20
-28.609490
30
0.0
11
-7.108613
21
-25.396361
31
0.0
0
LINE
8
0
6
CONTINUOUS
10
-1.760070
20
-28.985650
30
0.0
11
-1.542870
21
-28.609490
31
0.0
0
LINE
8
0
6
CONTINUOUS
10
-7.333355
20
-25.767457
30
0.0
11
-1.760070
21
-28.985650
31
0.0
0
LINE
8
0
6
CONTINUOUS
10
0.830560
20
-31.576350
30
0.0
11
4.343390
21
-37.660740
31
0.0
0
LINE
8
0
6
CONTINUOUS
10
1.207590
20
-31.359160
30
0.0
11
0.830560
21
-31.576350
31
0.0
0
LINE
8
0
6
CONTINUOUS
10
4.702930
20
-37.413240
30
0.0
11
1.207590
21
-31.359160
31
0.0
0
LINE
8
0
6
CONTINUOUS
10
4.343390
20
-37.660740
30
0.0
11
4.702930
21
-37.413240
31
0.0
0
LINE
8
0
6
CONTINUOUS
10
-1.124140
20
-31.359160
30
0.0
11
-4.617040
21
-37.409030
31
0.0
0
LINE
8
0
6
CONTINUOUS
10
-0.747100
20
-31.576350
30
0.0
11
-1.124140
21
-31.359160
31
0.0
0
LINE
8
0
6
CONTINUOUS
10
-4.252260
20
-37.647460
30
0.0
11
-0.747100
21
-31.576350
31
0.0
0
LINE
8
0
6
CONTINUOUS
10
-4.617040
20
-37.409030
30
0.0
11
-4.252260
21
-37.647460
31
0.0
0
LINE
8
0
6
CONTINUOUS
10
4.343390
20
-37.660740
30
0.0
11
0.830560
21
-31.576350
31
0.0
0
LINE
8
0
6
CONTINUOUS
10
-0.175450
20
-31.729610
30
0.0
11
-0.175450
21
-39.209400
31
0.0
0
LINE
8
0
6
CONTINUOUS
10
0.258920
20
-31.729610
30
0.0
11
-0.175450
21
-31.729610
31
0.0
0
LINE
8
0
6
CONTINUOUS
10
0.258920
20
-39.204150
30
0.0
11
0.258920
21
-31.729610
31
0.0
0
LINE
8
0
6
CONTINUOUS
10
0.041740
20
-39.222660
30
0.0
11
0.258920
21
-39.204150
31
0.0
0
LINE
8
0
6
CONTINUOUS
10
-0.175450
20
-39.209400
30
0.0
11
0.041740
21
-39.222660
31
0.0
0
LINE
8
0
6
CONTINUOUS
10
0.258920
20
-27.820220
30
0.0
11
0.258920
21
-21.531667
31
0.0
0
LINE
8
0
6
CONTINUOUS
10
-0.175450
20
-27.820220
30
0.0
11
0.258920
21
-27.820220
31
0.0
0
LINE
8
0
6
CONTINUOUS
10
-0.175450
20
-21.522813
30
0.0
11
-0.175450
21
-27.820220
31
0.0
0
LINE
8
0
6
CONTINUOUS
10
-1.542870
20
-30.940340
30
0.0
11
-7.388020
21
-34.315140
31
0.0
0
LINE
8
0
6
CONTINUOUS
10
-1.912960
20
-29.557720
30
0.0
11
-8.484167
21
-29.557720
31
0.0
0
LINE
8
0
6
CONTINUOUS
10
-1.912960
20
-29.992090
30
0.0
11
-1.912960
21
-29.557720
31
0.0
0
LINE
8
0
6
CONTINUOUS
10
-8.515641
20
-29.992090
30
0.0
11
-1.912960
21
-29.992090
31
0.0
0
LINE
8
0
6
CONTINUOUS
10
-7.569550
20
-33.918380
30
0.0
11
-1.760070
21
-30.564170
31
0.0
0
LINE
8
0
6
CONTINUOUS
10
1.207590
20
-31.359160
30
0.0
11
4.702930
21
-37.413240
31
0.0
0
LINE
8
0
6
CONTINUOUS
10
-1.760070
20
-30.564170
30
0.0
11
-7.569550
21
-33.918380
31
0.0
0
LINE
8
0
6
CONTINUOUS
10
-1.542870
20
-30.940340
30
0.0
11
-1.760070
21
-30.564170
31
0.0
0
LINE
8
0
6
CONTINUOUS
10
-7.388020
20
-34.315140
30
0.0
11
-1.542870
21
-30.940340
31
0.0
0
LINE
8
0
6
CONTINUOUS
10
-7.569550
20
-33.918380
30
0.0
11
-7.405610
21
-34.288740
31
0.0
0
LINE
8
0
6
CONTINUOUS
10
1.207590
20
-28.190660
30
0.0
11
4.346041
21
-22.754601
31
0.0
0
LINE
8
0
6
CONTINUOUS
10
0.830560
20
-27.973470
30
0.0
11
1.207590
21
-28.190660
31
0.0
0
LINE
8
0
6
CONTINUOUS
10
3.982790
20
-22.513528
30
0.0
11
0.830560
21
-27.973470
31
0.0
0
LINE
8
0
6
CONTINUOUS
10
1.996430
20
-29.992090
30
0.0
11
8.503638
21
-29.992090
31
0.0
0
LINE
8
0
6
CONTINUOUS
10
1.996430
20
-29.557720
30
0.0
11
1.996430
21
-29.992090
31
0.0
0
LINE
8
0
6
CONTINUOUS
10
8.461002
20
-29.557720
30
0.0
11
1.996430
21
-29.557720
31
0.0
0
LINE
8
0
6
CONTINUOUS
10
1.626340
20
-30.940340
30
0.0
11
7.457384
21
-34.306997
31
0.0
0
LINE
8
0
6
CONTINUOUS
10
1.843520
20
-30.564170
30
0.0
11
1.626340
21
-30.940340
31
0.0
0
LINE
8
0
6
CONTINUOUS
10
7.613805
20
-33.895742
30
0.0
11
1.843520
21
-30.564170
31
0.0
0
LINE
8
0
6
CONTINUOUS
10
-0.175450
20
-21.522813
30
0.0
11
-0.000240
21
-21.502798
31
0.0
0
LINE
8
0
6
CONTINUOUS
10
-0.000240
20
-21.502798
30
0.0
11
0.258920
21
-21.531667
31
0.0
0
ENDSEC
0
EOF
