999
Erzeugt mit innoplus bad 
0
SECTION
2
HEADER
9
$ACADVER
1
AC1009
9
$DWGCODEPAGE
3
ISO8859-1
0
ENDSEC
0
SECTION
2
TABLES
0
TABLE
2
LAYER
70
1
0
LAYER
2
0
70
0
62
7
6
CONTINUOUS
0
ENDTAB
0
ENDSEC
0
SECTION
2
ENTITIES
0
LINE
8
0
6
CONTINUOUS
10
-11.895200
20
1.232980
30
0.0
11
-11.846950
21
0.938030
31
0.0
0
LINE
8
0
6
CONTINUOUS
10
-11.912350
20
1.445140
30
0.0
11
-11.895200
21
1.232980
31
0.0
0
LINE
8
0
6
CONTINUOUS
10
-11.935720
20
4.290200
30
0.0
11
-11.912350
21
1.445140
31
0.0
0
LINE
8
0
6
CONTINUOUS
10
11.846940
20
0.938030
30
0.0
11
11.895200
21
1.232980
31
0.0
0
LINE
8
0
6
CONTINUOUS
10
11.912350
20
1.445130
30
0.0
11
11.935720
21
4.290200
31
0.0
0
LINE
8
0
6
CONTINUOUS
10
11.895200
20
1.232980
30
0.0
11
11.912350
21
1.445130
31
0.0
0
LINE
8
0
6
CONTINUOUS
10
-2.931630
20
14.801840
30
0.0
11
-5.673980
21
13.754090
31
0.0
0
LINE
8
0
6
CONTINUOUS
10
-11.935580
20
4.290190
30
0.0
11
-11.838570
21
0.890820
31
0.0
0
LINE
8
0
6
CONTINUOUS
10
-1.970840
20
-14.535880
30
0.0
11
-3.174740
21
-13.473570
31
0.0
0
LINE
8
0
6
CONTINUOUS
10
-5.450630
20
-10.957180
30
0.0
11
-3.174740
21
-13.473570
31
0.0
0
LINE
8
0
6
CONTINUOUS
10
-9.315740
20
-5.382700
30
0.0
11
-10.870660
21
-2.353180
31
0.0
0
LINE
8
0
6
CONTINUOUS
10
-7.480430
20
-8.234500
30
0.0
11
-5.450630
21
-10.957180
31
0.0
0
LINE
8
0
6
CONTINUOUS
10
0.000000
20
15.165440
30
0.0
11
-2.931630
21
14.801840
31
0.0
0
LINE
8
0
6
CONTINUOUS
10
-5.673980
20
13.754090
30
0.0
11
-8.077970
21
12.039920
31
0.0
0
LINE
8
0
6
CONTINUOUS
10
-10.870660
20
-2.353180
30
0.0
11
-11.838570
21
0.890820
31
0.0
0
LINE
8
0
6
CONTINUOUS
10
-9.986990
20
9.801550
30
0.0
11
-11.305390
21
7.165440
31
0.0
0
LINE
8
0
6
CONTINUOUS
10
-9.315740
20
-5.382700
30
0.0
11
-7.480430
21
-8.234500
31
0.0
0
LINE
8
0
6
CONTINUOUS
10
-8.077970
20
12.039920
30
0.0
11
-9.986990
21
9.801550
31
0.0
0
LINE
8
0
6
CONTINUOUS
10
-11.305390
20
7.165440
30
0.0
11
-11.935580
21
4.290190
31
0.0
0
LINE
8
0
6
CONTINUOUS
10
5.673980
20
13.754090
30
0.0
11
2.931630
21
14.801840
31
0.0
0
LINE
8
0
6
CONTINUOUS
10
11.838570
20
0.890830
30
0.0
11
11.935580
21
4.290190
31
0.0
0
LINE
8
0
6
CONTINUOUS
10
1.970840
20
-14.535880
30
0.0
11
3.174740
21
-13.473570
31
0.0
0
LINE
8
0
6
CONTINUOUS
10
3.174740
20
-13.473570
30
0.0
11
5.450620
21
-10.957180
31
0.0
0
LINE
8
0
6
CONTINUOUS
10
9.315740
20
-5.382700
30
0.0
11
10.870660
21
-2.353180
31
0.0
0
LINE
8
0
6
CONTINUOUS
10
5.450620
20
-10.957180
30
0.0
11
7.480430
21
-8.234500
31
0.0
0
LINE
8
0
6
CONTINUOUS
10
2.931630
20
14.801840
30
0.0
11
0.000000
21
15.165440
31
0.0
0
LINE
8
0
6
CONTINUOUS
10
8.077970
20
12.039920
30
0.0
11
5.673980
21
13.754090
31
0.0
0
LINE
8
0
6
CONTINUOUS
10
1.019920
20
-14.974530
30
0.0
11
1.970840
21
-14.535880
31
0.0
0
LINE
8
0
6
CONTINUOUS
10
-1.970840
20
-14.535880
30
0.0
11
-1.019920
21
-14.974530
31
0.0
0
LINE
8
0
6
CONTINUOUS
10
10.870660
20
-2.353180
30
0.0
11
11.838570
21
0.890830
31
0.0
0
LINE
8
0
6
CONTINUOUS
10
11.305390
20
7.165430
30
0.0
11
9.986990
21
9.801550
31
0.0
0
LINE
8
0
6
CONTINUOUS
10
7.480430
20
-8.234500
30
0.0
11
9.315740
21
-5.382700
31
0.0
0
LINE
8
0
6
CONTINUOUS
10
9.986990
20
9.801550
30
0.0
11
8.077970
21
12.039920
31
0.0
0
LINE
8
0
6
CONTINUOUS
10
11.935580
20
4.290190
30
0.0
11
11.305390
21
7.165430
31
0.0
0
LINE
8
0
6
CONTINUOUS
10
-4.855750
20
12.228120
30
0.0
11
-2.513370
21
13.123060
31
0.0
0
LINE
8
0
6
CONTINUOUS
10
-10.128220
20
1.165510
30
0.0
11
-10.212770
21
4.128440
31
0.0
0
LINE
8
0
6
CONTINUOUS
10
-7.826070
20
-4.523790
30
0.0
11
-9.270220
21
-1.710090
31
0.0
0
LINE
8
0
6
CONTINUOUS
10
-4.122280
20
-9.865440
30
0.0
11
-6.068150
21
-7.255340
31
0.0
0
LINE
8
0
6
CONTINUOUS
10
-2.513370
20
13.123060
30
0.0
11
0.000000
21
13.434790
31
0.0
0
LINE
8
0
6
CONTINUOUS
10
-6.908520
20
10.764390
30
0.0
11
-4.855750
21
12.228120
31
0.0
0
LINE
8
0
6
CONTINUOUS
10
-9.270220
20
-1.710090
30
0.0
11
-10.128220
21
1.165510
31
0.0
0
LINE
8
0
6
CONTINUOUS
10
-9.673550
20
6.588630
30
0.0
11
-8.544470
21
8.846210
31
0.0
0
LINE
8
0
6
CONTINUOUS
10
-6.068150
20
-7.255340
30
0.0
11
-7.826070
21
-4.523790
31
0.0
0
LINE
8
0
6
CONTINUOUS
10
-8.544470
20
8.846210
30
0.0
11
-6.908520
21
10.764390
31
0.0
0
LINE
8
0
6
CONTINUOUS
10
-10.212770
20
4.128440
30
0.0
11
-9.673550
21
6.588630
31
0.0
0
LINE
8
0
6
CONTINUOUS
10
4.855750
20
12.228120
30
0.0
11
2.513370
21
13.123060
31
0.0
0
LINE
8
0
6
CONTINUOUS
10
10.128210
20
1.165510
30
0.0
11
10.212770
21
4.128440
31
0.0
0
LINE
8
0
6
CONTINUOUS
10
1.965830
20
-12.249760
30
0.0
11
4.122270
21
-9.865430
31
0.0
0
LINE
8
0
6
CONTINUOUS
10
7.826070
20
-4.523790
30
0.0
11
9.270220
21
-1.710090
31
0.0
0
LINE
8
0
6
CONTINUOUS
10
4.122270
20
-9.865430
30
0.0
11
6.068150
21
-7.255330
31
0.0
0
LINE
8
0
6
CONTINUOUS
10
2.513370
20
13.123060
30
0.0
11
0.000000
21
13.434790
31
0.0
0
LINE
8
0
6
CONTINUOUS
10
6.908520
20
10.764390
30
0.0
11
4.855750
21
12.228120
31
0.0
0
LINE
8
0
6
CONTINUOUS
10
9.270220
20
-1.710090
30
0.0
11
10.128210
21
1.165510
31
0.0
0
LINE
8
0
6
CONTINUOUS
10
9.673550
20
6.588640
30
0.0
11
8.544470
21
8.846210
31
0.0
0
LINE
8
0
6
CONTINUOUS
10
6.068150
20
-7.255330
30
0.0
11
7.826070
21
-4.523790
31
0.0
0
LINE
8
0
6
CONTINUOUS
10
8.544470
20
8.846210
30
0.0
11
6.908520
21
10.764390
31
0.0
0
LINE
8
0
6
CONTINUOUS
10
10.212770
20
4.128440
30
0.0
11
9.673550
21
6.588640
31
0.0
0
LINE
8
0
6
CONTINUOUS
10
1.019920
20
-14.974530
30
0.0
11
0.000000
21
-15.185710
31
0.0
0
LINE
8
0
6
CONTINUOUS
10
0.000000
20
-15.185710
30
0.0
11
-1.019920
21
-14.974530
31
0.0
0
LINE
8
0
6
CONTINUOUS
10
-7.384390
20
3.310810
30
0.0
11
-7.123760
21
1.399560
31
0.0
0
LINE
8
0
6
CONTINUOUS
10
-6.689390
20
1.486440
30
0.0
11
-6.950020
21
3.310810
31
0.0
0
LINE
8
0
6
CONTINUOUS
10
-7.123760
20
1.399560
30
0.0
11
-6.428760
21
-0.337940
31
0.0
0
LINE
8
0
6
CONTINUOUS
10
-5.994390
20
-0.164190
30
0.0
11
-6.689390
21
1.486440
31
0.0
0
LINE
8
0
6
CONTINUOUS
10
-6.428760
20
-0.337940
30
0.0
11
-5.212510
21
-1.901700
31
0.0
0
LINE
8
0
6
CONTINUOUS
10
-4.865010
20
-1.554200
30
0.0
11
-5.994390
21
-0.164190
31
0.0
0
LINE
8
0
6
CONTINUOUS
10
-4.778150
20
3.310810
30
0.0
11
-4.604390
21
2.094560
31
0.0
0
LINE
8
0
6
CONTINUOUS
10
-4.170000
20
2.181440
30
0.0
11
-4.343760
21
3.310810
31
0.0
0
LINE
8
0
6
CONTINUOUS
10
-4.604390
20
2.094560
30
0.0
11
-4.170000
21
0.965180
31
0.0
0
LINE
8
0
6
CONTINUOUS
10
-3.735640
20
1.138940
30
0.0
11
-4.170000
21
2.181440
31
0.0
0
LINE
8
0
6
CONTINUOUS
10
-4.170000
20
0.965180
30
0.0
11
-3.388140
21
-0.077320
31
0.0
0
LINE
8
0
6
CONTINUOUS
10
-3.040630
20
0.270180
30
0.0
11
-3.735640
21
1.138940
31
0.0
0
LINE
8
0
6
CONTINUOUS
10
-2.171880
20
3.310810
30
0.0
11
-2.085000
21
2.789560
31
0.0
0
LINE
8
0
6
CONTINUOUS
10
-1.650630
20
2.876440
30
0.0
11
-1.737510
21
3.310810
31
0.0
0
LINE
8
0
6
CONTINUOUS
10
-2.085000
20
2.789560
30
0.0
11
-1.911260
21
2.268310
31
0.0
0
LINE
8
0
6
CONTINUOUS
10
-1.476880
20
2.442060
30
0.0
11
-1.650630
21
2.876440
31
0.0
0
LINE
8
0
6
CONTINUOUS
10
-1.911260
20
2.268310
30
0.0
11
-1.563760
21
1.747060
31
0.0
0
LINE
8
0
6
CONTINUOUS
10
-1.216260
20
2.094560
30
0.0
11
-1.476880
21
2.442060
31
0.0
0
LINE
8
0
6
CONTINUOUS
10
-1.911260
20
-3.812950
30
0.0
11
0.000000
21
-4.073580
31
0.0
0
LINE
8
0
6
CONTINUOUS
10
0.000000
20
-3.639200
30
0.0
11
-1.824390
21
-3.378580
31
0.0
0
LINE
8
0
6
CONTINUOUS
10
-3.648760
20
-3.117950
30
0.0
11
-1.911260
21
-3.812950
31
0.0
0
LINE
8
0
6
CONTINUOUS
10
-1.824390
20
-3.378580
30
0.0
11
-3.475000
21
-2.683570
31
0.0
0
LINE
8
0
6
CONTINUOUS
10
-5.212510
20
-1.901700
30
0.0
11
-3.648760
21
-3.117950
31
0.0
0
LINE
8
0
6
CONTINUOUS
10
-3.475000
20
-2.683570
30
0.0
11
-4.865010
21
-1.554200
31
0.0
0
LINE
8
0
6
CONTINUOUS
10
-1.216260
20
-1.293570
30
0.0
11
0.000000
21
-1.467320
31
0.0
0
LINE
8
0
6
CONTINUOUS
10
0.000000
20
-1.032940
30
0.0
11
-1.129390
21
-0.859190
31
0.0
0
LINE
8
0
6
CONTINUOUS
10
-2.345630
20
-0.859190
30
0.0
11
-1.216260
21
-1.293570
31
0.0
0
LINE
8
0
6
CONTINUOUS
10
-1.129390
20
-0.859190
30
0.0
11
-2.171880
21
-0.424820
31
0.0
0
LINE
8
0
6
CONTINUOUS
10
-3.388140
20
-0.077320
30
0.0
11
-2.345630
21
-0.859190
31
0.0
0
LINE
8
0
6
CONTINUOUS
10
-2.171880
20
-0.424820
30
0.0
11
-3.040630
21
0.270180
31
0.0
0
LINE
8
0
6
CONTINUOUS
10
-0.521250
20
1.225820
30
0.0
11
0.000000
21
1.138940
31
0.0
0
LINE
8
0
6
CONTINUOUS
10
0.000000
20
1.573320
30
0.0
11
-0.434390
21
1.660190
31
0.0
0
LINE
8
0
6
CONTINUOUS
10
-1.042510
20
1.399560
30
0.0
11
-0.521250
21
1.225820
31
0.0
0
LINE
8
0
6
CONTINUOUS
10
-0.434390
20
1.660190
30
0.0
11
-0.868760
21
1.833940
31
0.0
0
LINE
8
0
6
CONTINUOUS
10
-1.563760
20
1.747060
30
0.0
11
-1.042510
21
1.399560
31
0.0
0
LINE
8
0
6
CONTINUOUS
10
-0.868760
20
1.833940
30
0.0
11
-1.216260
21
2.094560
31
0.0
0
LINE
8
0
6
CONTINUOUS
10
0.000000
20
-4.073580
30
0.0
11
1.911250
21
-3.812950
31
0.0
0
LINE
8
0
6
CONTINUOUS
10
1.824370
20
-3.378580
30
0.0
11
0.000000
21
-3.639200
31
0.0
0
LINE
8
0
6
CONTINUOUS
10
1.911250
20
-3.812950
30
0.0
11
3.495755
21
-3.179152
31
0.0
0
LINE
8
0
6
CONTINUOUS
10
3.495757
20
-3.179151
30
0.0
11
3.648760
21
-3.117950
31
0.0
0
LINE
8
0
6
CONTINUOUS
10
3.475000
20
-2.683570
30
0.0
11
3.261527
21
-2.773455
31
0.0
0
LINE
8
0
6
CONTINUOUS
10
3.261527
20
-2.773455
30
0.0
11
1.824370
21
-3.378580
31
0.0
0
LINE
8
0
6
CONTINUOUS
10
3.648760
20
-3.117950
30
0.0
11
5.212510
21
-1.901700
31
0.0
0
LINE
8
0
6
CONTINUOUS
10
4.865010
20
-1.554200
30
0.0
11
3.475000
21
-2.683570
31
0.0
0
LINE
8
0
6
CONTINUOUS
10
0.000000
20
-1.467320
30
0.0
11
1.216250
21
-1.293570
31
0.0
0
LINE
8
0
6
CONTINUOUS
10
1.129370
20
-0.859190
30
0.0
11
0.000000
21
-1.032940
31
0.0
0
LINE
8
0
6
CONTINUOUS
10
1.216250
20
-1.293570
30
0.0
11
2.190718
21
-0.918772
31
0.0
0
LINE
8
0
6
CONTINUOUS
10
2.190718
20
-0.918772
30
0.0
11
2.345630
21
-0.859190
31
0.0
0
LINE
8
0
6
CONTINUOUS
10
2.171880
20
-0.424820
30
0.0
11
1.957181
21
-0.514276
31
0.0
0
LINE
8
0
6
CONTINUOUS
10
1.957181
20
-0.514276
30
0.0
11
1.129370
21
-0.859190
31
0.0
0
LINE
8
0
6
CONTINUOUS
10
2.345630
20
-0.859190
30
0.0
11
3.388130
21
-0.077320
31
0.0
0
LINE
8
0
6
CONTINUOUS
10
3.040640
20
0.270180
30
0.0
11
2.171880
21
-0.424820
31
0.0
0
LINE
8
0
6
CONTINUOUS
10
0.000000
20
1.138940
30
0.0
11
0.521250
21
1.225820
31
0.0
0
LINE
8
0
6
CONTINUOUS
10
0.434370
20
1.660190
30
0.0
11
0.000000
21
1.573320
31
0.0
0
LINE
8
0
6
CONTINUOUS
10
0.521250
20
1.225820
30
0.0
11
0.882926
21
1.346374
31
0.0
0
LINE
8
0
6
CONTINUOUS
10
0.882926
20
1.346374
30
0.0
11
1.042490
21
1.399560
31
0.0
0
LINE
8
0
6
CONTINUOUS
10
0.868760
20
1.833940
30
0.0
11
0.434370
21
1.660190
31
0.0
0
LINE
8
0
6
CONTINUOUS
10
1.042490
20
1.399560
30
0.0
11
1.563760
21
1.747060
31
0.0
0
LINE
8
0
6
CONTINUOUS
10
1.216250
20
2.094560
30
0.0
11
0.868760
21
1.833940
31
0.0
0
LINE
8
0
6
CONTINUOUS
10
7.123760
20
1.399560
30
0.0
11
7.384390
21
3.310810
31
0.0
0
LINE
8
0
6
CONTINUOUS
10
6.950010
20
3.310810
30
0.0
11
6.689390
21
1.486440
31
0.0
0
LINE
8
0
6
CONTINUOUS
10
6.428760
20
-0.337940
30
0.0
11
7.123760
21
1.399560
31
0.0
0
LINE
8
0
6
CONTINUOUS
10
6.689390
20
1.486440
30
0.0
11
5.994390
21
-0.164190
31
0.0
0
LINE
8
0
6
CONTINUOUS
10
5.212510
20
-1.901700
30
0.0
11
6.428760
21
-0.337940
31
0.0
0
LINE
8
0
6
CONTINUOUS
10
5.994390
20
-0.164190
30
0.0
11
4.865010
21
-1.554200
31
0.0
0
LINE
8
0
6
CONTINUOUS
10
4.604370
20
2.094560
30
0.0
11
4.778130
21
3.310810
31
0.0
0
LINE
8
0
6
CONTINUOUS
10
4.343760
20
3.310810
30
0.0
11
4.170010
21
2.181440
31
0.0
0
LINE
8
0
6
CONTINUOUS
10
4.170010
20
0.965180
30
0.0
11
4.604370
21
2.094560
31
0.0
0
LINE
8
0
6
CONTINUOUS
10
4.170010
20
2.181440
30
0.0
11
3.735640
21
1.138940
31
0.0
0
LINE
8
0
6
CONTINUOUS
10
3.388130
20
-0.077320
30
0.0
11
4.170010
21
0.965180
31
0.0
0
LINE
8
0
6
CONTINUOUS
10
3.735640
20
1.138940
30
0.0
11
3.040640
21
0.270180
31
0.0
0
LINE
8
0
6
CONTINUOUS
10
2.085000
20
2.789560
30
0.0
11
2.171880
21
3.310810
31
0.0
0
LINE
8
0
6
CONTINUOUS
10
1.737490
20
3.310810
30
0.0
11
1.650630
21
2.876440
31
0.0
0
LINE
8
0
6
CONTINUOUS
10
1.911250
20
2.268310
30
0.0
11
2.085000
21
2.789560
31
0.0
0
LINE
8
0
6
CONTINUOUS
10
1.650630
20
2.876440
30
0.0
11
1.476880
21
2.442060
31
0.0
0
LINE
8
0
6
CONTINUOUS
10
1.563760
20
1.747060
30
0.0
11
1.911250
21
2.268310
31
0.0
0
LINE
8
0
6
CONTINUOUS
10
1.476880
20
2.442060
30
0.0
11
1.216250
21
2.094560
31
0.0
0
LINE
8
0
6
CONTINUOUS
10
1.911250
20
10.434580
30
0.0
11
0.000000
21
10.695210
31
0.0
0
LINE
8
0
6
CONTINUOUS
10
0.000000
20
10.260830
30
0.0
11
1.824370
21
10.000210
31
0.0
0
LINE
8
0
6
CONTINUOUS
10
3.648760
20
9.739580
30
0.0
11
1.911250
21
10.434580
31
0.0
0
LINE
8
0
6
CONTINUOUS
10
1.824370
20
10.000210
30
0.0
11
3.475000
21
9.305200
31
0.0
0
LINE
8
0
6
CONTINUOUS
10
5.212510
20
8.523330
30
0.0
11
3.648760
21
9.739580
31
0.0
0
LINE
8
0
6
CONTINUOUS
10
3.475000
20
9.305200
30
0.0
11
4.865010
21
8.175830
31
0.0
0
LINE
8
0
6
CONTINUOUS
10
1.216250
20
7.915200
30
0.0
11
0.000000
21
8.088950
31
0.0
0
LINE
8
0
6
CONTINUOUS
10
0.000000
20
7.654570
30
0.0
11
1.129370
21
7.480820
31
0.0
0
LINE
8
0
6
CONTINUOUS
10
2.345630
20
7.480820
30
0.0
11
1.216250
21
7.915200
31
0.0
0
LINE
8
0
6
CONTINUOUS
10
1.129370
20
7.480820
30
0.0
11
2.171880
21
7.046450
31
0.0
0
LINE
8
0
6
CONTINUOUS
10
3.388130
20
6.698950
30
0.0
11
2.345630
21
7.480820
31
0.0
0
LINE
8
0
6
CONTINUOUS
10
2.171880
20
7.046450
30
0.0
11
3.040640
21
6.351450
31
0.0
0
LINE
8
0
6
CONTINUOUS
10
0.521250
20
5.395810
30
0.0
11
0.000000
21
5.482690
31
0.0
0
LINE
8
0
6
CONTINUOUS
10
0.000000
20
5.048310
30
0.0
11
0.434370
21
4.961440
31
0.0
0
LINE
8
0
6
CONTINUOUS
10
1.042490
20
5.222070
30
0.0
11
0.521250
21
5.395810
31
0.0
0
LINE
8
0
6
CONTINUOUS
10
0.434370
20
4.961440
30
0.0
11
0.868760
21
4.787690
31
0.0
0
LINE
8
0
6
CONTINUOUS
10
1.563760
20
4.874570
30
0.0
11
1.042490
21
5.222070
31
0.0
0
LINE
8
0
6
CONTINUOUS
10
0.868760
20
4.787690
30
0.0
11
1.216250
21
4.527070
31
0.0
0
LINE
8
0
6
CONTINUOUS
10
7.384390
20
3.310810
30
0.0
11
7.123760
21
5.222070
31
0.0
0
LINE
8
0
6
CONTINUOUS
10
6.689390
20
5.135190
30
0.0
11
6.950010
21
3.310810
31
0.0
0
LINE
8
0
6
CONTINUOUS
10
7.123760
20
5.222070
30
0.0
11
6.489765
21
6.807058
31
0.0
0
LINE
8
0
6
CONTINUOUS
10
6.489764
20
6.807060
30
0.0
11
6.428760
21
6.959570
31
0.0
0
LINE
8
0
6
CONTINUOUS
10
5.994390
20
6.785820
30
0.0
11
6.084080
21
6.572806
31
0.0
0
LINE
8
0
6
CONTINUOUS
10
6.084080
20
6.572806
30
0.0
11
6.689390
21
5.135190
31
0.0
0
LINE
8
0
6
CONTINUOUS
10
6.428760
20
6.959570
30
0.0
11
5.212510
21
8.523330
31
0.0
0
LINE
8
0
6
CONTINUOUS
10
4.865010
20
8.175830
30
0.0
11
5.994390
21
6.785820
31
0.0
0
LINE
8
0
6
CONTINUOUS
10
4.778130
20
3.310810
30
0.0
11
4.604370
21
4.527070
31
0.0
0
LINE
8
0
6
CONTINUOUS
10
4.170010
20
4.440190
30
0.0
11
4.343760
21
3.310810
31
0.0
0
LINE
8
0
6
CONTINUOUS
10
4.604370
20
4.527070
30
0.0
11
4.229455
21
5.501888
31
0.0
0
LINE
8
0
6
CONTINUOUS
10
4.229455
20
5.501888
30
0.0
11
4.170010
21
5.656450
31
0.0
0
LINE
8
0
6
CONTINUOUS
10
3.735640
20
5.482690
30
0.0
11
3.824960
21
5.268320
31
0.0
0
LINE
8
0
6
CONTINUOUS
10
3.824960
20
5.268320
30
0.0
11
4.170010
21
4.440190
31
0.0
0
LINE
8
0
6
CONTINUOUS
10
4.170010
20
5.656450
30
0.0
11
3.388130
21
6.698950
31
0.0
0
LINE
8
0
6
CONTINUOUS
10
3.040640
20
6.351450
30
0.0
11
3.735640
21
5.482690
31
0.0
0
LINE
8
0
6
CONTINUOUS
10
2.171880
20
3.310810
30
0.0
11
2.085000
21
3.832070
31
0.0
0
LINE
8
0
6
CONTINUOUS
10
1.650630
20
3.745190
30
0.0
11
1.737490
21
3.310810
31
0.0
0
LINE
8
0
6
CONTINUOUS
10
2.085000
20
3.832070
30
0.0
11
1.964368
21
4.193958
31
0.0
0
LINE
8
0
6
CONTINUOUS
10
1.964368
20
4.193958
30
0.0
11
1.911250
21
4.353310
31
0.0
0
LINE
8
0
6
CONTINUOUS
10
1.476880
20
4.179570
30
0.0
11
1.650630
21
3.745190
31
0.0
0
LINE
8
0
6
CONTINUOUS
10
1.911250
20
4.353310
30
0.0
11
1.563760
21
4.874570
31
0.0
0
LINE
8
0
6
CONTINUOUS
10
1.216250
20
4.527070
30
0.0
11
1.476880
21
4.179570
31
0.0
0
LINE
8
0
6
CONTINUOUS
10
0.000000
20
10.695210
30
0.0
11
-1.911260
21
10.434580
31
0.0
0
LINE
8
0
6
CONTINUOUS
10
-1.824390
20
10.000210
30
0.0
11
0.000000
21
10.260830
31
0.0
0
LINE
8
0
6
CONTINUOUS
10
-1.911260
20
10.434580
30
0.0
11
-3.648760
21
9.739580
31
0.0
0
LINE
8
0
6
CONTINUOUS
10
-3.475000
20
9.305200
30
0.0
11
-1.824390
21
10.000210
31
0.0
0
LINE
8
0
6
CONTINUOUS
10
-3.648760
20
9.739580
30
0.0
11
-3.865470
21
9.571028
31
0.0
0
LINE
8
0
6
CONTINUOUS
10
-3.865470
20
9.571028
30
0.0
11
-5.212510
21
8.523330
31
0.0
0
LINE
8
0
6
CONTINUOUS
10
-4.865010
20
8.175830
30
0.0
11
-3.636324
21
9.174126
31
0.0
0
LINE
8
0
6
CONTINUOUS
10
-3.636324
20
9.174126
30
0.0
11
-3.475000
21
9.305200
31
0.0
0
LINE
8
0
6
CONTINUOUS
10
0.000000
20
8.088950
30
0.0
11
-1.216260
21
7.915200
31
0.0
0
LINE
8
0
6
CONTINUOUS
10
-1.129390
20
7.480820
30
0.0
11
0.000000
21
7.654570
31
0.0
0
LINE
8
0
6
CONTINUOUS
10
-1.216260
20
7.915200
30
0.0
11
-2.345630
21
7.480820
31
0.0
0
LINE
8
0
6
CONTINUOUS
10
-2.171880
20
7.046450
30
0.0
11
-1.129390
21
7.480820
31
0.0
0
LINE
8
0
6
CONTINUOUS
10
-2.345630
20
7.480820
30
0.0
11
-2.564114
21
7.316960
31
0.0
0
LINE
8
0
6
CONTINUOUS
10
-2.564114
20
7.316960
30
0.0
11
-3.388140
21
6.698950
31
0.0
0
LINE
8
0
6
CONTINUOUS
10
-3.040630
20
6.351450
30
0.0
11
-2.333357
21
6.917268
31
0.0
0
LINE
8
0
6
CONTINUOUS
10
-2.333357
20
6.917268
30
0.0
11
-2.171880
21
7.046450
31
0.0
0
LINE
8
0
6
CONTINUOUS
10
0.000000
20
5.482690
30
0.0
11
-0.521250
21
5.395810
31
0.0
0
LINE
8
0
6
CONTINUOUS
10
-0.434390
20
4.961440
30
0.0
11
0.000000
21
5.048310
31
0.0
0
LINE
8
0
6
CONTINUOUS
10
-0.521250
20
5.395810
30
0.0
11
-1.042510
21
5.222070
31
0.0
0
LINE
8
0
6
CONTINUOUS
10
-0.868760
20
4.787690
30
0.0
11
-0.434390
21
4.961440
31
0.0
0
LINE
8
0
6
CONTINUOUS
10
-1.042510
20
5.222070
30
0.0
11
-1.267905
21
5.071807
31
0.0
0
LINE
8
0
6
CONTINUOUS
10
-1.267905
20
5.071807
30
0.0
11
-1.563760
21
4.874570
31
0.0
0
LINE
8
0
6
CONTINUOUS
10
-1.216260
20
4.527070
30
0.0
11
-0.868760
21
4.787690
31
0.0
0
LINE
8
0
6
CONTINUOUS
10
-7.123760
20
5.222070
30
0.0
11
-7.384390
21
3.310810
31
0.0
0
LINE
8
0
6
CONTINUOUS
10
-6.950020
20
3.310810
30
0.0
11
-6.689390
21
5.135190
31
0.0
0
LINE
8
0
6
CONTINUOUS
10
-6.428760
20
6.959570
30
0.0
11
-7.123760
21
5.222070
31
0.0
0
LINE
8
0
6
CONTINUOUS
10
-6.689390
20
5.135190
30
0.0
11
-5.994390
21
6.785820
31
0.0
0
LINE
8
0
6
CONTINUOUS
10
-5.212510
20
8.523330
30
0.0
11
-6.260635
21
7.175732
31
0.0
0
LINE
8
0
6
CONTINUOUS
10
-6.260636
20
7.175731
30
0.0
11
-6.428760
21
6.959570
31
0.0
0
LINE
8
0
6
CONTINUOUS
10
-5.994390
20
6.785820
30
0.0
11
-5.863751
21
6.946607
31
0.0
0
LINE
8
0
6
CONTINUOUS
10
-5.863751
20
6.946607
30
0.0
11
-4.865010
21
8.175830
31
0.0
0
LINE
8
0
6
CONTINUOUS
10
-4.604390
20
4.527070
30
0.0
11
-4.778150
21
3.310810
31
0.0
0
LINE
8
0
6
CONTINUOUS
10
-4.343760
20
3.310810
30
0.0
11
-4.170000
21
4.440190
31
0.0
0
LINE
8
0
6
CONTINUOUS
10
-4.170000
20
5.656450
30
0.0
11
-4.604390
21
4.527070
31
0.0
0
LINE
8
0
6
CONTINUOUS
10
-4.170000
20
4.440190
30
0.0
11
-3.735640
21
5.482690
31
0.0
0
LINE
8
0
6
CONTINUOUS
10
-3.388140
20
6.698950
30
0.0
11
-4.006523
21
5.874424
31
0.0
0
LINE
8
0
6
CONTINUOUS
10
-4.006523
20
5.874424
30
0.0
11
-4.170000
21
5.656450
31
0.0
0
LINE
8
0
6
CONTINUOUS
10
-3.735640
20
5.482690
30
0.0
11
-3.606842
21
5.643687
31
0.0
0
LINE
8
0
6
CONTINUOUS
10
-3.606842
20
5.643687
30
0.0
11
-3.040630
21
6.351450
31
0.0
0
LINE
8
0
6
CONTINUOUS
10
-2.085000
20
3.832070
30
0.0
11
-2.171880
21
3.310810
31
0.0
0
LINE
8
0
6
CONTINUOUS
10
-1.737510
20
3.310810
30
0.0
11
-1.650630
21
3.745190
31
0.0
0
LINE
8
0
6
CONTINUOUS
10
-1.911260
20
4.353310
30
0.0
11
-2.085000
21
3.832070
31
0.0
0
LINE
8
0
6
CONTINUOUS
10
-1.650630
20
3.745190
30
0.0
11
-1.476880
21
4.179570
31
0.0
0
LINE
8
0
6
CONTINUOUS
10
-1.563760
20
4.874570
30
0.0
11
-1.761302
21
4.578251
31
0.0
0
LINE
8
0
6
CONTINUOUS
10
-1.761302
20
4.578251
30
0.0
11
-1.911260
21
4.353310
31
0.0
0
LINE
8
0
6
CONTINUOUS
10
-1.476880
20
4.179570
30
0.0
11
-1.216260
21
4.527070
31
0.0
0
LINE
8
0
6
CONTINUOUS
10
1.801790
20
4.100080
30
0.0
11
7.454351
21
7.364046
31
0.0
0
LINE
8
0
6
CONTINUOUS
10
1.584600
20
4.476240
30
0.0
11
1.801790
21
4.100080
31
0.0
0
LINE
8
0
6
CONTINUOUS
10
7.232422
20
7.736748
30
0.0
11
1.584600
21
4.476240
31
0.0
0
LINE
8
0
6
CONTINUOUS
10
-0.788840
20
5.112260
30
0.0
11
-4.045433
21
10.752983
31
0.0
0
LINE
8
0
6
CONTINUOUS
10
-1.165870
20
4.895070
30
0.0
11
-0.788840
21
5.112260
31
0.0
0
LINE
8
0
6
CONTINUOUS
10
-4.411544
20
10.516878
30
0.0
11
-1.165870
21
4.895070
31
0.0
0
LINE
8
0
6
CONTINUOUS
10
7.454351
20
7.364046
30
0.0
11
1.801790
21
4.100080
31
0.0
0
LINE
8
0
6
CONTINUOUS
10
-1.584600
20
4.476240
30
0.0
11
-7.240417
21
7.741359
31
0.0
0
LINE
8
0
6
CONTINUOUS
10
-1.801800
20
4.100080
30
0.0
11
-1.584600
21
4.476240
31
0.0
0
LINE
8
0
6
CONTINUOUS
10
-7.462302
20
7.368625
30
0.0
11
-1.801800
21
4.100080
31
0.0
0
LINE
8
0
6
CONTINUOUS
10
0.788820
20
1.509370
30
0.0
11
4.286780
21
-4.549228
31
0.0
0
LINE
8
0
6
CONTINUOUS
10
1.165860
20
1.726560
30
0.0
11
0.788820
21
1.509370
31
0.0
0
LINE
8
0
6
CONTINUOUS
10
4.646315
20
-4.301738
30
0.0
11
1.165860
21
1.726560
31
0.0
0
LINE
8
0
6
CONTINUOUS
10
-1.165870
20
1.726560
30
0.0
11
-4.643304
21
-4.296523
31
0.0
0
LINE
8
0
6
CONTINUOUS
10
-0.788840
20
1.509370
30
0.0
11
-1.165870
21
1.726560
31
0.0
0
LINE
8
0
6
CONTINUOUS
10
-4.278523
20
-4.534950
30
0.0
11
-0.788840
21
1.509370
31
0.0
0
LINE
8
0
6
CONTINUOUS
10
4.286780
20
-4.549228
30
0.0
11
0.788820
21
1.509370
31
0.0
0
LINE
8
0
6
CONTINUOUS
10
-1.165870
20
4.895070
30
0.0
11
-4.411544
21
10.516878
31
0.0
0
LINE
8
0
6
CONTINUOUS
10
-0.217180
20
1.356120
30
0.0
11
-0.217180
21
-6.064748
31
0.0
0
LINE
8
0
6
CONTINUOUS
10
0.217180
20
1.356120
30
0.0
11
-0.217180
21
1.356120
31
0.0
0
LINE
8
0
6
CONTINUOUS
10
0.217180
20
-6.054779
30
0.0
11
0.217180
21
1.356120
31
0.0
0
LINE
8
0
6
CONTINUOUS
10
0.217180
20
5.265510
30
0.0
11
0.217180
21
11.757098
31
0.0
0
LINE
8
0
6
CONTINUOUS
10
-0.217180
20
5.265510
30
0.0
11
0.217180
21
5.265510
31
0.0
0
LINE
8
0
6
CONTINUOUS
10
-0.217180
20
11.756506
30
0.0
11
-0.217180
21
5.265510
31
0.0
0
LINE
8
0
6
CONTINUOUS
10
-1.954690
20
3.528000
30
0.0
11
-8.547889
21
3.528000
31
0.0
0
LINE
8
0
6
CONTINUOUS
10
-1.954690
20
3.093630
30
0.0
11
-1.954690
21
3.528000
31
0.0
0
LINE
8
0
6
CONTINUOUS
10
-8.579519
20
3.093630
30
0.0
11
-1.954690
21
3.093630
31
0.0
0
LINE
8
0
6
CONTINUOUS
10
-1.801800
20
2.521550
30
0.0
11
-7.599716
21
-0.825973
31
0.0
0
LINE
8
0
6
CONTINUOUS
10
-1.584600
20
2.145390
30
0.0
11
-1.801800
21
2.521550
31
0.0
0
LINE
8
0
6
CONTINUOUS
10
-7.411598
20
-1.218939
30
0.0
11
-1.584600
21
2.145390
31
0.0
0
LINE
8
0
6
CONTINUOUS
10
1.165860
20
4.895070
30
0.0
11
4.407166
21
10.509289
31
0.0
0
LINE
8
0
6
CONTINUOUS
10
0.788820
20
5.112260
30
0.0
11
1.165860
21
4.895070
31
0.0
0
LINE
8
0
6
CONTINUOUS
10
4.043414
20
10.749497
30
0.0
11
0.788820
21
5.112260
31
0.0
0
LINE
8
0
6
CONTINUOUS
10
1.954700
20
3.093630
30
0.0
11
8.571220
21
3.093630
31
0.0
0
LINE
8
0
6
CONTINUOUS
10
1.954700
20
3.528000
30
0.0
11
1.954700
21
3.093630
31
0.0
0
LINE
8
0
6
CONTINUOUS
10
8.532703
20
3.528000
30
0.0
11
1.954700
21
3.528000
31
0.0
0
LINE
8
0
6
CONTINUOUS
10
1.584600
20
2.145390
30
0.0
11
7.407238
21
-1.216418
31
0.0
0
LINE
8
0
6
CONTINUOUS
10
1.801790
20
2.521550
30
0.0
11
1.584600
21
2.145390
31
0.0
0
LINE
8
0
6
CONTINUOUS
10
7.582076
20
-0.815796
30
0.0
11
1.801790
21
2.521550
31
0.0
0
LINE
8
0
6
CONTINUOUS
10
-7.240417
20
7.741359
30
0.0
11
-1.584600
21
4.476240
31
0.0
0
LINE
8
0
6
CONTINUOUS
10
5.835493
20
9.146313
30
0.0
11
5.253021
21
9.735643
31
0.0
0
LINE
8
0
6
CONTINUOUS
10
6.584387
20
8.398686
30
0.0
11
5.835493
21
9.146313
31
0.0
0
LINE
8
0
6
CONTINUOUS
10
7.185903
20
7.428288
30
0.0
11
6.584387
21
8.398686
31
0.0
0
LINE
8
0
6
CONTINUOUS
10
3.657733
20
10.743147
30
0.0
11
4.096377
21
10.462651
31
0.0
0
LINE
8
0
6
CONTINUOUS
10
4.096377
20
10.462651
30
0.0
11
5.253021
21
9.735643
31
0.0
0
LINE
8
0
6
CONTINUOUS
10
0.217180
20
11.555210
30
0.0
11
1.875332
21
11.368461
31
0.0
0
LINE
8
0
6
CONTINUOUS
10
1.875332
20
11.368461
30
0.0
11
2.122772
21
11.280699
31
0.0
0
LINE
8
0
6
CONTINUOUS
10
2.122772
20
11.280699
30
0.0
11
3.657733
21
10.743147
31
0.0
0
LINE
8
0
6
CONTINUOUS
10
-5.840128
20
9.150948
30
0.0
11
-5.253036
21
9.735646
31
0.0
0
LINE
8
0
6
CONTINUOUS
10
-6.584398
20
8.398689
30
0.0
11
-5.840128
21
9.150948
31
0.0
0
LINE
8
0
6
CONTINUOUS
10
-7.192437
20
7.432325
30
0.0
11
-6.584398
21
8.398689
31
0.0
0
LINE
8
0
6
CONTINUOUS
10
-4.100146
20
10.468733
30
0.0
11
-3.657744
21
10.743144
31
0.0
0
LINE
8
0
6
CONTINUOUS
10
-5.253036
20
9.735646
30
0.0
11
-4.100146
21
10.468733
31
0.0
0
LINE
8
0
6
CONTINUOUS
10
-1.875342
20
11.368457
30
0.0
11
-0.217180
21
11.555134
31
0.0
0
LINE
8
0
6
CONTINUOUS
10
-2.123409
20
11.283155
30
0.0
11
-1.875342
21
11.368457
31
0.0
0
LINE
8
0
6
CONTINUOUS
10
-3.657744
20
10.743144
30
0.0
11
-2.123409
21
11.283155
31
0.0
0
LINE
8
0
6
CONTINUOUS
10
-0.217180
20
11.756506
30
0.0
11
-0.000010
21
11.781021
31
0.0
0
LINE
8
0
6
CONTINUOUS
10
-0.000010
20
11.781021
30
0.0
11
0.217180
21
11.757098
31
0.0
0
LINE
8
0
6
CONTINUOUS
10
0.000010
20
-6.074051
30
0.0
11
0.217180
21
-6.054779
31
0.0
0
LINE
8
0
6
CONTINUOUS
10
0.000010
20
-5.261434
30
0.0
11
0.923684
21
-5.212854
31
0.0
0
ENDSEC
0
EOF
