999
Erzeugt mit innoplus bad 
0
SECTION
2
HEADER
9
$ACADVER
1
AC1009
9
$DWGCODEPAGE
3
ISO8859-1
0
ENDSEC
0
SECTION
2
TABLES
0
TABLE
2
LAYER
70
1
0
LAYER
2
0
70
0
62
7
6
CONTINUOUS
0
ENDTAB
0
ENDSEC
0
SECTION
2
ENTITIES
0
LINE
8
0
6
CONTINUOUS
10
11.500000
20
0.070710
30
0.0
11
11.500000
21
0.429290
31
0.0
0
LINE
8
0
6
CONTINUOUS
10
-11.500000
20
0.429290
30
0.0
11
-11.500000
21
0.070710
31
0.0
0
LINE
8
0
6
CONTINUOUS
10
11.430794
20
0.500000
30
0.0
11
-11.430794
21
0.500000
31
0.0
0
LINE
8
0
6
CONTINUOUS
10
-11.430794
20
0.000000
30
0.0
11
11.430794
21
0.000000
31
0.0
0
LINE
8
0
6
CONTINUOUS
10
-11.500000
20
0.500000
30
0.0
11
-11.500000
21
0.429290
31
0.0
0
LINE
8
0
6
CONTINUOUS
10
-11.430794
20
0.500000
30
0.0
11
-11.500000
21
0.500000
31
0.0
0
LINE
8
0
6
CONTINUOUS
10
11.500000
20
0.500000
30
0.0
11
11.430794
21
0.500000
31
0.0
0
LINE
8
0
6
CONTINUOUS
10
11.500000
20
0.429290
30
0.0
11
11.500000
21
0.500000
31
0.0
0
LINE
8
0
6
CONTINUOUS
10
-11.500000
20
0.000000
30
0.0
11
-11.430794
21
0.000000
31
0.0
0
LINE
8
0
6
CONTINUOUS
10
-11.500000
20
0.070710
30
0.0
11
-11.500000
21
0.000000
31
0.0
0
LINE
8
0
6
CONTINUOUS
10
11.500000
20
0.000000
30
0.0
11
11.500000
21
0.070710
31
0.0
0
LINE
8
0
6
CONTINUOUS
10
11.430794
20
0.000000
30
0.0
11
11.500000
21
0.000000
31
0.0
0
LINE
8
0
6
CONTINUOUS
10
11.010648
20
-0.429290
30
0.0
11
11.010648
21
-0.070710
31
0.0
0
LINE
8
0
6
CONTINUOUS
10
-11.010648
20
-0.070710
30
0.0
11
-11.010648
21
-0.429290
31
0.0
0
LINE
8
0
6
CONTINUOUS
10
-10.941442
20
-0.500000
30
0.0
11
10.941442
21
-0.500000
31
0.0
0
LINE
8
0
6
CONTINUOUS
10
-11.010648
20
0.000000
30
0.0
11
-11.010648
21
-0.070710
31
0.0
0
LINE
8
0
6
CONTINUOUS
10
-11.010648
20
-0.500000
30
0.0
11
-10.941442
21
-0.500000
31
0.0
0
LINE
8
0
6
CONTINUOUS
10
-11.010648
20
-0.429290
30
0.0
11
-11.010648
21
-0.500000
31
0.0
0
LINE
8
0
6
CONTINUOUS
10
11.010648
20
-0.070710
30
0.0
11
11.010648
21
0.000000
31
0.0
0
LINE
8
0
6
CONTINUOUS
10
11.010648
20
-0.500000
30
0.0
11
11.010648
21
-0.429290
31
0.0
0
LINE
8
0
6
CONTINUOUS
10
10.941442
20
-0.500000
30
0.0
11
11.010648
21
-0.500000
31
0.0
0
ENDSEC
0
EOF
