999
Erzeugt mit innoplus bad 
0
SECTION
2
HEADER
9
$ACADVER
1
AC1009
9
$DWGCODEPAGE
3
ISO8859-1
0
ENDSEC
0
SECTION
2
TABLES
0
TABLE
2
LAYER
70
1
0
LAYER
2
0
70
0
62
7
6
CONTINUOUS
0
ENDTAB
0
ENDSEC
0
SECTION
2
ENTITIES
0
LINE
8
0
6
CONTINUOUS
10
55.757160
20
43.616325
30
0.0
11
56.944010
21
44.335755
31
0.0
0
LINE
8
0
6
CONTINUOUS
10
55.317450
20
43.616325
30
0.0
11
55.757160
21
43.616325
31
0.0
0
LINE
8
0
6
CONTINUOUS
10
43.052320
20
44.339475
30
0.0
11
44.232120
21
43.616325
31
0.0
0
LINE
8
0
6
CONTINUOUS
10
44.232120
20
43.616325
30
0.0
11
44.670970
21
43.616325
31
0.0
0
LINE
8
0
6
CONTINUOUS
10
44.670970
20
43.616325
30
0.0
11
45.919740
21
43.616325
31
0.0
0
LINE
8
0
6
CONTINUOUS
10
45.919740
20
43.616325
30
0.0
11
47.788410
21
43.616325
31
0.0
0
LINE
8
0
6
CONTINUOUS
10
47.788410
20
43.616325
30
0.0
11
49.992990
21
43.616325
31
0.0
0
LINE
8
0
6
CONTINUOUS
10
52.198920
20
54.616325
30
0.0
11
49.992990
21
54.616325
31
0.0
0
LINE
8
0
6
CONTINUOUS
10
54.068030
20
43.616325
30
0.0
11
55.317450
21
43.616325
31
0.0
0
LINE
8
0
6
CONTINUOUS
10
52.859990
20
45.616325
30
0.0
11
49.992570
21
45.616325
31
0.0
0
LINE
8
0
6
CONTINUOUS
10
52.198920
20
43.616325
30
0.0
11
54.068030
21
43.616325
31
0.0
0
LINE
8
0
6
CONTINUOUS
10
55.289940
20
45.616325
30
0.0
11
56.916030
21
45.616325
31
0.0
0
LINE
8
0
6
CONTINUOUS
10
56.916030
20
52.616325
30
0.0
11
55.289940
21
52.616325
31
0.0
0
LINE
8
0
6
CONTINUOUS
10
55.757160
20
54.616325
30
0.0
11
55.317450
21
54.616325
31
0.0
0
LINE
8
0
6
CONTINUOUS
10
56.944010
20
53.896895
30
0.0
11
55.757160
21
54.616325
31
0.0
0
LINE
8
0
6
CONTINUOUS
10
44.232120
20
54.616325
30
0.0
11
43.052320
21
53.893185
31
0.0
0
LINE
8
0
6
CONTINUOUS
10
44.670970
20
54.616325
30
0.0
11
44.232120
21
54.616325
31
0.0
0
LINE
8
0
6
CONTINUOUS
10
45.919740
20
54.616325
30
0.0
11
44.670970
21
54.616325
31
0.0
0
LINE
8
0
6
CONTINUOUS
10
47.788410
20
54.616325
30
0.0
11
45.919740
21
54.616325
31
0.0
0
LINE
8
0
6
CONTINUOUS
10
49.992990
20
54.616325
30
0.0
11
47.788410
21
54.616325
31
0.0
0
LINE
8
0
6
CONTINUOUS
10
55.317450
20
54.616325
30
0.0
11
54.068030
21
54.616325
31
0.0
0
LINE
8
0
6
CONTINUOUS
10
49.992570
20
52.616325
30
0.0
11
52.859990
21
52.616325
31
0.0
0
LINE
8
0
6
CONTINUOUS
10
52.654380
20
53.894415
30
0.0
11
49.989590
21
53.893485
31
0.0
0
LINE
8
0
6
CONTINUOUS
10
54.068030
20
54.616325
30
0.0
11
52.198920
21
54.616325
31
0.0
0
LINE
8
0
6
CONTINUOUS
10
49.992570
20
45.616325
30
0.0
11
52.859990
21
45.616325
31
0.0
0
LINE
8
0
6
CONTINUOUS
10
52.859990
20
52.616325
30
0.0
11
49.992570
21
52.616325
31
0.0
0
LINE
8
0
6
CONTINUOUS
10
52.859990
20
45.616325
30
0.0
11
55.289940
21
45.616325
31
0.0
0
LINE
8
0
6
CONTINUOUS
10
52.859990
20
52.616325
30
0.0
11
52.859990
21
51.118135
31
0.0
0
LINE
8
0
6
CONTINUOUS
10
52.859990
20
46.626275
30
0.0
11
52.859990
21
45.616325
31
0.0
0
LINE
8
0
6
CONTINUOUS
10
55.289940
20
52.616325
30
0.0
11
52.859990
21
52.616325
31
0.0
0
LINE
8
0
6
CONTINUOUS
10
49.992570
20
45.616325
30
0.0
11
49.992570
21
46.626275
31
0.0
0
LINE
8
0
6
CONTINUOUS
10
49.992570
20
51.118135
30
0.0
11
49.992570
21
52.616325
31
0.0
0
LINE
8
0
6
CONTINUOUS
10
47.130090
20
45.616325
30
0.0
11
49.992570
21
45.616325
31
0.0
0
LINE
8
0
6
CONTINUOUS
10
49.992570
20
52.616325
30
0.0
11
47.130090
21
52.616325
31
0.0
0
LINE
8
0
6
CONTINUOUS
10
44.705100
20
45.616325
30
0.0
11
47.130090
21
45.616325
31
0.0
0
LINE
8
0
6
CONTINUOUS
10
47.130090
20
52.616325
30
0.0
11
44.705100
21
52.616325
31
0.0
0
LINE
8
0
6
CONTINUOUS
10
43.082970
20
45.616325
30
0.0
11
44.705100
21
45.616325
31
0.0
0
LINE
8
0
6
CONTINUOUS
10
44.705100
20
52.616325
30
0.0
11
43.082970
21
52.616325
31
0.0
0
LINE
8
0
6
CONTINUOUS
10
42.509360
20
45.616325
30
0.0
11
43.082970
21
45.616325
31
0.0
0
LINE
8
0
6
CONTINUOUS
10
42.509360
20
52.616325
30
0.0
11
42.509360
21
51.118135
31
0.0
0
LINE
8
0
6
CONTINUOUS
10
42.509360
20
46.650747
30
0.0
11
42.509360
21
45.616325
31
0.0
0
LINE
8
0
6
CONTINUOUS
10
43.082970
20
52.616325
30
0.0
11
42.509360
21
52.616325
31
0.0
0
LINE
8
0
6
CONTINUOUS
10
57.490460
20
45.616325
30
0.0
11
57.490460
21
46.626275
31
0.0
0
LINE
8
0
6
CONTINUOUS
10
57.490460
20
51.118135
30
0.0
11
57.490460
21
52.616325
31
0.0
0
LINE
8
0
6
CONTINUOUS
10
56.916030
20
45.616325
30
0.0
11
57.490460
21
45.616325
31
0.0
0
LINE
8
0
6
CONTINUOUS
10
57.490460
20
52.616325
30
0.0
11
56.916030
21
52.616325
31
0.0
0
LINE
8
0
6
CONTINUOUS
10
52.654380
20
44.338235
30
0.0
11
54.906320
21
44.337795
31
0.0
0
LINE
8
0
6
CONTINUOUS
10
55.289940
20
45.616325
30
0.0
11
52.859990
21
45.616325
31
0.0
0
LINE
8
0
6
CONTINUOUS
10
47.335580
20
44.340745
30
0.0
11
49.989590
21
44.339165
31
0.0
0
LINE
8
0
6
CONTINUOUS
10
49.992570
20
45.616325
30
0.0
11
47.130090
21
45.616325
31
0.0
0
LINE
8
0
6
CONTINUOUS
10
45.086970
20
44.341325
30
0.0
11
47.335580
21
44.340745
31
0.0
0
LINE
8
0
6
CONTINUOUS
10
47.130090
20
45.616325
30
0.0
11
44.705100
21
45.616325
31
0.0
0
LINE
8
0
6
CONTINUOUS
10
43.583290
20
44.340895
30
0.0
11
45.086970
21
44.341325
31
0.0
0
LINE
8
0
6
CONTINUOUS
10
44.705100
20
45.616325
30
0.0
11
43.082970
21
45.616325
31
0.0
0
LINE
8
0
6
CONTINUOUS
10
43.052320
20
44.339475
30
0.0
11
43.583290
21
44.340895
31
0.0
0
LINE
8
0
6
CONTINUOUS
10
42.509360
20
45.616325
30
0.0
11
43.052320
21
44.339475
31
0.0
0
LINE
8
0
6
CONTINUOUS
10
43.082970
20
45.616325
30
0.0
11
42.509360
21
45.616325
31
0.0
0
LINE
8
0
6
CONTINUOUS
10
56.944010
20
44.335755
30
0.0
11
57.490460
21
45.616325
31
0.0
0
LINE
8
0
6
CONTINUOUS
10
56.412640
20
44.336835
30
0.0
11
56.944010
21
44.335755
31
0.0
0
LINE
8
0
6
CONTINUOUS
10
57.490460
20
45.616325
30
0.0
11
56.916030
21
45.616325
31
0.0
0
LINE
8
0
6
CONTINUOUS
10
54.906320
20
44.337795
30
0.0
11
56.412640
21
44.336835
31
0.0
0
LINE
8
0
6
CONTINUOUS
10
56.916030
20
45.616325
30
0.0
11
55.289940
21
45.616325
31
0.0
0
LINE
8
0
6
CONTINUOUS
10
54.906320
20
53.894855
30
0.0
11
52.654380
21
53.894415
31
0.0
0
LINE
8
0
6
CONTINUOUS
10
52.859990
20
52.616325
30
0.0
11
55.289940
21
52.616325
31
0.0
0
LINE
8
0
6
CONTINUOUS
10
47.130090
20
52.616325
30
0.0
11
49.992570
21
52.616325
31
0.0
0
LINE
8
0
6
CONTINUOUS
10
49.989590
20
53.893485
30
0.0
11
47.335580
21
53.891905
31
0.0
0
LINE
8
0
6
CONTINUOUS
10
47.335580
20
53.891905
30
0.0
11
45.086970
21
53.891325
31
0.0
0
LINE
8
0
6
CONTINUOUS
10
44.705100
20
52.616325
30
0.0
11
47.130090
21
52.616325
31
0.0
0
LINE
8
0
6
CONTINUOUS
10
45.086970
20
53.891325
30
0.0
11
43.583290
21
53.891765
31
0.0
0
LINE
8
0
6
CONTINUOUS
10
43.082970
20
52.616325
30
0.0
11
44.705100
21
52.616325
31
0.0
0
LINE
8
0
6
CONTINUOUS
10
43.052320
20
53.893185
30
0.0
11
42.509360
21
52.616325
31
0.0
0
LINE
8
0
6
CONTINUOUS
10
43.583290
20
53.891765
30
0.0
11
43.052320
21
53.893185
31
0.0
0
LINE
8
0
6
CONTINUOUS
10
42.509360
20
52.616325
30
0.0
11
43.082970
21
52.616325
31
0.0
0
LINE
8
0
6
CONTINUOUS
10
56.944010
20
53.896895
30
0.0
11
56.412640
21
53.895815
31
0.0
0
LINE
8
0
6
CONTINUOUS
10
57.490460
20
52.616325
30
0.0
11
56.944010
21
53.896895
31
0.0
0
LINE
8
0
6
CONTINUOUS
10
56.916030
20
52.616325
30
0.0
11
57.490460
21
52.616325
31
0.0
0
LINE
8
0
6
CONTINUOUS
10
56.412640
20
53.895815
30
0.0
11
54.906320
21
53.894855
31
0.0
0
LINE
8
0
6
CONTINUOUS
10
55.289940
20
52.616325
30
0.0
11
56.916030
21
52.616325
31
0.0
0
LINE
8
0
6
CONTINUOUS
10
52.654380
20
44.338235
30
0.0
11
49.989590
21
44.339165
31
0.0
0
LINE
8
0
6
CONTINUOUS
10
49.992990
20
43.616325
30
0.0
11
52.198920
21
43.616325
31
0.0
0
LINE
8
0
6
CONTINUOUS
10
-55.757180
20
43.616325
30
0.0
11
-55.317470
21
43.616325
31
0.0
0
LINE
8
0
6
CONTINUOUS
10
-56.944030
20
44.335755
30
0.0
11
-55.757180
21
43.616325
31
0.0
0
LINE
8
0
6
CONTINUOUS
10
-44.232140
20
43.616325
30
0.0
11
-43.052340
21
44.339475
31
0.0
0
LINE
8
0
6
CONTINUOUS
10
-44.670990
20
43.616325
30
0.0
11
-44.232140
21
43.616325
31
0.0
0
LINE
8
0
6
CONTINUOUS
10
-45.919760
20
43.616325
30
0.0
11
-44.670990
21
43.616325
31
0.0
0
LINE
8
0
6
CONTINUOUS
10
-47.788430
20
43.616325
30
0.0
11
-45.919760
21
43.616325
31
0.0
0
LINE
8
0
6
CONTINUOUS
10
-49.993010
20
43.616325
30
0.0
11
-47.788430
21
43.616325
31
0.0
0
LINE
8
0
6
CONTINUOUS
10
-49.993010
20
54.616325
30
0.0
11
-52.198940
21
54.616325
31
0.0
0
LINE
8
0
6
CONTINUOUS
10
-55.317470
20
43.616325
30
0.0
11
-54.068050
21
43.616325
31
0.0
0
LINE
8
0
6
CONTINUOUS
10
-49.992590
20
45.616325
30
0.0
11
-52.860010
21
45.616325
31
0.0
0
LINE
8
0
6
CONTINUOUS
10
-54.068050
20
43.616325
30
0.0
11
-52.198940
21
43.616325
31
0.0
0
LINE
8
0
6
CONTINUOUS
10
-56.916050
20
45.616325
30
0.0
11
-55.289960
21
45.616325
31
0.0
0
LINE
8
0
6
CONTINUOUS
10
-55.289960
20
52.616325
30
0.0
11
-56.916050
21
52.616325
31
0.0
0
LINE
8
0
6
CONTINUOUS
10
-55.757180
20
54.616325
30
0.0
11
-56.944030
21
53.896895
31
0.0
0
LINE
8
0
6
CONTINUOUS
10
-55.317470
20
54.616325
30
0.0
11
-55.757180
21
54.616325
31
0.0
0
LINE
8
0
6
CONTINUOUS
10
-43.052340
20
53.893185
30
0.0
11
-44.232140
21
54.616325
31
0.0
0
LINE
8
0
6
CONTINUOUS
10
-44.232140
20
54.616325
30
0.0
11
-44.670990
21
54.616325
31
0.0
0
LINE
8
0
6
CONTINUOUS
10
-44.670990
20
54.616325
30
0.0
11
-45.919760
21
54.616325
31
0.0
0
LINE
8
0
6
CONTINUOUS
10
-45.919760
20
54.616325
30
0.0
11
-47.788430
21
54.616325
31
0.0
0
LINE
8
0
6
CONTINUOUS
10
-47.788430
20
54.616325
30
0.0
11
-49.993010
21
54.616325
31
0.0
0
LINE
8
0
6
CONTINUOUS
10
-54.068050
20
54.616325
30
0.0
11
-55.317470
21
54.616325
31
0.0
0
LINE
8
0
6
CONTINUOUS
10
-52.860010
20
52.616325
30
0.0
11
-49.992590
21
52.616325
31
0.0
0
LINE
8
0
6
CONTINUOUS
10
-49.989610
20
53.893485
30
0.0
11
-52.654400
21
53.894415
31
0.0
0
LINE
8
0
6
CONTINUOUS
10
-52.198940
20
54.616325
30
0.0
11
-54.068050
21
54.616325
31
0.0
0
LINE
8
0
6
CONTINUOUS
10
-52.860010
20
45.616325
30
0.0
11
-49.992590
21
45.616325
31
0.0
0
LINE
8
0
6
CONTINUOUS
10
-49.992590
20
52.616325
30
0.0
11
-52.860010
21
52.616325
31
0.0
0
LINE
8
0
6
CONTINUOUS
10
-55.289960
20
45.616325
30
0.0
11
-52.860010
21
45.616325
31
0.0
0
LINE
8
0
6
CONTINUOUS
10
-52.860010
20
52.616325
30
0.0
11
-55.289960
21
52.616325
31
0.0
0
LINE
8
0
6
CONTINUOUS
10
-52.860010
20
45.616325
30
0.0
11
-52.860010
21
46.626275
31
0.0
0
LINE
8
0
6
CONTINUOUS
10
-52.860010
20
51.118135
30
0.0
11
-52.860010
21
52.616325
31
0.0
0
LINE
8
0
6
CONTINUOUS
10
-49.992590
20
45.616325
30
0.0
11
-47.130110
21
45.616325
31
0.0
0
LINE
8
0
6
CONTINUOUS
10
-49.992590
20
52.616325
30
0.0
11
-49.992590
21
51.118135
31
0.0
0
LINE
8
0
6
CONTINUOUS
10
-49.992590
20
46.626275
30
0.0
11
-49.992590
21
45.616325
31
0.0
0
LINE
8
0
6
CONTINUOUS
10
-47.130110
20
52.616325
30
0.0
11
-49.992590
21
52.616325
31
0.0
0
LINE
8
0
6
CONTINUOUS
10
-47.130110
20
45.616325
30
0.0
11
-44.705120
21
45.616325
31
0.0
0
LINE
8
0
6
CONTINUOUS
10
-44.705120
20
52.616325
30
0.0
11
-47.130110
21
52.616325
31
0.0
0
LINE
8
0
6
CONTINUOUS
10
-44.705120
20
45.616325
30
0.0
11
-43.082990
21
45.616325
31
0.0
0
LINE
8
0
6
CONTINUOUS
10
-43.082990
20
52.616325
30
0.0
11
-44.705120
21
52.616325
31
0.0
0
LINE
8
0
6
CONTINUOUS
10
-43.082990
20
45.616325
30
0.0
11
-42.509380
21
45.616325
31
0.0
0
LINE
8
0
6
CONTINUOUS
10
-42.509380
20
52.616325
30
0.0
11
-43.082990
21
52.616325
31
0.0
0
LINE
8
0
6
CONTINUOUS
10
-42.509380
20
45.616325
30
0.0
11
-42.509380
21
46.626275
31
0.0
0
LINE
8
0
6
CONTINUOUS
10
-42.509380
20
51.118135
30
0.0
11
-42.509380
21
52.616325
31
0.0
0
LINE
8
0
6
CONTINUOUS
10
-57.490480
20
45.616325
30
0.0
11
-56.916050
21
45.616325
31
0.0
0
LINE
8
0
6
CONTINUOUS
10
-57.490480
20
52.616325
30
0.0
11
-57.490480
21
51.118135
31
0.0
0
LINE
8
0
6
CONTINUOUS
10
-57.490480
20
46.626275
30
0.0
11
-57.490480
21
45.616325
31
0.0
0
LINE
8
0
6
CONTINUOUS
10
-56.916050
20
52.616325
30
0.0
11
-57.490480
21
52.616325
31
0.0
0
LINE
8
0
6
CONTINUOUS
10
-54.906340
20
44.337795
30
0.0
11
-52.654400
21
44.338235
31
0.0
0
LINE
8
0
6
CONTINUOUS
10
-52.860010
20
45.616325
30
0.0
11
-55.289960
21
45.616325
31
0.0
0
LINE
8
0
6
CONTINUOUS
10
-49.989610
20
44.339165
30
0.0
11
-47.335600
21
44.340745
31
0.0
0
LINE
8
0
6
CONTINUOUS
10
-47.130110
20
45.616325
30
0.0
11
-49.992590
21
45.616325
31
0.0
0
LINE
8
0
6
CONTINUOUS
10
-47.335600
20
44.340745
30
0.0
11
-45.086990
21
44.341325
31
0.0
0
LINE
8
0
6
CONTINUOUS
10
-44.705120
20
45.616325
30
0.0
11
-47.130110
21
45.616325
31
0.0
0
LINE
8
0
6
CONTINUOUS
10
-45.086990
20
44.341325
30
0.0
11
-43.583310
21
44.340895
31
0.0
0
LINE
8
0
6
CONTINUOUS
10
-43.082990
20
45.616325
30
0.0
11
-44.705120
21
45.616325
31
0.0
0
LINE
8
0
6
CONTINUOUS
10
-43.583310
20
44.340895
30
0.0
11
-43.052340
21
44.339475
31
0.0
0
LINE
8
0
6
CONTINUOUS
10
-42.509380
20
45.616325
30
0.0
11
-43.082990
21
45.616325
31
0.0
0
LINE
8
0
6
CONTINUOUS
10
-43.052340
20
44.339475
30
0.0
11
-42.509380
21
45.616325
31
0.0
0
LINE
8
0
6
CONTINUOUS
10
-56.944030
20
44.335755
30
0.0
11
-56.412660
21
44.336835
31
0.0
0
LINE
8
0
6
CONTINUOUS
10
-57.490480
20
45.616325
30
0.0
11
-56.944030
21
44.335755
31
0.0
0
LINE
8
0
6
CONTINUOUS
10
-56.916050
20
45.616325
30
0.0
11
-57.490480
21
45.616325
31
0.0
0
LINE
8
0
6
CONTINUOUS
10
-56.412660
20
44.336835
30
0.0
11
-54.906340
21
44.337795
31
0.0
0
LINE
8
0
6
CONTINUOUS
10
-55.289960
20
45.616325
30
0.0
11
-56.916050
21
45.616325
31
0.0
0
LINE
8
0
6
CONTINUOUS
10
-52.654400
20
53.894415
30
0.0
11
-54.906340
21
53.894855
31
0.0
0
LINE
8
0
6
CONTINUOUS
10
-55.289960
20
52.616325
30
0.0
11
-52.860010
21
52.616325
31
0.0
0
LINE
8
0
6
CONTINUOUS
10
-49.992590
20
52.616325
30
0.0
11
-47.130110
21
52.616325
31
0.0
0
LINE
8
0
6
CONTINUOUS
10
-47.335600
20
53.891905
30
0.0
11
-49.989610
21
53.893485
31
0.0
0
LINE
8
0
6
CONTINUOUS
10
-45.086990
20
53.891325
30
0.0
11
-47.335600
21
53.891905
31
0.0
0
LINE
8
0
6
CONTINUOUS
10
-47.130110
20
52.616325
30
0.0
11
-44.705120
21
52.616325
31
0.0
0
LINE
8
0
6
CONTINUOUS
10
-43.583310
20
53.891765
30
0.0
11
-45.086990
21
53.891325
31
0.0
0
LINE
8
0
6
CONTINUOUS
10
-44.705120
20
52.616325
30
0.0
11
-43.082990
21
52.616325
31
0.0
0
LINE
8
0
6
CONTINUOUS
10
-43.052340
20
53.893185
30
0.0
11
-43.583310
21
53.891765
31
0.0
0
LINE
8
0
6
CONTINUOUS
10
-42.509380
20
52.616325
30
0.0
11
-43.052340
21
53.893185
31
0.0
0
LINE
8
0
6
CONTINUOUS
10
-43.082990
20
52.616325
30
0.0
11
-42.509380
21
52.616325
31
0.0
0
LINE
8
0
6
CONTINUOUS
10
-56.412660
20
53.895815
30
0.0
11
-56.944030
21
53.896895
31
0.0
0
LINE
8
0
6
CONTINUOUS
10
-57.490480
20
52.616325
30
0.0
11
-56.916050
21
52.616325
31
0.0
0
LINE
8
0
6
CONTINUOUS
10
-56.944030
20
53.896895
30
0.0
11
-57.490480
21
52.616325
31
0.0
0
LINE
8
0
6
CONTINUOUS
10
-54.906340
20
53.894855
30
0.0
11
-56.412660
21
53.895815
31
0.0
0
LINE
8
0
6
CONTINUOUS
10
-56.916050
20
52.616325
30
0.0
11
-55.289960
21
52.616325
31
0.0
0
LINE
8
0
6
CONTINUOUS
10
-49.989610
20
44.339165
30
0.0
11
-52.654400
21
44.338235
31
0.0
0
LINE
8
0
6
CONTINUOUS
10
-52.198940
20
43.616325
30
0.0
11
-49.993010
21
43.616325
31
0.0
0
LINE
8
0
6
CONTINUOUS
10
55.757160
20
54.616325
30
0.0
11
55.322260
21
54.616325
31
0.0
0
LINE
8
0
6
CONTINUOUS
10
55.322260
20
54.616325
30
0.0
11
54.073890
21
54.616325
31
0.0
0
LINE
8
0
6
CONTINUOUS
10
54.073890
20
54.616325
30
0.0
11
52.201930
21
54.616325
31
0.0
0
LINE
8
0
6
CONTINUOUS
10
52.201930
20
54.616325
30
0.0
11
49.993520
21
54.616325
31
0.0
0
LINE
8
0
6
CONTINUOUS
10
49.993520
20
54.616325
30
0.0
11
47.785130
21
54.616325
31
0.0
0
LINE
8
0
6
CONTINUOUS
10
47.785130
20
54.616325
30
0.0
11
45.917090
21
54.616325
31
0.0
0
LINE
8
0
6
CONTINUOUS
10
45.917090
20
54.616325
30
0.0
11
44.669680
21
54.616325
31
0.0
0
LINE
8
0
6
CONTINUOUS
10
44.669680
20
54.616325
30
0.0
11
44.232120
21
54.616325
31
0.0
0
LINE
8
0
6
CONTINUOUS
10
-55.322280
20
54.616325
30
0.0
11
-55.757180
21
54.616325
31
0.0
0
LINE
8
0
6
CONTINUOUS
10
-54.073910
20
54.616325
30
0.0
11
-55.322280
21
54.616325
31
0.0
0
LINE
8
0
6
CONTINUOUS
10
-52.201950
20
54.616325
30
0.0
11
-54.073910
21
54.616325
31
0.0
0
LINE
8
0
6
CONTINUOUS
10
-49.993540
20
54.616325
30
0.0
11
-52.201950
21
54.616325
31
0.0
0
LINE
8
0
6
CONTINUOUS
10
-47.785150
20
54.616325
30
0.0
11
-49.993540
21
54.616325
31
0.0
0
LINE
8
0
6
CONTINUOUS
10
-45.917110
20
54.616325
30
0.0
11
-47.785150
21
54.616325
31
0.0
0
LINE
8
0
6
CONTINUOUS
10
-44.669700
20
54.616325
30
0.0
11
-45.917110
21
54.616325
31
0.0
0
LINE
8
0
6
CONTINUOUS
10
-44.232140
20
54.616325
30
0.0
11
-44.669700
21
54.616325
31
0.0
0
LINE
8
0
6
CONTINUOUS
10
42.977760
20
25.118135
30
0.0
11
42.977760
21
44.514814
31
0.0
0
LINE
8
0
6
CONTINUOUS
10
42.715120
20
25.139155
30
0.0
11
42.977760
21
25.118135
31
0.0
0
LINE
8
0
6
CONTINUOUS
10
-42.977780
20
25.118135
30
0.0
11
-42.715140
21
25.139155
31
0.0
0
LINE
8
0
6
CONTINUOUS
10
-42.977780
20
44.514814
30
0.0
11
-42.977780
21
25.118135
31
0.0
0
LINE
8
0
6
CONTINUOUS
10
39.999990
20
25.171111
30
0.0
11
41.163670
21
25.165185
31
0.0
0
LINE
8
0
6
CONTINUOUS
10
-41.163690
20
25.165185
30
0.0
11
-40.000010
21
25.171111
31
0.0
0
LINE
8
0
6
CONTINUOUS
10
-42.715140
20
25.139155
30
0.0
11
-41.163690
21
25.165185
31
0.0
0
LINE
8
0
6
CONTINUOUS
10
41.163670
20
25.165185
30
0.0
11
42.715120
21
25.139155
31
0.0
0
LINE
8
0
6
CONTINUOUS
10
-42.977780
20
25.118135
30
0.0
11
-40.000010
21
25.118135
31
0.0
0
LINE
8
0
6
CONTINUOUS
10
39.999990
20
25.118135
30
0.0
11
42.977760
21
25.118135
31
0.0
0
LINE
8
0
6
CONTINUOUS
10
41.163670
20
25.165185
30
0.0
11
39.999990
21
25.171111
31
0.0
0
LINE
8
0
6
CONTINUOUS
10
42.715120
20
25.139155
30
0.0
11
41.163670
21
25.165185
31
0.0
0
LINE
8
0
6
CONTINUOUS
10
-42.715140
20
25.139155
30
0.0
11
-42.977780
21
25.118135
31
0.0
0
LINE
8
0
6
CONTINUOUS
10
-41.163690
20
25.165185
30
0.0
11
-42.715140
21
25.139155
31
0.0
0
LINE
8
0
6
CONTINUOUS
10
-40.000010
20
25.171111
30
0.0
11
-41.163690
21
25.165185
31
0.0
0
LINE
8
0
6
CONTINUOUS
10
13.897250
20
43.905075
30
0.0
11
14.208240
21
46.626275
31
0.0
0
LINE
8
0
6
CONTINUOUS
10
6.703910
20
45.529505
30
0.0
11
8.759140
21
42.459215
31
0.0
0
LINE
8
0
6
CONTINUOUS
10
-63.500010
20
43.905075
30
0.0
11
-63.499990
21
38.837555
31
0.0
0
LINE
8
0
6
CONTINUOUS
10
-61.122660
20
33.750095
30
0.0
11
-42.977780
21
33.750095
31
0.0
0
LINE
8
0
6
CONTINUOUS
10
-61.122660
20
25.543365
30
0.0
11
-42.977780
21
25.543365
31
0.0
0
LINE
8
0
6
CONTINUOUS
10
13.318120
20
38.837555
30
0.0
11
13.897250
21
43.905075
31
0.0
0
LINE
8
0
6
CONTINUOUS
10
8.759140
20
42.459215
30
0.0
11
9.480830
21
38.837545
31
0.0
0
LINE
8
0
6
CONTINUOUS
10
-8.759480
20
42.459205
30
0.0
11
-6.704260
21
45.529505
31
0.0
0
LINE
8
0
6
CONTINUOUS
10
-14.208590
20
46.626275
30
0.0
11
-13.897600
21
43.905075
31
0.0
0
LINE
8
0
6
CONTINUOUS
10
-9.481180
20
38.837545
30
0.0
11
-8.759480
21
42.459205
31
0.0
0
LINE
8
0
6
CONTINUOUS
10
-13.897600
20
43.905075
30
0.0
11
-13.318470
21
38.837555
31
0.0
0
LINE
8
0
6
CONTINUOUS
10
-8.759480
20
35.215895
30
0.0
11
-9.481180
21
38.837545
31
0.0
0
LINE
8
0
6
CONTINUOUS
10
-13.318470
20
38.837555
30
0.0
11
-12.304670
21
33.750095
31
0.0
0
LINE
8
0
6
CONTINUOUS
10
-6.704260
20
32.145595
30
0.0
11
-8.759480
21
35.215895
31
0.0
0
LINE
8
0
6
CONTINUOUS
10
-12.304670
20
33.750095
30
0.0
11
-9.417630
21
29.437135
31
0.0
0
LINE
8
0
6
CONTINUOUS
10
-3.628400
20
30.094095
30
0.0
11
-6.704260
21
32.145595
31
0.0
0
LINE
8
0
6
CONTINUOUS
10
-9.417630
20
29.437135
30
0.0
11
-5.096860
21
26.555325
31
0.0
0
LINE
8
0
6
CONTINUOUS
10
-0.000170
20
29.373695
30
0.0
11
-3.628400
21
30.094095
31
0.0
0
LINE
8
0
6
CONTINUOUS
10
-5.096860
20
26.555325
30
0.0
11
-0.000170
21
25.543365
31
0.0
0
LINE
8
0
6
CONTINUOUS
10
3.628050
20
30.094085
30
0.0
11
-0.000170
21
29.373695
31
0.0
0
LINE
8
0
6
CONTINUOUS
10
-0.000170
20
25.543365
30
0.0
11
5.096520
21
26.555325
31
0.0
0
LINE
8
0
6
CONTINUOUS
10
6.703910
20
32.145595
30
0.0
11
3.628050
21
30.094085
31
0.0
0
LINE
8
0
6
CONTINUOUS
10
5.096520
20
26.555325
30
0.0
11
9.417280
21
29.437135
31
0.0
0
LINE
8
0
6
CONTINUOUS
10
8.759140
20
35.215885
30
0.0
11
6.703910
21
32.145595
31
0.0
0
LINE
8
0
6
CONTINUOUS
10
9.417280
20
29.437135
30
0.0
11
12.304330
21
33.750095
31
0.0
0
LINE
8
0
6
CONTINUOUS
10
61.039000
20
46.626275
30
0.0
11
61.039000
21
51.118135
31
0.0
0
LINE
8
0
6
CONTINUOUS
10
60.960230
20
46.626275
30
0.0
11
61.039000
21
46.626275
31
0.0
0
LINE
8
0
6
CONTINUOUS
10
61.039000
20
51.118135
30
0.0
11
60.960190
21
51.118135
31
0.0
0
LINE
8
0
6
CONTINUOUS
10
9.480830
20
38.837545
30
0.0
11
8.759140
21
35.215885
31
0.0
0
LINE
8
0
6
CONTINUOUS
10
12.304330
20
33.750095
30
0.0
11
13.318120
21
38.837555
31
0.0
0
LINE
8
0
6
CONTINUOUS
10
40.488770
20
46.626275
30
0.0
11
44.845610
21
46.626275
31
0.0
0
LINE
8
0
6
CONTINUOUS
10
44.845760
20
51.118135
30
0.0
11
40.488770
21
51.118135
31
0.0
0
LINE
8
0
6
CONTINUOUS
10
44.845610
20
46.626275
30
0.0
11
48.897340
21
46.626275
31
0.0
0
LINE
8
0
6
CONTINUOUS
10
48.897520
20
51.118135
30
0.0
11
44.845760
21
51.118135
31
0.0
0
LINE
8
0
6
CONTINUOUS
10
48.897340
20
46.626275
30
0.0
11
52.465650
21
46.626275
31
0.0
0
LINE
8
0
6
CONTINUOUS
10
52.465960
20
51.118135
30
0.0
11
48.897520
21
51.118135
31
0.0
0
LINE
8
0
6
CONTINUOUS
10
-49.955740
20
51.118135
30
0.0
11
-52.845950
21
51.118135
31
0.0
0
LINE
8
0
6
CONTINUOUS
10
-52.845950
20
46.626275
30
0.0
11
-49.955740
21
46.626275
31
0.0
0
LINE
8
0
6
CONTINUOUS
10
52.465650
20
46.626275
30
0.0
11
55.508650
21
46.626275
31
0.0
0
LINE
8
0
6
CONTINUOUS
10
55.508730
20
51.118135
30
0.0
11
52.465960
21
51.118135
31
0.0
0
LINE
8
0
6
CONTINUOUS
10
55.508650
20
46.626275
30
0.0
11
58.001210
21
46.626275
31
0.0
0
LINE
8
0
6
CONTINUOUS
10
58.001460
20
51.118135
30
0.0
11
55.508730
21
51.118135
31
0.0
0
LINE
8
0
6
CONTINUOUS
10
58.001210
20
46.626275
30
0.0
11
59.873660
21
46.626275
31
0.0
0
LINE
8
0
6
CONTINUOUS
10
59.874230
20
51.118135
30
0.0
11
58.001460
21
51.118135
31
0.0
0
LINE
8
0
6
CONTINUOUS
10
59.873660
20
46.626275
30
0.0
11
60.960230
21
46.626275
31
0.0
0
LINE
8
0
6
CONTINUOUS
10
60.960190
20
51.118135
30
0.0
11
59.874230
21
51.118135
31
0.0
0
LINE
8
0
6
CONTINUOUS
10
63.500010
20
51.118125
30
0.0
11
61.039000
21
51.118135
31
0.0
0
LINE
8
0
6
CONTINUOUS
10
63.500010
20
46.626265
30
0.0
11
63.500010
21
51.118125
31
0.0
0
LINE
8
0
6
CONTINUOUS
10
61.039000
20
46.626275
30
0.0
11
63.500010
21
46.626265
31
0.0
0
LINE
8
0
6
CONTINUOUS
10
42.977760
20
25.543365
30
0.0
11
61.038980
21
25.543365
31
0.0
0
LINE
8
0
6
CONTINUOUS
10
42.977760
20
33.750095
30
0.0
11
61.038980
21
33.750095
31
0.0
0
LINE
8
0
6
CONTINUOUS
10
63.500010
20
46.626265
30
0.0
11
61.039000
21
46.626275
31
0.0
0
LINE
8
0
6
CONTINUOUS
10
63.500000
20
43.905065
30
0.0
11
63.500010
21
46.626265
31
0.0
0
LINE
8
0
6
CONTINUOUS
10
63.499980
20
33.750075
30
0.0
11
63.499980
21
38.837545
31
0.0
0
LINE
8
0
6
CONTINUOUS
10
63.499980
20
38.837545
30
0.0
11
63.500000
21
43.905065
31
0.0
0
LINE
8
0
6
CONTINUOUS
10
63.499980
20
26.555315
30
0.0
11
63.499980
21
29.437125
31
0.0
0
LINE
8
0
6
CONTINUOUS
10
63.499980
20
33.750075
30
0.0
11
61.038980
21
33.750095
31
0.0
0
LINE
8
0
6
CONTINUOUS
10
63.499980
20
29.437125
30
0.0
11
63.499980
21
33.750075
31
0.0
0
LINE
8
0
6
CONTINUOUS
10
63.499980
20
25.543355
30
0.0
11
63.499980
21
26.555315
31
0.0
0
LINE
8
0
6
CONTINUOUS
10
61.038980
20
25.543365
30
0.0
11
63.499980
21
25.543355
31
0.0
0
LINE
8
0
6
CONTINUOUS
10
14.208240
20
46.626275
30
0.0
11
40.488770
21
46.626275
31
0.0
0
LINE
8
0
6
CONTINUOUS
10
40.488770
20
51.118135
30
0.0
11
14.208240
21
51.118135
31
0.0
0
LINE
8
0
6
CONTINUOUS
10
40.488770
20
46.626275
30
0.0
11
40.488770
21
51.118135
31
0.0
0
LINE
8
0
6
CONTINUOUS
10
-14.208590
20
51.118135
30
0.0
11
-14.208590
21
46.626285
31
0.0
0
LINE
8
0
6
CONTINUOUS
10
-6.704260
20
45.529505
30
0.0
11
-3.628400
21
47.581005
31
0.0
0
LINE
8
0
6
CONTINUOUS
10
-3.628400
20
47.581005
30
0.0
11
-0.000170
21
48.301405
31
0.0
0
LINE
8
0
6
CONTINUOUS
10
-0.000170
20
51.118135
30
0.0
11
-14.208590
21
51.118135
31
0.0
0
LINE
8
0
6
CONTINUOUS
10
14.208240
20
51.118135
30
0.0
11
-0.000170
21
51.118135
31
0.0
0
LINE
8
0
6
CONTINUOUS
10
-0.000170
20
48.301405
30
0.0
11
3.628050
21
47.581005
31
0.0
0
LINE
8
0
6
CONTINUOUS
10
3.628050
20
47.581005
30
0.0
11
6.703910
21
45.529505
31
0.0
0
LINE
8
0
6
CONTINUOUS
10
-63.499990
20
38.837555
30
0.0
11
-63.499990
21
33.750085
31
0.0
0
LINE
8
0
6
CONTINUOUS
10
-63.499990
20
29.437135
30
0.0
11
-63.499990
21
26.555325
31
0.0
0
LINE
8
0
6
CONTINUOUS
10
-63.499990
20
25.543365
30
0.0
11
-61.122660
21
25.543365
31
0.0
0
LINE
8
0
6
CONTINUOUS
10
-63.499990
20
26.555325
30
0.0
11
-63.499990
21
25.543365
31
0.0
0
LINE
8
0
6
CONTINUOUS
10
-63.500010
20
46.626275
30
0.0
11
-63.500010
21
43.905075
31
0.0
0
LINE
8
0
6
CONTINUOUS
10
-61.122680
20
46.626275
30
0.0
11
-63.500010
21
46.626275
31
0.0
0
LINE
8
0
6
CONTINUOUS
10
-63.499990
20
33.750085
30
0.0
11
-63.499990
21
29.437135
31
0.0
0
LINE
8
0
6
CONTINUOUS
10
-61.122660
20
33.750095
30
0.0
11
-63.499990
21
33.750085
31
0.0
0
LINE
8
0
6
CONTINUOUS
10
-44.372250
20
51.118135
30
0.0
11
-47.065510
21
51.118135
31
0.0
0
LINE
8
0
6
CONTINUOUS
10
-47.065510
20
46.626275
30
0.0
11
-44.372250
21
46.626275
31
0.0
0
LINE
8
0
6
CONTINUOUS
10
-47.065510
20
51.118135
30
0.0
11
-49.955740
21
51.118135
31
0.0
0
LINE
8
0
6
CONTINUOUS
10
-49.955740
20
46.626275
30
0.0
11
-47.065510
21
46.626275
31
0.0
0
LINE
8
0
6
CONTINUOUS
10
-52.845950
20
51.118135
30
0.0
11
-55.539210
21
51.118135
31
0.0
0
LINE
8
0
6
CONTINUOUS
10
-55.539210
20
46.626275
30
0.0
11
-52.845950
21
46.626275
31
0.0
0
LINE
8
0
6
CONTINUOUS
10
-41.282220
20
51.118135
30
0.0
11
-44.372250
21
51.118135
31
0.0
0
LINE
8
0
6
CONTINUOUS
10
-44.372250
20
46.626275
30
0.0
11
-41.282220
21
46.626275
31
0.0
0
LINE
8
0
6
CONTINUOUS
10
-55.539210
20
51.118135
30
0.0
11
-57.851950
21
51.118135
31
0.0
0
LINE
8
0
6
CONTINUOUS
10
-57.851950
20
46.626275
30
0.0
11
-55.539210
21
46.626275
31
0.0
0
LINE
8
0
6
CONTINUOUS
10
-59.626590
20
51.118135
30
0.0
11
-60.742170
21
51.118135
31
0.0
0
LINE
8
0
6
CONTINUOUS
10
-60.742170
20
46.626275
30
0.0
11
-59.626590
21
46.626275
31
0.0
0
LINE
8
0
6
CONTINUOUS
10
-60.742170
20
51.118135
30
0.0
11
-61.122680
21
51.118135
31
0.0
0
LINE
8
0
6
CONTINUOUS
10
-61.122680
20
46.626275
30
0.0
11
-60.742170
21
46.626275
31
0.0
0
LINE
8
0
6
CONTINUOUS
10
-61.122680
20
51.118135
30
0.0
11
-61.122680
21
46.626275
31
0.0
0
LINE
8
0
6
CONTINUOUS
10
-14.208590
20
51.118135
30
0.0
11
-41.282220
21
51.118135
31
0.0
0
LINE
8
0
6
CONTINUOUS
10
-41.282220
20
46.626275
30
0.0
11
-14.208590
21
46.626275
31
0.0
0
LINE
8
0
6
CONTINUOUS
10
-57.851950
20
51.118135
30
0.0
11
-59.626590
21
51.118135
31
0.0
0
LINE
8
0
6
CONTINUOUS
10
-59.626590
20
46.626275
30
0.0
11
-57.851950
21
46.626275
31
0.0
0
LINE
8
0
6
CONTINUOUS
10
-63.500010
20
46.626275
30
0.0
11
-61.122680
21
46.626275
31
0.0
0
LINE
8
0
6
CONTINUOUS
10
-63.500010
20
51.118135
30
0.0
11
-63.500010
21
46.626275
31
0.0
0
LINE
8
0
6
CONTINUOUS
10
-61.122680
20
51.118135
30
0.0
11
-63.500010
21
51.118135
31
0.0
0
LINE
8
0
6
CONTINUOUS
10
-20.745230
20
25.383655
30
0.0
11
-27.827080
21
25.383655
31
0.0
0
LINE
8
0
6
CONTINUOUS
10
-27.827080
20
-54.616325
30
0.0
11
-20.745230
21
-54.616325
31
0.0
0
LINE
8
0
6
CONTINUOUS
10
39.999990
20
25.383655
30
0.0
11
38.175790
21
25.383655
31
0.0
0
LINE
8
0
6
CONTINUOUS
10
39.999990
20
-54.616325
30
0.0
11
39.999990
21
25.383655
31
0.0
0
LINE
8
0
6
CONTINUOUS
10
38.175790
20
-54.616325
30
0.0
11
39.999990
21
-54.616325
31
0.0
0
LINE
8
0
6
CONTINUOUS
10
-27.827080
20
25.383655
30
0.0
11
-33.920400
21
25.383655
31
0.0
0
LINE
8
0
6
CONTINUOUS
10
-33.920400
20
-54.616325
30
0.0
11
-27.827080
21
-54.616325
31
0.0
0
LINE
8
0
6
CONTINUOUS
10
20.744580
20
25.383655
30
0.0
11
-20.745230
21
25.383655
31
0.0
0
LINE
8
0
6
CONTINUOUS
10
-20.745230
20
-54.616325
30
0.0
11
20.744580
21
-54.616325
31
0.0
0
LINE
8
0
6
CONTINUOUS
10
38.175790
20
25.383655
30
0.0
11
33.920310
21
25.383655
31
0.0
0
LINE
8
0
6
CONTINUOUS
10
33.920310
20
-54.616325
30
0.0
11
38.175790
21
-54.616325
31
0.0
0
LINE
8
0
6
CONTINUOUS
10
-33.920400
20
25.383655
30
0.0
11
-38.175810
21
25.383655
31
0.0
0
LINE
8
0
6
CONTINUOUS
10
-38.175810
20
-54.616325
30
0.0
11
-33.920400
21
-54.616325
31
0.0
0
LINE
8
0
6
CONTINUOUS
10
-38.175810
20
25.383655
30
0.0
11
-40.000010
21
25.383655
31
0.0
0
LINE
8
0
6
CONTINUOUS
10
-40.000010
20
-54.616325
30
0.0
11
-38.175810
21
-54.616325
31
0.0
0
LINE
8
0
6
CONTINUOUS
10
-40.000010
20
25.383655
30
0.0
11
-40.000010
21
-54.616325
31
0.0
0
LINE
8
0
6
CONTINUOUS
10
33.920310
20
25.383655
30
0.0
11
27.827060
21
25.383655
31
0.0
0
LINE
8
0
6
CONTINUOUS
10
27.827060
20
-54.616325
30
0.0
11
33.920310
21
-54.616325
31
0.0
0
LINE
8
0
6
CONTINUOUS
10
27.827060
20
25.383655
30
0.0
11
20.744580
21
25.383655
31
0.0
0
LINE
8
0
6
CONTINUOUS
10
20.744580
20
-54.616325
30
0.0
11
27.827060
21
-54.616325
31
0.0
0
ENDSEC
0
EOF
