999
Erzeugt mit innoplus bad 
0
SECTION
2
HEADER
9
$ACADVER
1
AC1009
9
$DWGCODEPAGE
3
ISO8859-1
0
ENDSEC
0
SECTION
2
TABLES
0
TABLE
2
LAYER
70
1
0
LAYER
2
0
70
0
62
7
6
CONTINUOUS
0
ENDTAB
0
ENDSEC
0
SECTION
2
ENTITIES
0
LINE
8
0
6
CONTINUOUS
10
60.017935
20
0.971855
30
0.0
11
60.014905
21
1.676565
31
0.0
0
LINE
8
0
6
CONTINUOUS
10
42.110635
20
-0.653475
30
0.0
11
46.588725
21
-0.597065
31
0.0
0
LINE
8
0
6
CONTINUOUS
10
46.588725
20
-0.597065
30
0.0
11
50.781135
21
-0.431485
31
0.0
0
LINE
8
0
6
CONTINUOUS
10
50.781135
20
-0.431485
30
0.0
11
54.418675
21
-0.164985
31
0.0
0
LINE
8
0
6
CONTINUOUS
10
54.418675
20
-0.164985
30
0.0
11
57.271895
21
0.153535
31
0.0
0
LINE
8
0
6
CONTINUOUS
10
57.271895
20
0.153535
30
0.0
11
59.161525
21
0.488755
31
0.0
0
LINE
8
0
6
CONTINUOUS
10
59.161525
20
0.488755
30
0.0
11
59.942835
21
0.812755
31
0.0
0
LINE
8
0
6
CONTINUOUS
10
60.017935
20
0.971865
30
0.0
11
60.014905
21
1.676575
31
0.0
0
LINE
8
0
6
CONTINUOUS
10
59.942835
20
0.812755
30
0.0
11
60.017935
21
0.971865
31
0.0
0
LINE
8
0
6
CONTINUOUS
10
-60.017935
20
0.971865
30
0.0
11
-59.942835
21
0.812755
31
0.0
0
LINE
8
0
6
CONTINUOUS
10
-60.014915
20
1.676575
30
0.0
11
-60.017935
21
0.971865
31
0.0
0
LINE
8
0
6
CONTINUOUS
10
-59.942835
20
0.812755
30
0.0
11
-59.161535
21
0.488755
31
0.0
0
LINE
8
0
6
CONTINUOUS
10
-59.161535
20
0.488755
30
0.0
11
-57.271895
21
0.153535
31
0.0
0
LINE
8
0
6
CONTINUOUS
10
-57.271895
20
0.153535
30
0.0
11
-54.418685
21
-0.164995
31
0.0
0
LINE
8
0
6
CONTINUOUS
10
-54.418685
20
-0.164995
30
0.0
11
-50.781145
21
-0.431485
31
0.0
0
LINE
8
0
6
CONTINUOUS
10
-50.781145
20
-0.431485
30
0.0
11
-46.588725
21
-0.597065
31
0.0
0
LINE
8
0
6
CONTINUOUS
10
-46.588725
20
-0.597065
30
0.0
11
-42.110635
21
-0.653475
31
0.0
0
LINE
8
0
6
CONTINUOUS
10
60.002705
20
7.534695
30
0.0
11
60.003495
21
8.165315
31
0.0
0
LINE
8
0
6
CONTINUOUS
10
59.629215
20
8.349665
30
0.0
11
-59.629225
21
8.349665
31
0.0
0
LINE
8
0
6
CONTINUOUS
10
-60.003495
20
8.165235
30
0.0
11
-60.002705
21
7.534615
31
0.0
0
LINE
8
0
6
CONTINUOUS
10
-42.110635
20
-0.653475
30
0.0
11
42.110635
21
-0.653475
31
0.0
0
LINE
8
0
6
CONTINUOUS
10
-60.002705
20
7.534615
30
0.0
11
-60.014915
21
1.676575
31
0.0
0
LINE
8
0
6
CONTINUOUS
10
60.014905
20
1.676575
30
0.0
11
59.990365
21
7.384415
31
0.0
0
LINE
8
0
6
CONTINUOUS
10
42.110635
20
2.461895
30
0.0
11
46.631005
21
2.640215
31
0.0
0
LINE
8
0
6
CONTINUOUS
10
46.631005
20
2.640215
30
0.0
11
50.830695
21
3.226995
31
0.0
0
LINE
8
0
6
CONTINUOUS
10
50.830695
20
3.226995
30
0.0
11
54.433815
21
4.134495
31
0.0
0
LINE
8
0
6
CONTINUOUS
10
54.433815
20
4.134495
30
0.0
11
57.253275
21
5.300355
31
0.0
0
LINE
8
0
6
CONTINUOUS
10
57.253275
20
5.300355
30
0.0
11
58.884325
21
6.513195
31
0.0
0
LINE
8
0
6
CONTINUOUS
10
58.884325
20
6.513195
30
0.0
11
59.741325
21
7.580285
31
0.0
0
LINE
8
0
6
CONTINUOUS
10
59.741325
20
7.580285
30
0.0
11
59.987645
21
8.014945
31
0.0
0
LINE
8
0
6
CONTINUOUS
10
-59.987655
20
8.015375
30
0.0
11
-59.741365
21
7.581755
31
0.0
0
LINE
8
0
6
CONTINUOUS
10
-59.741365
20
7.581755
30
0.0
11
-58.884435
21
6.514415
31
0.0
0
LINE
8
0
6
CONTINUOUS
10
-58.884435
20
6.514415
30
0.0
11
-57.253735
21
5.300485
31
0.0
0
LINE
8
0
6
CONTINUOUS
10
-57.253735
20
5.300485
30
0.0
11
-54.434485
21
4.134715
31
0.0
0
LINE
8
0
6
CONTINUOUS
10
-54.434485
20
4.134715
30
0.0
11
-50.831715
21
3.226025
31
0.0
0
LINE
8
0
6
CONTINUOUS
10
-50.831715
20
3.226025
30
0.0
11
-46.630505
21
2.655505
31
0.0
0
LINE
8
0
6
CONTINUOUS
10
-46.630505
20
2.655505
30
0.0
11
-42.110635
21
2.461895
31
0.0
0
LINE
8
0
6
CONTINUOUS
10
-59.994675
20
8.249835
30
0.0
11
-60.003495
21
8.165235
31
0.0
0
LINE
8
0
6
CONTINUOUS
10
60.003495
20
8.165315
30
0.0
11
59.994665
21
8.249825
31
0.0
0
LINE
8
0
6
CONTINUOUS
10
-42.110635
20
2.461895
30
0.0
11
42.110635
21
2.461895
31
0.0
0
LINE
8
0
6
CONTINUOUS
10
59.987645
20
8.014945
30
0.0
11
60.003495
21
8.165315
31
0.0
0
LINE
8
0
6
CONTINUOUS
10
-60.003495
20
8.165235
30
0.0
11
-59.987655
21
8.015375
31
0.0
0
LINE
8
0
6
CONTINUOUS
10
-59.994675
20
8.349665
30
0.0
11
-59.994675
21
8.249835
31
0.0
0
LINE
8
0
6
CONTINUOUS
10
-59.629225
20
8.349665
30
0.0
11
-59.994675
21
8.349665
31
0.0
0
LINE
8
0
6
CONTINUOUS
10
59.994665
20
8.349665
30
0.0
11
59.629215
21
8.349665
31
0.0
0
LINE
8
0
6
CONTINUOUS
10
59.994665
20
8.249825
30
0.0
11
59.994665
21
8.349665
31
0.0
0
LINE
8
0
6
CONTINUOUS
10
30.646895
20
-11.350345
30
0.0
11
30.646895
21
-10.352965
31
0.0
0
LINE
8
0
6
CONTINUOUS
10
-30.647015
20
-10.352965
30
0.0
11
-30.647015
21
-11.350345
31
0.0
0
LINE
8
0
6
CONTINUOUS
10
0.295605
20
-11.350345
30
0.0
11
-6.037815
21
-11.350345
31
0.0
0
LINE
8
0
6
CONTINUOUS
10
-26.807165
20
-11.350345
30
0.0
11
-29.855545
21
-11.350345
31
0.0
0
LINE
8
0
6
CONTINUOUS
10
-12.140085
20
-11.350345
30
0.0
11
-17.775785
21
-11.350345
31
0.0
0
LINE
8
0
6
CONTINUOUS
10
27.135995
20
-11.350355
30
0.0
11
23.146255
21
-11.350345
31
0.0
0
LINE
8
0
6
CONTINUOUS
10
32.438025
20
-11.350345
30
0.0
11
31.872115
21
-11.350345
31
0.0
0
LINE
8
0
6
CONTINUOUS
10
32.432515
20
-11.759085
30
0.0
11
32.438025
21
-11.350345
31
0.0
0
LINE
8
0
6
CONTINUOUS
10
18.268125
20
-11.350345
30
0.0
11
12.687095
21
-11.350345
31
0.0
0
LINE
8
0
6
CONTINUOUS
10
-29.855545
20
-11.350345
30
0.0
11
-31.756865
21
-11.350345
31
0.0
0
LINE
8
0
6
CONTINUOUS
10
12.687095
20
-11.350345
30
0.0
11
6.618565
21
-11.350345
31
0.0
0
LINE
8
0
6
CONTINUOUS
10
-17.775785
20
-11.350345
30
0.0
11
-22.728005
21
-11.350345
31
0.0
0
LINE
8
0
6
CONTINUOUS
10
23.146255
20
-11.350345
30
0.0
11
18.268125
21
-11.350345
31
0.0
0
LINE
8
0
6
CONTINUOUS
10
6.618565
20
-11.350345
30
0.0
11
0.295605
21
-11.350345
31
0.0
0
LINE
8
0
6
CONTINUOUS
10
31.872115
20
-11.350345
30
0.0
11
30.081905
21
-11.350345
31
0.0
0
LINE
8
0
6
CONTINUOUS
10
-32.438145
20
-11.350345
30
0.0
11
-32.432645
21
-11.759085
31
0.0
0
LINE
8
0
6
CONTINUOUS
10
-31.756865
20
-11.350345
30
0.0
11
-32.438145
21
-11.350345
31
0.0
0
LINE
8
0
6
CONTINUOUS
10
-22.728005
20
-11.350345
30
0.0
11
-26.807165
21
-11.350345
31
0.0
0
LINE
8
0
6
CONTINUOUS
10
-6.037815
20
-11.350345
30
0.0
11
-12.140085
21
-11.350345
31
0.0
0
LINE
8
0
6
CONTINUOUS
10
27.135995
20
-11.350355
30
0.0
11
30.081905
21
-11.350345
31
0.0
0
LINE
8
0
6
CONTINUOUS
10
-12.029125
20
-33.349655
30
0.0
11
-5.982635
21
-33.349655
31
0.0
0
LINE
8
0
6
CONTINUOUS
10
-26.562135
20
-33.349655
30
0.0
11
-22.520275
21
-33.349655
31
0.0
0
LINE
8
0
6
CONTINUOUS
10
-32.151255
20
-32.637295
30
0.0
11
-32.141655
21
-33.349655
31
0.0
0
LINE
8
0
6
CONTINUOUS
10
-32.141655
20
-33.349655
30
0.0
11
-31.466595
21
-33.349655
31
0.0
0
LINE
8
0
6
CONTINUOUS
10
29.806935
20
-33.349665
30
0.0
11
31.580795
21
-33.349665
31
0.0
0
LINE
8
0
6
CONTINUOUS
10
0.292895
20
-33.349655
30
0.0
11
6.558065
21
-33.349655
31
0.0
0
LINE
8
0
6
CONTINUOUS
10
18.101145
20
-33.349655
30
0.0
11
22.934685
21
-33.349665
31
0.0
0
LINE
8
0
6
CONTINUOUS
10
-22.520275
20
-33.349655
30
0.0
11
-17.613315
21
-33.349655
31
0.0
0
LINE
8
0
6
CONTINUOUS
10
6.558065
20
-33.349655
30
0.0
11
12.571145
21
-33.349655
31
0.0
0
LINE
8
0
6
CONTINUOUS
10
-31.466595
20
-33.349655
30
0.0
11
-29.582655
21
-33.349655
31
0.0
0
LINE
8
0
6
CONTINUOUS
10
12.571145
20
-33.349655
30
0.0
11
18.101145
21
-33.349655
31
0.0
0
LINE
8
0
6
CONTINUOUS
10
31.580795
20
-33.349665
30
0.0
11
32.141525
21
-33.349665
31
0.0
0
LINE
8
0
6
CONTINUOUS
10
32.141525
20
-33.349665
30
0.0
11
32.151125
21
-32.637295
31
0.0
0
LINE
8
0
6
CONTINUOUS
10
22.934685
20
-33.349665
30
0.0
11
26.887965
21
-33.349665
31
0.0
0
LINE
8
0
6
CONTINUOUS
10
-17.613315
20
-33.349655
30
0.0
11
-12.029125
21
-33.349655
31
0.0
0
LINE
8
0
6
CONTINUOUS
10
-29.582655
20
-33.349655
30
0.0
11
-26.562135
21
-33.349655
31
0.0
0
LINE
8
0
6
CONTINUOUS
10
26.887965
20
-33.349665
30
0.0
11
29.806935
21
-33.349665
31
0.0
0
LINE
8
0
6
CONTINUOUS
10
-5.982635
20
-33.349655
30
0.0
11
0.292895
21
-33.349655
31
0.0
0
LINE
8
0
6
CONTINUOUS
10
-32.432645
20
-11.759085
30
0.0
11
-32.372393
21
-16.229595
31
0.0
0
LINE
8
0
6
CONTINUOUS
10
-32.211507
20
-28.166795
30
0.0
11
-32.151255
21
-32.637295
31
0.0
0
LINE
8
0
6
CONTINUOUS
10
32.151125
20
-32.637295
30
0.0
11
32.432515
21
-11.759085
31
0.0
0
LINE
8
0
6
CONTINUOUS
10
-33.720255
20
-28.166795
30
0.0
11
-32.211507
21
-28.166795
31
0.0
0
LINE
8
0
6
CONTINUOUS
10
-32.372393
20
-16.229595
30
0.0
11
-33.720255
21
-16.229595
31
0.0
0
LINE
8
0
6
CONTINUOUS
10
-34.311305
20
-28.166795
30
0.0
11
-33.720255
21
-28.166795
31
0.0
0
LINE
8
0
6
CONTINUOUS
10
-34.311305
20
-27.902655
30
0.0
11
-34.311305
21
-28.166795
31
0.0
0
LINE
8
0
6
CONTINUOUS
10
-34.311305
20
-22.288755
30
0.0
11
-34.311305
21
-24.128725
31
0.0
0
LINE
8
0
6
CONTINUOUS
10
-34.311305
20
-27.080125
30
0.0
11
-34.311305
21
-27.902655
31
0.0
0
LINE
8
0
6
CONTINUOUS
10
-34.311305
20
-24.128725
30
0.0
11
-34.311305
21
-25.779725
31
0.0
0
LINE
8
0
6
CONTINUOUS
10
-34.311305
20
-25.779725
30
0.0
11
-34.311305
21
-27.080125
31
0.0
0
LINE
8
0
6
CONTINUOUS
10
-34.311305
20
-18.763215
30
0.0
11
-34.311305
21
-20.439925
31
0.0
0
LINE
8
0
6
CONTINUOUS
10
-34.311305
20
-17.422735
30
0.0
11
-34.311305
21
-18.763215
31
0.0
0
LINE
8
0
6
CONTINUOUS
10
-34.311305
20
-16.549705
30
0.0
11
-34.311305
21
-17.422735
31
0.0
0
LINE
8
0
6
CONTINUOUS
10
-34.311305
20
-20.439925
30
0.0
11
-34.311305
21
-22.288755
31
0.0
0
LINE
8
0
6
CONTINUOUS
10
-34.311305
20
-16.229595
30
0.0
11
-34.311305
21
-16.549705
31
0.0
0
LINE
8
0
6
CONTINUOUS
10
-33.720255
20
-16.229595
30
0.0
11
-34.311305
21
-16.229595
31
0.0
0
LINE
8
0
6
CONTINUOUS
10
53.231305
20
-9.849865
30
0.0
11
53.318505
21
-9.807435
31
0.0
0
LINE
8
0
6
CONTINUOUS
10
52.143605
20
-10.225325
30
0.0
11
52.235865
21
-10.204115
31
0.0
0
LINE
8
0
6
CONTINUOUS
10
56.096245
20
-6.174275
30
0.0
11
56.199945
21
-4.902965
31
0.0
0
LINE
8
0
6
CONTINUOUS
10
21.763725
20
-10.352965
30
0.0
11
24.117165
21
-10.352965
31
0.0
0
LINE
8
0
6
CONTINUOUS
10
-25.562315
20
-10.352965
30
0.0
11
-23.375445
21
-10.352965
31
0.0
0
LINE
8
0
6
CONTINUOUS
10
-23.375445
20
-10.352965
30
0.0
11
-20.944035
21
-10.352965
31
0.0
0
LINE
8
0
6
CONTINUOUS
10
53.317245
20
-9.808075
30
0.0
11
54.285525
21
-9.183505
31
0.0
0
LINE
8
0
6
CONTINUOUS
10
54.285525
20
-9.183505
30
0.0
11
55.092455
21
-8.360965
31
0.0
0
LINE
8
0
6
CONTINUOUS
10
24.117165
20
-10.352965
30
0.0
11
26.218875
21
-10.352965
31
0.0
0
LINE
8
0
6
CONTINUOUS
10
32.856545
20
-10.352965
30
0.0
11
33.806415
21
-10.352965
31
0.0
0
LINE
8
0
6
CONTINUOUS
10
34.944545
20
-10.352965
30
0.0
11
36.213645
21
-10.352965
31
0.0
0
LINE
8
0
6
CONTINUOUS
10
30.800715
20
-10.352965
30
0.0
11
31.700425
21
-10.352965
31
0.0
0
LINE
8
0
6
CONTINUOUS
10
10.346865
20
-10.352955
30
0.0
11
13.442545
21
-10.352955
31
0.0
0
LINE
8
0
6
CONTINUOUS
10
13.442545
20
-10.352955
30
0.0
11
16.398005
21
-10.352955
31
0.0
0
LINE
8
0
6
CONTINUOUS
10
-9.311485
20
-10.352955
30
0.0
11
-6.078755
21
-10.352965
31
0.0
0
LINE
8
0
6
CONTINUOUS
10
-6.078755
20
-10.352965
30
0.0
11
-2.781895
21
-10.352965
31
0.0
0
LINE
8
0
6
CONTINUOUS
10
-29.111265
20
-10.352965
30
0.0
11
-27.480765
21
-10.352965
31
0.0
0
LINE
8
0
6
CONTINUOUS
10
-32.120255
20
-10.352965
30
0.0
11
-31.442765
21
-10.352965
31
0.0
0
LINE
8
0
6
CONTINUOUS
10
19.180905
20
-10.352965
30
0.0
11
21.763725
21
-10.352965
31
0.0
0
LINE
8
0
6
CONTINUOUS
10
0.543775
20
-10.352965
30
0.0
11
3.863155
21
-10.352965
31
0.0
0
LINE
8
0
6
CONTINUOUS
10
-2.781895
20
-10.352965
30
0.0
11
0.543775
21
-10.352965
31
0.0
0
LINE
8
0
6
CONTINUOUS
10
3.863155
20
-10.352965
30
0.0
11
7.142385
21
-10.352965
31
0.0
0
LINE
8
0
6
CONTINUOUS
10
-12.446555
20
-10.352955
30
0.0
11
-9.311485
21
-10.352955
31
0.0
0
LINE
8
0
6
CONTINUOUS
10
7.142385
20
-10.352965
30
0.0
11
10.346865
21
-10.352955
31
0.0
0
LINE
8
0
6
CONTINUOUS
10
-27.480765
20
-10.352965
30
0.0
11
-25.562315
21
-10.352965
31
0.0
0
LINE
8
0
6
CONTINUOUS
10
-30.437005
20
-10.352965
30
0.0
11
-29.111265
21
-10.352965
31
0.0
0
LINE
8
0
6
CONTINUOUS
10
-20.944035
20
-10.352965
30
0.0
11
-18.293385
21
-10.352965
31
0.0
0
LINE
8
0
6
CONTINUOUS
10
-15.450955
20
-10.352955
30
0.0
11
-12.446555
21
-10.352955
31
0.0
0
LINE
8
0
6
CONTINUOUS
10
-32.460175
20
-10.352965
30
0.0
11
-32.120255
21
-10.352965
31
0.0
0
LINE
8
0
6
CONTINUOUS
10
-31.442765
20
-10.352965
30
0.0
11
-30.437005
21
-10.352965
31
0.0
0
LINE
8
0
6
CONTINUOUS
10
55.092455
20
-8.360965
30
0.0
11
55.697465
21
-7.382925
31
0.0
0
LINE
8
0
6
CONTINUOUS
10
55.697465
20
-7.382925
30
0.0
11
56.096245
21
-6.174275
31
0.0
0
LINE
8
0
6
CONTINUOUS
10
26.218875
20
-10.352965
30
0.0
11
28.045575
21
-10.352965
31
0.0
0
LINE
8
0
6
CONTINUOUS
10
29.578275
20
-10.352965
30
0.0
11
30.800715
21
-10.352965
31
0.0
0
LINE
8
0
6
CONTINUOUS
10
28.045575
20
-10.352965
30
0.0
11
29.578275
21
-10.352965
31
0.0
0
LINE
8
0
6
CONTINUOUS
10
31.700425
20
-10.352965
30
0.0
11
32.142615
21
-10.352965
31
0.0
0
LINE
8
0
6
CONTINUOUS
10
36.213645
20
-10.352965
30
0.0
11
37.550005
21
-10.352965
31
0.0
0
LINE
8
0
6
CONTINUOUS
10
33.806415
20
-10.352965
30
0.0
11
34.944545
21
-10.352965
31
0.0
0
LINE
8
0
6
CONTINUOUS
10
32.142615
20
-10.352965
30
0.0
11
32.856545
21
-10.352965
31
0.0
0
LINE
8
0
6
CONTINUOUS
10
56.199945
20
-4.902965
30
0.0
11
56.096255
21
-3.631645
31
0.0
0
LINE
8
0
6
CONTINUOUS
10
54.285525
20
-0.622415
30
0.0
11
53.317245
21
0.002155
31
0.0
0
LINE
8
0
6
CONTINUOUS
10
55.092455
20
-1.444955
30
0.0
11
54.285525
21
-0.622415
31
0.0
0
LINE
8
0
6
CONTINUOUS
10
55.697465
20
-2.422995
30
0.0
11
55.092455
21
-1.444955
31
0.0
0
LINE
8
0
6
CONTINUOUS
10
56.096255
20
-3.631645
30
0.0
11
55.697465
21
-2.422995
31
0.0
0
LINE
8
0
6
CONTINUOUS
10
53.317245
20
-9.808075
30
0.0
11
52.235115
21
-10.204125
31
0.0
0
LINE
8
0
6
CONTINUOUS
10
19.180905
20
-10.352965
30
0.0
11
16.398005
21
-10.352955
31
0.0
0
LINE
8
0
6
CONTINUOUS
10
-15.450955
20
-10.352955
30
0.0
11
-18.293385
21
-10.352965
31
0.0
0
LINE
8
0
6
CONTINUOUS
10
50.999935
20
-10.352965
30
0.0
11
37.550005
21
-10.352965
31
0.0
0
LINE
8
0
6
CONTINUOUS
10
52.235115
20
-10.204125
30
0.0
11
50.999935
21
-10.352965
31
0.0
0
LINE
8
0
6
CONTINUOUS
10
50.999965
20
-10.352965
30
0.0
11
52.142955
21
-10.225725
31
0.0
0
LINE
8
0
6
CONTINUOUS
10
-49.980975
20
8.836575
30
0.0
11
-46.928155
21
8.836575
31
0.0
0
LINE
8
0
6
CONTINUOUS
10
-42.000015
20
8.836575
30
0.0
11
42.000015
21
8.836575
31
0.0
0
LINE
8
0
6
CONTINUOUS
10
-52.233385
20
8.836575
30
0.0
11
-49.980975
21
8.836575
31
0.0
0
LINE
8
0
6
CONTINUOUS
10
46.928185
20
8.836575
30
0.0
11
49.980845
21
8.836575
31
0.0
0
LINE
8
0
6
CONTINUOUS
10
-53.358105
20
8.836575
30
0.0
11
-52.233385
21
8.836575
31
0.0
0
LINE
8
0
6
CONTINUOUS
10
-53.960735
20
31.850165
30
0.0
11
-53.358105
21
8.836575
31
0.0
0
LINE
8
0
6
CONTINUOUS
10
-52.233385
20
8.836575
30
0.0
11
-52.776265
21
31.850165
31
0.0
0
LINE
8
0
6
CONTINUOUS
10
49.980845
20
8.836575
30
0.0
11
52.233315
21
8.836575
31
0.0
0
LINE
8
0
6
CONTINUOUS
10
53.358035
20
8.836575
30
0.0
11
53.960725
21
31.850165
31
0.0
0
LINE
8
0
6
CONTINUOUS
10
52.233315
20
8.836575
30
0.0
11
53.358035
21
8.836575
31
0.0
0
LINE
8
0
6
CONTINUOUS
10
52.776265
20
31.850165
30
0.0
11
52.233315
21
8.836575
31
0.0
0
LINE
8
0
6
CONTINUOUS
10
-46.928155
20
8.836575
30
0.0
11
-42.000015
21
8.836575
31
0.0
0
LINE
8
0
6
CONTINUOUS
10
-47.189665
20
31.850165
30
0.0
11
-46.928155
21
8.836575
31
0.0
0
LINE
8
0
6
CONTINUOUS
10
42.000015
20
8.836575
30
0.0
11
46.928185
21
8.836575
31
0.0
0
LINE
8
0
6
CONTINUOUS
10
46.928185
20
8.836575
30
0.0
11
47.189655
21
31.850165
31
0.0
0
LINE
8
0
6
CONTINUOUS
10
47.206705
20
33.349665
30
0.0
11
41.999445
21
33.349665
31
0.0
0
LINE
8
0
6
CONTINUOUS
10
-47.206705
20
33.349665
30
0.0
11
-50.431875
21
33.349665
31
0.0
0
LINE
8
0
6
CONTINUOUS
10
-54.000005
20
33.349665
30
0.0
11
-53.960735
21
31.850165
31
0.0
0
LINE
8
0
6
CONTINUOUS
10
-52.811635
20
33.349665
30
0.0
11
-54.000005
21
33.349665
31
0.0
0
LINE
8
0
6
CONTINUOUS
10
-47.206705
20
33.349665
30
0.0
11
-47.189665
21
31.850165
31
0.0
0
LINE
8
0
6
CONTINUOUS
10
-42.000015
20
33.349665
30
0.0
11
-47.206705
21
33.349665
31
0.0
0
LINE
8
0
6
CONTINUOUS
10
52.811645
20
33.349665
30
0.0
11
50.431595
21
33.349665
31
0.0
0
LINE
8
0
6
CONTINUOUS
10
53.960725
20
31.850165
30
0.0
11
53.999995
21
33.349665
31
0.0
0
LINE
8
0
6
CONTINUOUS
10
52.811645
20
33.349665
30
0.0
11
52.776265
21
31.850165
31
0.0
0
LINE
8
0
6
CONTINUOUS
10
53.999995
20
33.349665
30
0.0
11
52.811645
21
33.349665
31
0.0
0
LINE
8
0
6
CONTINUOUS
10
41.999445
20
33.349665
30
0.0
11
-42.000015
21
33.349665
31
0.0
0
LINE
8
0
6
CONTINUOUS
10
47.206705
20
33.349665
30
0.0
11
47.189655
21
31.850165
31
0.0
0
LINE
8
0
6
CONTINUOUS
10
50.431595
20
33.349665
30
0.0
11
47.206705
21
33.349665
31
0.0
0
LINE
8
0
6
CONTINUOUS
10
-52.811635
20
33.349665
30
0.0
11
-52.776265
21
31.850165
31
0.0
0
LINE
8
0
6
CONTINUOUS
10
-50.431875
20
33.349665
30
0.0
11
-52.811635
21
33.349665
31
0.0
0
ENDSEC
0
EOF
