999
Erzeugt mit innoplus bad 
0
SECTION
2
HEADER
9
$ACADVER
1
AC1009
9
$DWGCODEPAGE
3
ISO8859-1
0
ENDSEC
0
SECTION
2
TABLES
0
TABLE
2
LAYER
70
1
0
LAYER
2
0
70
0
62
7
6
CONTINUOUS
0
ENDTAB
0
ENDSEC
0
SECTION
2
ENTITIES
0
LINE
8
0
6
CONTINUOUS
10
0.854865
20
110.829165
30
0.0
11
0.891315
21
110.175565
31
0.0
0
LINE
8
0
6
CONTINUOUS
10
0.914025
20
109.772125
30
0.0
11
0.922225
21
109.632455
31
0.0
0
LINE
8
0
6
CONTINUOUS
10
0.053925
20
125.403805
30
0.0
11
0.060495
21
125.274995
31
0.0
0
LINE
8
0
6
CONTINUOUS
10
0.290575
20
121.059605
30
0.0
11
0.364975
21
119.704875
31
0.0
0
LINE
8
0
6
CONTINUOUS
10
0.505655
20
119.811355
30
0.0
11
0.427915
21
121.227005
31
0.0
0
LINE
8
0
6
CONTINUOUS
10
0.060495
20
125.274995
30
0.0
11
0.081635
21
124.881985
31
0.0
0
LINE
8
0
6
CONTINUOUS
10
0.081635
20
124.881985
30
0.0
11
0.116615
21
124.238185
31
0.0
0
LINE
8
0
6
CONTINUOUS
10
0.364975
20
119.704875
30
0.0
11
0.443625
21
118.274685
31
0.0
0
LINE
8
0
6
CONTINUOUS
10
0.587845
20
118.316855
30
0.0
11
0.505655
21
119.811355
31
0.0
0
LINE
8
0
6
CONTINUOUS
10
0.805915
20
111.710505
30
0.0
11
0.854865
21
110.829165
31
0.0
0
LINE
8
0
6
CONTINUOUS
10
0.891315
20
110.175565
30
0.0
11
0.914025
21
109.772125
31
0.0
0
LINE
8
0
6
CONTINUOUS
10
0.677605
20
114.029875
30
0.0
11
0.746175
21
112.789565
31
0.0
0
LINE
8
0
6
CONTINUOUS
10
0.116615
20
124.238185
30
0.0
11
0.164235
21
123.365765
31
0.0
0
LINE
8
0
6
CONTINUOUS
10
0.746175
20
112.789565
30
0.0
11
0.805915
21
111.710505
31
0.0
0
LINE
8
0
6
CONTINUOUS
10
0.523615
20
116.821675
30
0.0
11
0.602665
21
115.387715
31
0.0
0
LINE
8
0
6
CONTINUOUS
10
0.671435
20
116.798505
30
0.0
11
0.754035
21
115.300055
31
0.0
0
LINE
8
0
6
CONTINUOUS
10
0.602665
20
115.387715
30
0.0
11
0.677605
21
114.029875
31
0.0
0
LINE
8
0
6
CONTINUOUS
10
0.832355
20
113.881165
30
0.0
11
0.754035
21
115.300055
31
0.0
0
LINE
8
0
6
CONTINUOUS
10
0.222885
20
122.294045
30
0.0
11
0.290575
21
121.059605
31
0.0
0
LINE
8
0
6
CONTINUOUS
10
0.164235
20
123.365765
30
0.0
11
0.222885
21
122.294045
31
0.0
0
LINE
8
0
6
CONTINUOUS
10
0.671435
20
116.798505
30
0.0
11
0.587845
21
118.316855
31
0.0
0
LINE
8
0
6
CONTINUOUS
10
0.443625
20
118.274685
30
0.0
11
0.523615
21
116.821675
31
0.0
0
LINE
8
0
6
CONTINUOUS
10
0.762915
20
-115.241355
30
0.0
11
0.840675
21
-113.825445
31
0.0
0
LINE
8
0
6
CONTINUOUS
10
0.680775
20
-116.735055
30
0.0
11
0.762915
21
-115.241355
31
0.0
0
LINE
8
0
6
CONTINUOUS
10
0.436225
20
-121.171565
30
0.0
11
0.514605
21
-119.751525
31
0.0
0
LINE
8
0
6
CONTINUOUS
10
0.597055
20
-118.255705
30
0.0
11
0.680775
21
-116.735055
31
0.0
0
LINE
8
0
6
CONTINUOUS
10
0.514605
20
-119.751525
30
0.0
11
0.597055
21
-118.255705
31
0.0
0
LINE
8
0
6
CONTINUOUS
10
0.364975
20
-119.704855
30
0.0
11
0.290575
21
-121.059585
31
0.0
0
LINE
8
0
6
CONTINUOUS
10
0.443615
20
-118.274665
30
0.0
11
0.364975
21
-119.704855
31
0.0
0
LINE
8
0
6
CONTINUOUS
10
0.854865
20
-110.829155
30
0.0
11
0.805915
21
-111.710485
31
0.0
0
LINE
8
0
6
CONTINUOUS
10
0.746175
20
-112.789545
30
0.0
11
0.677605
21
-114.029865
31
0.0
0
LINE
8
0
6
CONTINUOUS
10
0.164225
20
-123.365745
30
0.0
11
0.116605
21
-124.238165
31
0.0
0
LINE
8
0
6
CONTINUOUS
10
0.805915
20
-111.710485
30
0.0
11
0.746175
21
-112.789545
31
0.0
0
LINE
8
0
6
CONTINUOUS
10
0.602665
20
-115.387705
30
0.0
11
0.523615
21
-116.821665
31
0.0
0
LINE
8
0
6
CONTINUOUS
10
0.677605
20
-114.029865
30
0.0
11
0.602665
21
-115.387705
31
0.0
0
LINE
8
0
6
CONTINUOUS
10
0.290575
20
-121.059585
30
0.0
11
0.222885
21
-122.294035
31
0.0
0
LINE
8
0
6
CONTINUOUS
10
0.222885
20
-122.294035
30
0.0
11
0.164225
21
-123.365745
31
0.0
0
LINE
8
0
6
CONTINUOUS
10
0.523615
20
-116.821665
30
0.0
11
0.443615
21
-118.274665
31
0.0
0
LINE
8
0
6
CONTINUOUS
10
0.602665
20
-115.387705
30
0.0
11
0.523615
21
-116.821665
31
0.0
0
LINE
8
0
6
CONTINUOUS
10
0.134785
20
-126.355375
30
0.0
11
0.126295
21
-126.467505
31
0.0
0
LINE
8
0
6
CONTINUOUS
10
0.161355
20
-126.026545
30
0.0
11
0.134785
21
-126.355375
31
0.0
0
LINE
8
0
6
CONTINUOUS
10
0.136595
20
-126.356005
30
0.0
11
0.126295
21
-126.467505
31
0.0
0
LINE
8
0
6
CONTINUOUS
10
0.126295
20
-126.467505
30
0.0
11
0.188585
21
-126.119935
31
0.0
0
LINE
8
0
6
CONTINUOUS
10
0.165435
20
-126.019875
30
0.0
11
0.136595
21
-126.356005
31
0.0
0
LINE
8
0
6
CONTINUOUS
10
0.429675
20
-121.292375
30
0.0
11
0.350635
21
-122.406685
31
0.0
0
LINE
8
0
6
CONTINUOUS
10
0.463275
20
-122.570875
30
0.0
11
0.544595
21
-121.420935
31
0.0
0
LINE
8
0
6
CONTINUOUS
10
1.009155
20
-109.224105
30
0.0
11
1.001465
21
-109.533305
31
0.0
0
LINE
8
0
6
CONTINUOUS
10
0.737185
20
-116.204185
30
0.0
11
0.666805
21
-117.509325
31
0.0
0
LINE
8
0
6
CONTINUOUS
10
0.788915
20
-117.516775
30
0.0
11
0.861585
21
-116.169845
31
0.0
0
LINE
8
0
6
CONTINUOUS
10
0.276705
20
-123.400605
30
0.0
11
0.211085
21
-124.249935
31
0.0
0
LINE
8
0
6
CONTINUOUS
10
0.319795
20
-124.473295
30
0.0
11
0.387245
21
-123.596795
31
0.0
0
LINE
8
0
6
CONTINUOUS
10
0.116175
20
-125.434855
30
0.0
11
0.091345
21
-125.741345
31
0.0
0
LINE
8
0
6
CONTINUOUS
10
0.196745
20
-126.012375
30
0.0
11
0.222265
21
-125.696105
31
0.0
0
LINE
8
0
6
CONTINUOUS
10
1.011155
20
-109.117425
30
0.0
11
1.009155
21
-109.224105
31
0.0
0
LINE
8
0
6
CONTINUOUS
10
1.146025
20
-108.856385
30
0.0
11
1.011155
21
-109.117425
31
0.0
0
LINE
8
0
6
CONTINUOUS
10
1.001465
20
-109.533305
30
0.0
11
0.987095
21
-110.052215
31
0.0
0
LINE
8
0
6
CONTINUOUS
10
0.800165
20
-114.930315
30
0.0
11
0.737185
21
-116.204185
31
0.0
0
LINE
8
0
6
CONTINUOUS
10
0.861585
20
-116.169845
30
0.0
11
0.926685
21
-114.855205
31
0.0
0
LINE
8
0
6
CONTINUOUS
10
0.211085
20
-124.249935
30
0.0
11
0.156735
21
-124.933655
31
0.0
0
LINE
8
0
6
CONTINUOUS
10
0.263925
20
-125.178905
30
0.0
11
0.319795
21
-124.473295
31
0.0
0
LINE
8
0
6
CONTINUOUS
10
0.937485
20
-111.597875
30
0.0
11
0.900495
21
-112.598105
31
0.0
0
LINE
8
0
6
CONTINUOUS
10
0.987095
20
-110.052215
30
0.0
11
0.966125
21
-110.742545
31
0.0
0
LINE
8
0
6
CONTINUOUS
10
0.156735
20
-124.933655
30
0.0
11
0.116175
21
-125.434855
31
0.0
0
LINE
8
0
6
CONTINUOUS
10
0.222265
20
-125.696105
30
0.0
11
0.263925
21
-125.178905
31
0.0
0
LINE
8
0
6
CONTINUOUS
10
0.590575
20
-118.813375
30
0.0
11
0.510655
21
-120.084875
31
0.0
0
LINE
8
0
6
CONTINUOUS
10
0.627965
20
-120.174745
30
0.0
11
0.710295
21
-118.862585
31
0.0
0
LINE
8
0
6
CONTINUOUS
10
0.510655
20
-120.084875
30
0.0
11
0.429675
21
-121.292375
31
0.0
0
LINE
8
0
6
CONTINUOUS
10
0.544595
20
-121.420935
30
0.0
11
0.627965
21
-120.174745
31
0.0
0
LINE
8
0
6
CONTINUOUS
10
0.350635
20
-122.406685
30
0.0
11
0.276705
21
-123.400605
31
0.0
0
LINE
8
0
6
CONTINUOUS
10
0.387245
20
-123.596795
30
0.0
11
0.463275
21
-122.570875
31
0.0
0
LINE
8
0
6
CONTINUOUS
10
0.900495
20
-112.598105
30
0.0
11
0.854745
21
-113.718215
31
0.0
0
LINE
8
0
6
CONTINUOUS
10
0.854745
20
-113.718215
30
0.0
11
0.800165
21
-114.930315
31
0.0
0
LINE
8
0
6
CONTINUOUS
10
0.926685
20
-114.855205
30
0.0
11
0.983195
21
-113.604345
31
0.0
0
LINE
8
0
6
CONTINUOUS
10
0.666805
20
-117.509325
30
0.0
11
0.590575
21
-118.813375
31
0.0
0
LINE
8
0
6
CONTINUOUS
10
0.710295
20
-118.862585
30
0.0
11
0.788915
21
-117.516775
31
0.0
0
LINE
8
0
6
CONTINUOUS
10
0.083405
20
-125.845565
30
0.0
11
0.188585
21
-126.119935
31
0.0
0
LINE
8
0
6
CONTINUOUS
10
0.091345
20
-125.741345
30
0.0
11
0.083405
21
-125.845565
31
0.0
0
LINE
8
0
6
CONTINUOUS
10
0.188585
20
-126.119935
30
0.0
11
0.196745
21
-126.012375
31
0.0
0
LINE
8
0
6
CONTINUOUS
10
0.966125
20
-110.742545
30
0.0
11
0.937485
21
-111.597875
31
0.0
0
LINE
8
0
6
CONTINUOUS
10
8.349655
20
-60.500005
30
0.0
11
7.718985
21
-60.500005
31
0.0
0
LINE
8
0
6
CONTINUOUS
10
8.349655
20
-61.535275
30
0.0
11
8.349655
21
-60.500005
31
0.0
0
LINE
8
0
6
CONTINUOUS
10
-0.653475
20
-135.496225
30
0.0
11
0.051395
21
-135.496225
31
0.0
0
LINE
8
0
6
CONTINUOUS
10
-0.597075
20
-134.926295
30
0.0
11
-0.653475
21
-135.496225
31
0.0
0
LINE
8
0
6
CONTINUOUS
10
-0.431485
20
-133.253135
30
0.0
11
-0.597075
21
-134.926295
31
0.0
0
LINE
8
0
6
CONTINUOUS
10
0.153535
20
-127.095695
30
0.0
11
-0.164995
21
-130.585935
31
0.0
0
LINE
8
0
6
CONTINUOUS
10
0.488755
20
-123.004245
30
0.0
11
0.153535
21
-127.095695
31
0.0
0
LINE
8
0
6
CONTINUOUS
10
0.812745
20
-118.571715
30
0.0
11
0.488755
21
-123.004245
31
0.0
0
LINE
8
0
6
CONTINUOUS
10
0.971855
20
-114.056015
30
0.0
11
0.812745
21
-118.571715
31
0.0
0
LINE
8
0
6
CONTINUOUS
10
8.249825
20
-105.066585
30
0.0
11
8.349655
21
-100.500005
31
0.0
0
LINE
8
0
6
CONTINUOUS
10
2.578625
20
-135.149915
30
0.0
11
3.329075
21
-132.924725
31
0.0
0
LINE
8
0
6
CONTINUOUS
10
4.134495
20
-130.571625
30
0.0
11
5.300355
21
-127.162855
31
0.0
0
LINE
8
0
6
CONTINUOUS
10
3.226995
20
-133.225455
30
0.0
11
4.134495
21
-130.571625
31
0.0
0
LINE
8
0
6
CONTINUOUS
10
2.640205
20
-134.915255
30
0.0
11
3.226995
21
-133.225455
31
0.0
0
LINE
8
0
6
CONTINUOUS
10
1.831215
20
-135.496225
30
0.0
11
2.461895
21
-135.496225
31
0.0
0
LINE
8
0
6
CONTINUOUS
10
7.718985
20
-60.500005
30
0.0
11
2.054525
21
-60.500005
31
0.0
0
LINE
8
0
6
CONTINUOUS
10
1.349655
20
-60.500025
30
0.0
11
1.349655
21
-61.535275
31
0.0
0
LINE
8
0
6
CONTINUOUS
10
2.054525
20
-60.500005
30
0.0
11
1.349655
21
-60.500025
31
0.0
0
LINE
8
0
6
CONTINUOUS
10
1.221135
20
-105.018215
30
0.0
11
1.092595
21
-109.536395
31
0.0
0
LINE
8
0
6
CONTINUOUS
10
1.349655
20
-100.500005
30
0.0
11
1.221135
21
-105.018215
31
0.0
0
LINE
8
0
6
CONTINUOUS
10
0.051395
20
-135.496225
30
0.0
11
1.831215
21
-135.496225
31
0.0
0
LINE
8
0
6
CONTINUOUS
10
1.092595
20
-109.536395
30
0.0
11
0.971855
21
-114.056015
31
0.0
0
LINE
8
0
6
CONTINUOUS
10
2.578625
20
-135.149935
30
0.0
11
2.753805
21
-134.578265
31
0.0
0
LINE
8
0
6
CONTINUOUS
10
2.461895
20
-135.496225
30
0.0
11
2.578625
21
-135.149935
31
0.0
0
LINE
8
0
6
CONTINUOUS
10
2.640205
20
-134.915255
30
0.0
11
2.461895
21
-135.496225
31
0.0
0
LINE
8
0
6
CONTINUOUS
10
-0.431485
20
-133.253135
30
0.0
11
-0.164995
21
-130.585935
31
0.0
0
LINE
8
0
6
CONTINUOUS
10
6.513185
20
-123.106665
30
0.0
11
5.300355
21
-127.162855
31
0.0
0
LINE
8
0
6
CONTINUOUS
10
7.580275
20
-118.728825
30
0.0
11
6.513185
21
-123.106665
31
0.0
0
LINE
8
0
6
CONTINUOUS
10
8.014945
20
-114.203565
30
0.0
11
7.580275
21
-118.728825
31
0.0
0
LINE
8
0
6
CONTINUOUS
10
8.249825
20
-105.066585
30
0.0
11
8.165315
21
-109.633875
31
0.0
0
LINE
8
0
6
CONTINUOUS
10
8.165315
20
-109.633875
30
0.0
11
8.014945
21
-114.203565
31
0.0
0
LINE
8
0
6
CONTINUOUS
10
1.349655
20
-61.535275
30
0.0
11
1.349655
21
-100.500005
31
0.0
0
LINE
8
0
6
CONTINUOUS
10
8.349655
20
-100.500005
30
0.0
11
8.349655
21
-61.535275
31
0.0
0
LINE
8
0
6
CONTINUOUS
10
2.461895
20
-135.496225
30
0.0
11
2.578625
21
-135.149915
31
0.0
0
LINE
8
0
6
CONTINUOUS
10
1.349665
20
59.994675
30
0.0
11
1.349665
21
59.089015
31
0.0
0
LINE
8
0
6
CONTINUOUS
10
2.043205
20
59.994675
30
0.0
11
1.349665
21
59.994675
31
0.0
0
LINE
8
0
6
CONTINUOUS
10
8.349665
20
59.994675
30
0.0
11
7.656135
21
59.994675
31
0.0
0
LINE
8
0
6
CONTINUOUS
10
8.349665
20
59.089005
30
0.0
11
8.349665
21
59.994675
31
0.0
0
LINE
8
0
6
CONTINUOUS
10
7.656135
20
59.994675
30
0.0
11
2.043205
21
59.994675
31
0.0
0
LINE
8
0
6
CONTINUOUS
10
8.349655
20
-59.032795
30
0.0
11
8.349665
21
59.089005
31
0.0
0
LINE
8
0
6
CONTINUOUS
10
1.349665
20
59.089015
30
0.0
11
1.349655
21
-59.032795
31
0.0
0
LINE
8
0
6
CONTINUOUS
10
1.349655
20
-59.938465
30
0.0
11
2.043205
21
-59.938465
31
0.0
0
LINE
8
0
6
CONTINUOUS
10
1.349655
20
-59.032795
30
0.0
11
1.349655
21
-59.938465
31
0.0
0
LINE
8
0
6
CONTINUOUS
10
8.349655
20
-59.938465
30
0.0
11
8.349655
21
-59.032795
31
0.0
0
LINE
8
0
6
CONTINUOUS
10
7.656135
20
-59.938465
30
0.0
11
8.349655
21
-59.938465
31
0.0
0
LINE
8
0
6
CONTINUOUS
10
2.043205
20
-59.938465
30
0.0
11
7.656135
21
-59.938465
31
0.0
0
LINE
8
0
6
CONTINUOUS
10
0.126305
20
126.467475
30
0.0
11
0.134915
21
126.353145
31
0.0
0
LINE
8
0
6
CONTINUOUS
10
0.188595
20
126.119885
30
0.0
11
0.126305
21
126.467475
31
0.0
0
LINE
8
0
6
CONTINUOUS
10
0.134915
20
126.353145
30
0.0
11
0.161605
21
126.022185
31
0.0
0
LINE
8
0
6
CONTINUOUS
10
0.083415
20
125.845545
30
0.0
11
0.092955
21
125.743685
31
0.0
0
LINE
8
0
6
CONTINUOUS
10
0.188595
20
126.119885
30
0.0
11
0.083415
21
125.845545
31
0.0
0
LINE
8
0
6
CONTINUOUS
10
0.198375
20
126.014825
30
0.0
11
0.188595
21
126.119885
31
0.0
0
LINE
8
0
6
CONTINUOUS
10
0.738795
20
116.135565
30
0.0
11
0.799695
21
114.864735
31
0.0
0
LINE
8
0
6
CONTINUOUS
10
0.926265
20
114.787535
30
0.0
11
0.863275
21
116.099025
31
0.0
0
LINE
8
0
6
CONTINUOUS
10
0.360195
20
122.350125
30
0.0
11
0.438595
21
121.229595
31
0.0
0
LINE
8
0
6
CONTINUOUS
10
0.553725
20
121.356105
30
0.0
11
0.473045
21
122.512485
31
0.0
0
LINE
8
0
6
CONTINUOUS
10
0.998335
20
109.522265
30
0.0
11
1.007505
21
109.218335
31
0.0
0
LINE
8
0
6
CONTINUOUS
10
0.518265
20
120.017955
30
0.0
11
0.596425
21
118.743975
31
0.0
0
LINE
8
0
6
CONTINUOUS
10
0.716305
20
118.790945
30
0.0
11
0.635755
21
120.105705
31
0.0
0
LINE
8
0
6
CONTINUOUS
10
0.961775
20
110.703835
30
0.0
11
0.983265
21
110.021595
31
0.0
0
LINE
8
0
6
CONTINUOUS
10
0.670585
20
117.438905
30
0.0
11
0.738795
21
116.135565
31
0.0
0
LINE
8
0
6
CONTINUOUS
10
0.863275
20
116.099025
30
0.0
11
0.792825
21
117.444095
31
0.0
0
LINE
8
0
6
CONTINUOUS
10
0.852505
20
113.658045
30
0.0
11
0.896965
21
112.544335
31
0.0
0
LINE
8
0
6
CONTINUOUS
10
0.983265
20
110.021595
30
0.0
11
0.998335
21
109.522265
31
0.0
0
LINE
8
0
6
CONTINUOUS
10
0.933215
20
111.551735
30
0.0
11
0.961775
21
110.703835
31
0.0
0
LINE
8
0
6
CONTINUOUS
10
0.092955
20
125.743685
30
0.0
11
0.119795
21
125.432435
31
0.0
0
LINE
8
0
6
CONTINUOUS
10
0.225935
20
125.693645
30
0.0
11
0.198375
21
126.014825
31
0.0
0
LINE
8
0
6
CONTINUOUS
10
0.596425
20
118.743975
30
0.0
11
0.670585
21
117.438905
31
0.0
0
LINE
8
0
6
CONTINUOUS
10
0.792825
20
117.444095
30
0.0
11
0.716305
21
118.790945
31
0.0
0
LINE
8
0
6
CONTINUOUS
10
0.119795
20
125.432435
30
0.0
11
0.162545
21
124.919975
31
0.0
0
LINE
8
0
6
CONTINUOUS
10
0.269855
20
125.164775
30
0.0
11
0.225935
21
125.693645
31
0.0
0
LINE
8
0
6
CONTINUOUS
10
0.219875
20
124.208265
30
0.0
11
0.286245
21
123.351245
31
0.0
0
LINE
8
0
6
CONTINUOUS
10
0.397005
20
123.545645
30
0.0
11
0.328765
21
124.430405
31
0.0
0
LINE
8
0
6
CONTINUOUS
10
0.286245
20
123.351245
30
0.0
11
0.360195
21
122.350125
31
0.0
0
LINE
8
0
6
CONTINUOUS
10
0.473045
20
122.512485
30
0.0
11
0.397005
21
123.545645
31
0.0
0
LINE
8
0
6
CONTINUOUS
10
0.162545
20
124.919975
30
0.0
11
0.219875
21
124.208265
31
0.0
0
LINE
8
0
6
CONTINUOUS
10
0.328765
20
124.430405
30
0.0
11
0.269855
21
125.164775
31
0.0
0
LINE
8
0
6
CONTINUOUS
10
1.011155
20
109.117395
30
0.0
11
1.146025
21
108.856345
31
0.0
0
LINE
8
0
6
CONTINUOUS
10
1.007505
20
109.218335
30
0.0
11
1.011155
21
109.117395
31
0.0
0
LINE
8
0
6
CONTINUOUS
10
0.896965
20
112.544335
30
0.0
11
0.933215
21
111.551735
31
0.0
0
LINE
8
0
6
CONTINUOUS
10
0.438595
20
121.229595
30
0.0
11
0.518265
21
120.017955
31
0.0
0
LINE
8
0
6
CONTINUOUS
10
0.635755
20
120.105705
30
0.0
11
0.553725
21
121.356105
31
0.0
0
LINE
8
0
6
CONTINUOUS
10
0.799695
20
114.864735
30
0.0
11
0.852505
21
113.658045
31
0.0
0
LINE
8
0
6
CONTINUOUS
10
0.980965
20
113.542255
30
0.0
11
0.926265
21
114.787535
31
0.0
0
LINE
8
0
6
CONTINUOUS
10
8.349665
20
60.499995
30
0.0
11
8.349665
21
61.787685
31
0.0
0
LINE
8
0
6
CONTINUOUS
10
7.718985
20
60.499995
30
0.0
11
8.349665
21
60.499995
31
0.0
0
LINE
8
0
6
CONTINUOUS
10
-0.653475
20
135.496225
30
0.0
11
-0.597065
21
134.926275
31
0.0
0
LINE
8
0
6
CONTINUOUS
10
0.051395
20
135.496225
30
0.0
11
-0.653475
21
135.496225
31
0.0
0
LINE
8
0
6
CONTINUOUS
10
-0.597065
20
134.926275
30
0.0
11
-0.431485
21
133.253125
31
0.0
0
LINE
8
0
6
CONTINUOUS
10
-0.164985
20
130.585915
30
0.0
11
0.153535
21
127.095675
31
0.0
0
LINE
8
0
6
CONTINUOUS
10
0.153535
20
127.095675
30
0.0
11
0.488755
21
123.004235
31
0.0
0
LINE
8
0
6
CONTINUOUS
10
0.488755
20
123.004235
30
0.0
11
0.812755
21
118.571695
31
0.0
0
LINE
8
0
6
CONTINUOUS
10
0.812755
20
118.571695
30
0.0
11
0.971865
21
114.056005
31
0.0
0
LINE
8
0
6
CONTINUOUS
10
3.328135
20
132.924035
30
0.0
11
2.578625
21
135.149905
31
0.0
0
LINE
8
0
6
CONTINUOUS
10
5.300355
20
127.162845
30
0.0
11
4.134495
21
130.571615
31
0.0
0
LINE
8
0
6
CONTINUOUS
10
4.134495
20
130.571615
30
0.0
11
3.226995
21
133.225445
31
0.0
0
LINE
8
0
6
CONTINUOUS
10
3.226995
20
133.225445
30
0.0
11
2.640215
21
134.915235
31
0.0
0
LINE
8
0
6
CONTINUOUS
10
2.461895
20
135.496225
30
0.0
11
1.831215
21
135.496225
31
0.0
0
LINE
8
0
6
CONTINUOUS
10
2.054535
20
60.499995
30
0.0
11
7.718985
21
60.499995
31
0.0
0
LINE
8
0
6
CONTINUOUS
10
1.349665
20
60.500005
30
0.0
11
2.054535
21
60.499995
31
0.0
0
LINE
8
0
6
CONTINUOUS
10
1.349665
20
61.787695
30
0.0
11
1.349665
21
60.500005
31
0.0
0
LINE
8
0
6
CONTINUOUS
10
1.221135
20
105.018195
30
0.0
11
1.349665
21
100.499995
31
0.0
0
LINE
8
0
6
CONTINUOUS
10
1.831215
20
135.496225
30
0.0
11
0.051395
21
135.496225
31
0.0
0
LINE
8
0
6
CONTINUOUS
10
0.971865
20
114.056005
30
0.0
11
1.092605
21
109.536385
31
0.0
0
LINE
8
0
6
CONTINUOUS
10
2.461895
20
135.496225
30
0.0
11
2.640215
21
134.915235
31
0.0
0
LINE
8
0
6
CONTINUOUS
10
2.578635
20
135.149915
30
0.0
11
2.461895
21
135.496225
31
0.0
0
LINE
8
0
6
CONTINUOUS
10
2.753805
20
134.578255
30
0.0
11
2.578635
21
135.149915
31
0.0
0
LINE
8
0
6
CONTINUOUS
10
-0.164985
20
130.585915
30
0.0
11
-0.431485
21
133.253125
31
0.0
0
LINE
8
0
6
CONTINUOUS
10
5.300355
20
127.162845
30
0.0
11
6.513195
21
123.106645
31
0.0
0
LINE
8
0
6
CONTINUOUS
10
6.513195
20
123.106645
30
0.0
11
7.580285
21
118.728815
31
0.0
0
LINE
8
0
6
CONTINUOUS
10
7.580285
20
118.728815
30
0.0
11
8.014945
21
114.203555
31
0.0
0
LINE
8
0
6
CONTINUOUS
10
8.165315
20
109.633875
30
0.0
11
8.249825
21
105.066575
31
0.0
0
LINE
8
0
6
CONTINUOUS
10
1.221135
20
105.018195
30
0.0
11
1.092605
21
109.536385
31
0.0
0
LINE
8
0
6
CONTINUOUS
10
8.014945
20
114.203555
30
0.0
11
8.165315
21
109.633875
31
0.0
0
LINE
8
0
6
CONTINUOUS
10
8.249825
20
105.066575
30
0.0
11
8.349665
21
100.499995
31
0.0
0
LINE
8
0
6
CONTINUOUS
10
1.349665
20
100.499995
30
0.0
11
1.349665
21
61.787695
31
0.0
0
LINE
8
0
6
CONTINUOUS
10
8.349665
20
61.787685
30
0.0
11
8.349665
21
100.499995
31
0.0
0
LINE
8
0
6
CONTINUOUS
10
-11.350345
20
-30.647105
30
0.0
11
-10.352965
21
-30.647105
31
0.0
0
LINE
8
0
6
CONTINUOUS
10
0.547045
20
-30.647105
30
0.0
11
1.349657
21
-30.647105
31
0.0
0
LINE
8
0
6
CONTINUOUS
10
1.349663
20
30.646585
30
0.0
11
0.547035
21
30.646585
31
0.0
0
LINE
8
0
6
CONTINUOUS
10
-10.352955
20
30.646585
30
0.0
11
-11.350345
21
30.646585
31
0.0
0
LINE
8
0
6
CONTINUOUS
10
-11.350345
20
12.139665
30
0.0
11
-11.350355
21
17.775345
31
0.0
0
LINE
8
0
6
CONTINUOUS
10
-11.350345
20
-31.872715
30
0.0
11
-11.350345
21
-30.082395
31
0.0
0
LINE
8
0
6
CONTINUOUS
10
-11.350355
20
17.775345
30
0.0
11
-11.350345
21
22.727875
31
0.0
0
LINE
8
0
6
CONTINUOUS
10
-11.350345
20
-6.618555
30
0.0
11
-11.350345
21
-0.295905
31
0.0
0
LINE
8
0
6
CONTINUOUS
10
-11.350345
20
-23.146965
30
0.0
11
-11.350345
21
-18.267745
31
0.0
0
LINE
8
0
6
CONTINUOUS
10
-11.350345
20
-0.295905
30
0.0
11
-11.350345
21
6.037655
31
0.0
0
LINE
8
0
6
CONTINUOUS
10
-11.350345
20
-27.135745
30
0.0
11
-11.350345
21
-23.146965
31
0.0
0
LINE
8
0
6
CONTINUOUS
10
-11.350345
20
26.806525
30
0.0
11
-11.350345
21
29.855215
31
0.0
0
LINE
8
0
6
CONTINUOUS
10
-11.350345
20
29.855215
30
0.0
11
-11.350345
21
31.756675
31
0.0
0
LINE
8
0
6
CONTINUOUS
10
-11.350345
20
-32.438225
30
0.0
11
-11.350345
21
-31.872715
31
0.0
0
LINE
8
0
6
CONTINUOUS
10
-11.759085
20
-32.432725
30
0.0
11
-11.350345
21
-32.438225
31
0.0
0
LINE
8
0
6
CONTINUOUS
10
-11.350345
20
22.727875
30
0.0
11
-11.350345
21
26.806525
31
0.0
0
LINE
8
0
6
CONTINUOUS
10
-11.350345
20
32.437705
30
0.0
11
-11.759075
21
32.432185
31
0.0
0
LINE
8
0
6
CONTINUOUS
10
-11.350345
20
31.756675
30
0.0
11
-11.350345
21
32.437705
31
0.0
0
LINE
8
0
6
CONTINUOUS
10
-11.350345
20
-18.267745
30
0.0
11
-11.350355
21
-12.686895
31
0.0
0
LINE
8
0
6
CONTINUOUS
10
-11.350345
20
-30.082395
30
0.0
11
-11.350345
21
-27.135745
31
0.0
0
LINE
8
0
6
CONTINUOUS
10
-11.350345
20
6.037655
30
0.0
11
-11.350345
21
12.139665
31
0.0
0
LINE
8
0
6
CONTINUOUS
10
-11.350355
20
-12.686895
30
0.0
11
-11.350345
21
-6.618555
31
0.0
0
LINE
8
0
6
CONTINUOUS
10
-33.349665
20
-6.558045
30
0.0
11
-33.349665
21
-12.570935
31
0.0
0
LINE
8
0
6
CONTINUOUS
10
-33.349665
20
12.028715
30
0.0
11
-33.349665
21
5.982465
31
0.0
0
LINE
8
0
6
CONTINUOUS
10
-33.349655
20
-26.887725
30
0.0
11
-33.349655
21
-29.807425
31
0.0
0
LINE
8
0
6
CONTINUOUS
10
-33.349665
20
-12.570935
30
0.0
11
-33.349665
21
-18.100775
31
0.0
0
LINE
8
0
6
CONTINUOUS
10
-32.637295
20
32.150815
30
0.0
11
-33.349655
21
32.141215
31
0.0
0
LINE
8
0
6
CONTINUOUS
10
-33.349655
20
32.141215
30
0.0
11
-33.349655
21
31.466405
31
0.0
0
LINE
8
0
6
CONTINUOUS
10
-33.349655
20
26.561505
30
0.0
11
-33.349665
21
22.520135
31
0.0
0
LINE
8
0
6
CONTINUOUS
10
-33.349655
20
-31.581385
30
0.0
11
-33.349655
21
-32.141735
31
0.0
0
LINE
8
0
6
CONTINUOUS
10
-33.349655
20
-32.141735
30
0.0
11
-32.637295
21
-32.151325
31
0.0
0
LINE
8
0
6
CONTINUOUS
10
-33.349655
20
31.466405
30
0.0
11
-33.349655
21
29.582335
31
0.0
0
LINE
8
0
6
CONTINUOUS
10
-33.349655
20
29.582335
30
0.0
11
-33.349655
21
26.561505
31
0.0
0
LINE
8
0
6
CONTINUOUS
10
-33.349655
20
-22.935405
30
0.0
11
-33.349655
21
-26.887725
31
0.0
0
LINE
8
0
6
CONTINUOUS
10
-33.349665
20
5.982465
30
0.0
11
-33.349665
21
-0.293195
31
0.0
0
LINE
8
0
6
CONTINUOUS
10
-33.349665
20
-18.100775
30
0.0
11
-33.349655
21
-22.935405
31
0.0
0
LINE
8
0
6
CONTINUOUS
10
-33.349665
20
-0.293195
30
0.0
11
-33.349665
21
-6.558045
31
0.0
0
LINE
8
0
6
CONTINUOUS
10
-33.349665
20
22.520135
30
0.0
11
-33.349665
21
17.612875
31
0.0
0
LINE
8
0
6
CONTINUOUS
10
-33.349655
20
-29.807425
30
0.0
11
-33.349655
21
-31.581385
31
0.0
0
LINE
8
0
6
CONTINUOUS
10
-33.349665
20
17.612875
30
0.0
11
-33.349665
21
12.028715
31
0.0
0
LINE
8
0
6
CONTINUOUS
10
-11.759075
20
32.432185
30
0.0
11
-32.637295
21
32.150815
31
0.0
0
LINE
8
0
6
CONTINUOUS
10
-32.637295
20
-32.151325
30
0.0
11
-11.759085
21
-32.432725
31
0.0
0
LINE
8
0
6
CONTINUOUS
10
-4.902955
20
32.498085
30
0.0
11
-9.994295
21
32.498085
31
0.0
0
LINE
8
0
6
CONTINUOUS
10
-10.352965
20
2.134405
30
0.0
11
-10.352965
21
-2.134465
31
0.0
0
LINE
8
0
6
CONTINUOUS
10
-9.994295
20
-32.498435
30
0.0
11
-4.902965
21
-32.498435
31
0.0
0
LINE
8
0
6
CONTINUOUS
10
0.547035
20
-2.134465
30
0.0
11
0.547035
21
2.134405
31
0.0
0
LINE
8
0
6
CONTINUOUS
10
0.547035
20
4.535645
30
0.0
11
0.547035
21
-4.535645
31
0.0
0
LINE
8
0
6
CONTINUOUS
10
0.547035
20
-5.745615
30
0.0
11
0.547045
21
5.745635
31
0.0
0
LINE
8
0
6
CONTINUOUS
10
-10.352965
20
24.140455
30
0.0
11
-10.352965
21
21.788775
31
0.0
0
LINE
8
0
6
CONTINUOUS
10
-10.352965
20
21.788775
30
0.0
11
-10.352965
21
19.208655
31
0.0
0
LINE
8
0
6
CONTINUOUS
10
-10.352965
20
4.766275
30
0.0
11
-10.352965
21
3.814405
31
0.0
0
LINE
8
0
6
CONTINUOUS
10
-10.352965
20
3.098085
30
0.0
11
-10.352965
21
2.653365
31
0.0
0
LINE
8
0
6
CONTINUOUS
10
-10.352965
20
10.379165
30
0.0
11
-10.352965
21
7.175985
31
0.0
0
LINE
8
0
6
CONTINUOUS
10
-10.352965
20
-2.653365
30
0.0
11
-10.352965
21
-3.098075
31
0.0
0
LINE
8
0
6
CONTINUOUS
10
-10.352965
20
-4.766275
30
0.0
11
-10.352965
21
-5.905885
31
0.0
0
LINE
8
0
6
CONTINUOUS
10
-10.352965
20
-13.474445
30
0.0
11
-10.352965
21
-16.427445
31
0.0
0
LINE
8
0
6
CONTINUOUS
10
-10.352965
20
-16.427445
30
0.0
11
-10.352965
21
-19.209625
31
0.0
0
LINE
8
0
6
CONTINUOUS
10
-10.352965
20
-19.209625
30
0.0
11
-10.352965
21
-21.789115
31
0.0
0
LINE
8
0
6
CONTINUOUS
10
-10.352965
20
-26.239425
30
0.0
11
-10.352965
21
-28.062965
31
0.0
0
LINE
8
0
6
CONTINUOUS
10
-10.352955
20
30.811175
30
0.0
11
-10.352955
21
29.592385
31
0.0
0
LINE
8
0
6
CONTINUOUS
10
-10.352955
20
29.592385
30
0.0
11
-10.352955
21
28.062315
31
0.0
0
LINE
8
0
6
CONTINUOUS
10
-10.352955
20
28.062315
30
0.0
11
-10.352965
21
26.239515
31
0.0
0
LINE
8
0
6
CONTINUOUS
10
-10.352965
20
-30.811545
30
0.0
11
-10.352965
21
-31.708755
31
0.0
0
LINE
8
0
6
CONTINUOUS
10
-10.352965
20
-29.592715
30
0.0
11
-10.352965
21
-30.811545
31
0.0
0
LINE
8
0
6
CONTINUOUS
10
-10.352965
20
-7.176165
30
0.0
11
-10.352965
21
-10.379885
31
0.0
0
LINE
8
0
6
CONTINUOUS
10
-10.352965
20
-31.708755
30
0.0
11
-10.352965
21
-32.272315
31
0.0
0
LINE
8
0
6
CONTINUOUS
10
-10.352965
20
-32.498435
30
0.0
11
-9.994295
21
-32.498435
31
0.0
0
LINE
8
0
6
CONTINUOUS
10
-10.352965
20
-32.272315
30
0.0
11
-10.352965
21
-32.498435
31
0.0
0
LINE
8
0
6
CONTINUOUS
10
-10.352965
20
26.239515
30
0.0
11
-10.352965
21
24.140455
31
0.0
0
LINE
8
0
6
CONTINUOUS
10
-10.352965
20
32.498085
30
0.0
11
-10.352965
21
32.271605
31
0.0
0
LINE
8
0
6
CONTINUOUS
10
-9.994295
20
32.498085
30
0.0
11
-10.352965
21
32.498085
31
0.0
0
LINE
8
0
6
CONTINUOUS
10
-10.352965
20
32.271605
30
0.0
11
-10.352965
21
31.707655
31
0.0
0
LINE
8
0
6
CONTINUOUS
10
-10.352965
20
31.707655
30
0.0
11
-10.352955
21
30.811175
31
0.0
0
LINE
8
0
6
CONTINUOUS
10
-10.352965
20
19.208655
30
0.0
11
-10.352965
21
16.427485
31
0.0
0
LINE
8
0
6
CONTINUOUS
10
-10.352965
20
13.474405
30
0.0
11
-10.352965
21
10.379165
31
0.0
0
LINE
8
0
6
CONTINUOUS
10
-10.352965
20
16.427485
30
0.0
11
-10.352965
21
13.474405
31
0.0
0
LINE
8
0
6
CONTINUOUS
10
-10.352965
20
7.175985
30
0.0
11
-10.352965
21
5.905885
31
0.0
0
LINE
8
0
6
CONTINUOUS
10
-10.352965
20
2.653365
30
0.0
11
-10.352965
21
2.502535
31
0.0
0
LINE
8
0
6
CONTINUOUS
10
-10.352965
20
3.814405
30
0.0
11
-10.352965
21
3.098085
31
0.0
0
LINE
8
0
6
CONTINUOUS
10
-10.352965
20
5.905885
30
0.0
11
-10.352965
21
4.766275
31
0.0
0
LINE
8
0
6
CONTINUOUS
10
-10.352965
20
-2.502595
30
0.0
11
-10.352965
21
-2.653365
31
0.0
0
LINE
8
0
6
CONTINUOUS
10
-10.352965
20
-3.098075
30
0.0
11
-10.352965
21
-3.814355
31
0.0
0
LINE
8
0
6
CONTINUOUS
10
-10.352965
20
-3.814355
30
0.0
11
-10.352965
21
-4.766275
31
0.0
0
LINE
8
0
6
CONTINUOUS
10
-10.352965
20
-5.905885
30
0.0
11
-10.352965
21
-7.176165
31
0.0
0
LINE
8
0
6
CONTINUOUS
10
-10.352965
20
-10.379885
30
0.0
11
-10.352965
21
-13.474445
31
0.0
0
LINE
8
0
6
CONTINUOUS
10
-10.352965
20
-24.140605
30
0.0
11
-10.352965
21
-26.239425
31
0.0
0
LINE
8
0
6
CONTINUOUS
10
-10.352965
20
-28.062965
30
0.0
11
-10.352965
21
-29.592715
31
0.0
0
LINE
8
0
6
CONTINUOUS
10
-10.352965
20
-21.789115
30
0.0
11
-10.352965
21
-24.140605
31
0.0
0
LINE
8
0
6
CONTINUOUS
10
0.547035
20
21.788775
30
0.0
11
0.547035
21
24.140455
31
0.0
0
LINE
8
0
6
CONTINUOUS
10
0.547035
20
19.208655
30
0.0
11
0.547035
21
21.788775
31
0.0
0
LINE
8
0
6
CONTINUOUS
10
0.547035
20
3.814405
30
0.0
11
0.547035
21
4.766275
31
0.0
0
LINE
8
0
6
CONTINUOUS
10
0.547035
20
2.653365
30
0.0
11
0.547035
21
3.098095
31
0.0
0
LINE
8
0
6
CONTINUOUS
10
0.547045
20
7.175985
30
0.0
11
0.547035
21
10.379165
31
0.0
0
LINE
8
0
6
CONTINUOUS
10
0.547035
20
-3.098075
30
0.0
11
0.547035
21
-2.653365
31
0.0
0
LINE
8
0
6
CONTINUOUS
10
0.547035
20
-5.905895
30
0.0
11
0.547035
21
-4.766275
31
0.0
0
LINE
8
0
6
CONTINUOUS
10
0.547045
20
-16.427445
30
0.0
11
0.547045
21
-13.474445
31
0.0
0
LINE
8
0
6
CONTINUOUS
10
0.547045
20
-19.209625
30
0.0
11
0.547045
21
-16.427445
31
0.0
0
LINE
8
0
6
CONTINUOUS
10
0.547035
20
-21.789115
30
0.0
11
0.547045
21
-19.209625
31
0.0
0
LINE
8
0
6
CONTINUOUS
10
0.547045
20
-28.062965
30
0.0
11
0.547045
21
-26.239425
31
0.0
0
LINE
8
0
6
CONTINUOUS
10
0.547035
20
29.592385
30
0.0
11
0.547035
21
30.811175
31
0.0
0
LINE
8
0
6
CONTINUOUS
10
0.547035
20
28.062315
30
0.0
11
0.547035
21
29.592385
31
0.0
0
LINE
8
0
6
CONTINUOUS
10
0.547035
20
26.239515
30
0.0
11
0.547035
21
28.062315
31
0.0
0
LINE
8
0
6
CONTINUOUS
10
0.547045
20
-31.708755
30
0.0
11
0.547045
21
-30.811545
31
0.0
0
LINE
8
0
6
CONTINUOUS
10
0.547045
20
-30.811545
30
0.0
11
0.547045
21
-29.592715
31
0.0
0
LINE
8
0
6
CONTINUOUS
10
0.547045
20
-10.379885
30
0.0
11
0.547035
21
-7.176165
31
0.0
0
LINE
8
0
6
CONTINUOUS
10
0.547045
20
-32.272315
30
0.0
11
0.547045
21
-31.708755
31
0.0
0
LINE
8
0
6
CONTINUOUS
10
0.547045
20
-32.498435
30
0.0
11
0.547045
21
-32.272315
31
0.0
0
LINE
8
0
6
CONTINUOUS
10
0.188375
20
-32.498435
30
0.0
11
0.547045
21
-32.498435
31
0.0
0
LINE
8
0
6
CONTINUOUS
10
0.547035
20
24.140455
30
0.0
11
0.547035
21
26.239515
31
0.0
0
LINE
8
0
6
CONTINUOUS
10
0.547035
20
32.498085
30
0.0
11
0.188375
21
32.498085
31
0.0
0
LINE
8
0
6
CONTINUOUS
10
0.547035
20
32.271605
30
0.0
11
0.547035
21
32.498085
31
0.0
0
LINE
8
0
6
CONTINUOUS
10
0.547035
20
31.707655
30
0.0
11
0.547035
21
32.271605
31
0.0
0
LINE
8
0
6
CONTINUOUS
10
0.547035
20
30.811175
30
0.0
11
0.547035
21
31.707655
31
0.0
0
LINE
8
0
6
CONTINUOUS
10
0.547035
20
16.427485
30
0.0
11
0.547035
21
19.208655
31
0.0
0
LINE
8
0
6
CONTINUOUS
10
0.547035
20
10.379165
30
0.0
11
0.547035
21
13.474405
31
0.0
0
LINE
8
0
6
CONTINUOUS
10
0.547035
20
13.474405
30
0.0
11
0.547035
21
16.427485
31
0.0
0
LINE
8
0
6
CONTINUOUS
10
0.547045
20
5.905885
30
0.0
11
0.547045
21
7.175985
31
0.0
0
LINE
8
0
6
CONTINUOUS
10
0.547035
20
2.502535
30
0.0
11
0.547035
21
2.653365
31
0.0
0
LINE
8
0
6
CONTINUOUS
10
0.547035
20
3.098095
30
0.0
11
0.547035
21
3.814405
31
0.0
0
LINE
8
0
6
CONTINUOUS
10
0.547035
20
-2.653365
30
0.0
11
0.547035
21
-2.502585
31
0.0
0
LINE
8
0
6
CONTINUOUS
10
0.547035
20
-3.814355
30
0.0
11
0.547035
21
-3.098075
31
0.0
0
LINE
8
0
6
CONTINUOUS
10
0.547035
20
-4.766275
30
0.0
11
0.547035
21
-3.814355
31
0.0
0
LINE
8
0
6
CONTINUOUS
10
0.547035
20
-7.176165
30
0.0
11
0.547035
21
-5.905895
31
0.0
0
LINE
8
0
6
CONTINUOUS
10
0.547045
20
-13.474445
30
0.0
11
0.547045
21
-10.379885
31
0.0
0
LINE
8
0
6
CONTINUOUS
10
0.547045
20
-26.239425
30
0.0
11
0.547045
21
-24.140605
31
0.0
0
LINE
8
0
6
CONTINUOUS
10
0.547045
20
-29.592715
30
0.0
11
0.547045
21
-28.062965
31
0.0
0
LINE
8
0
6
CONTINUOUS
10
-4.902965
20
-32.498435
30
0.0
11
0.188375
21
-32.498435
31
0.0
0
LINE
8
0
6
CONTINUOUS
10
0.188375
20
32.498085
30
0.0
11
-4.902955
21
32.498085
31
0.0
0
LINE
8
0
6
CONTINUOUS
10
-9.183505
20
2.512795
30
0.0
11
-9.808075
21
2.507335
31
0.0
0
LINE
8
0
6
CONTINUOUS
10
-8.360965
20
2.519985
30
0.0
11
-9.183505
21
2.512795
31
0.0
0
LINE
8
0
6
CONTINUOUS
10
-9.808075
20
2.507335
30
0.0
11
-10.204125
21
2.503865
31
0.0
0
LINE
8
0
6
CONTINUOUS
10
-10.225725
20
-2.503755
30
0.0
11
-9.850505
21
-2.507025
31
0.0
0
LINE
8
0
6
CONTINUOUS
10
-9.850505
20
-2.507025
30
0.0
11
-9.245415
21
-2.512335
31
0.0
0
LINE
8
0
6
CONTINUOUS
10
-8.438425
20
-2.519295
30
0.0
11
-7.470195
21
-2.527785
31
0.0
0
LINE
8
0
6
CONTINUOUS
10
-7.382925
20
2.528535
30
0.0
11
-8.360965
21
2.519985
31
0.0
0
LINE
8
0
6
CONTINUOUS
10
-10.352965
20
2.502505
30
0.0
11
-10.353135
21
2.134375
31
0.0
0
LINE
8
0
6
CONTINUOUS
10
-10.204125
20
2.503865
30
0.0
11
-10.352965
21
2.502505
31
0.0
0
LINE
8
0
6
CONTINUOUS
10
-6.174275
20
2.538935
30
0.0
11
-7.382925
21
2.528535
31
0.0
0
LINE
8
0
6
CONTINUOUS
10
-9.245415
20
-2.512335
30
0.0
11
-8.438425
21
-2.519295
31
0.0
0
LINE
8
0
6
CONTINUOUS
10
-10.352965
20
-2.502625
30
0.0
11
-10.225725
21
-2.503755
31
0.0
0
LINE
8
0
6
CONTINUOUS
10
-7.470195
20
-2.527785
30
0.0
11
-6.221785
21
-2.538525
31
0.0
0
LINE
8
0
6
CONTINUOUS
10
0.002155
20
2.507335
30
0.0
11
-0.622415
21
2.512795
31
0.0
0
LINE
8
0
6
CONTINUOUS
10
-0.622415
20
2.512795
30
0.0
11
-1.444955
21
2.519985
31
0.0
0
LINE
8
0
6
CONTINUOUS
10
0.398195
20
2.503865
30
0.0
11
0.002155
21
2.507335
31
0.0
0
LINE
8
0
6
CONTINUOUS
10
0.044575
20
-2.507025
30
0.0
11
0.419805
21
-2.503755
31
0.0
0
LINE
8
0
6
CONTINUOUS
10
-0.560505
20
-2.512335
30
0.0
11
0.044575
21
-2.507025
31
0.0
0
LINE
8
0
6
CONTINUOUS
10
-2.335735
20
-2.527785
30
0.0
11
-1.367495
21
-2.519295
31
0.0
0
LINE
8
0
6
CONTINUOUS
10
-1.444955
20
2.519985
30
0.0
11
-2.422995
21
2.528535
31
0.0
0
LINE
8
0
6
CONTINUOUS
10
0.547035
20
2.502505
30
0.0
11
0.398195
21
2.503865
31
0.0
0
LINE
8
0
6
CONTINUOUS
10
0.547215
20
2.134375
30
0.0
11
0.547035
21
2.502505
31
0.0
0
LINE
8
0
6
CONTINUOUS
10
-2.422995
20
2.528535
30
0.0
11
-3.631645
21
2.538935
31
0.0
0
LINE
8
0
6
CONTINUOUS
10
0.547045
20
5.905885
30
0.0
11
0.547035
21
4.766275
31
0.0
0
LINE
8
0
6
CONTINUOUS
10
-1.367495
20
-2.519295
30
0.0
11
-0.560505
21
-2.512335
31
0.0
0
LINE
8
0
6
CONTINUOUS
10
0.419805
20
-2.503755
30
0.0
11
0.547035
21
-2.502615
31
0.0
0
LINE
8
0
6
CONTINUOUS
10
-3.584135
20
-2.538525
30
0.0
11
-2.335735
21
-2.527785
31
0.0
0
LINE
8
0
6
CONTINUOUS
10
-4.902965
20
-2.547985
30
0.0
11
-3.584135
21
-2.538525
31
0.0
0
LINE
8
0
6
CONTINUOUS
10
0.547035
20
-21.789115
30
0.0
11
0.547045
21
-24.140605
31
0.0
0
LINE
8
0
6
CONTINUOUS
10
-4.902965
20
2.547935
30
0.0
11
-6.174275
21
2.538935
31
0.0
0
LINE
8
0
6
CONTINUOUS
10
-6.221785
20
-2.538525
30
0.0
11
-4.902965
21
-2.547985
31
0.0
0
LINE
8
0
6
CONTINUOUS
10
-3.631645
20
2.538935
30
0.0
11
-4.902965
21
2.547935
31
0.0
0
LINE
8
0
6
CONTINUOUS
10
8.836555
20
-95.733375
30
0.0
11
8.836555
21
-96.858115
31
0.0
0
LINE
8
0
6
CONTINUOUS
10
8.836555
20
-96.858115
30
0.0
11
31.850145
21
-97.460725
31
0.0
0
LINE
8
0
6
CONTINUOUS
10
8.836555
20
-85.499985
30
0.0
11
8.836555
21
-90.428175
31
0.0
0
LINE
8
0
6
CONTINUOUS
10
8.836555
20
-95.733375
30
0.0
11
31.850145
21
-96.276255
31
0.0
0
LINE
8
0
6
CONTINUOUS
10
8.836555
20
-93.480825
30
0.0
11
8.836555
21
-95.733375
31
0.0
0
LINE
8
0
6
CONTINUOUS
10
8.836575
20
95.733285
30
0.0
11
8.836575
21
93.480825
31
0.0
0
LINE
8
0
6
CONTINUOUS
10
8.836575
20
93.480825
30
0.0
11
8.836575
21
90.428155
31
0.0
0
LINE
8
0
6
CONTINUOUS
10
8.836555
20
-90.428175
30
0.0
11
8.836555
21
-93.480825
31
0.0
0
LINE
8
0
6
CONTINUOUS
10
31.850145
20
-90.689845
30
0.0
11
8.836555
21
-90.428175
31
0.0
0
LINE
8
0
6
CONTINUOUS
10
8.836575
20
90.428155
30
0.0
11
8.836575
21
85.499975
31
0.0
0
LINE
8
0
6
CONTINUOUS
10
31.850165
20
90.689625
30
0.0
11
8.836575
21
90.428155
31
0.0
0
LINE
8
0
6
CONTINUOUS
10
8.836575
20
85.499975
30
0.0
11
8.836555
21
-85.499985
31
0.0
0
LINE
8
0
6
CONTINUOUS
10
8.836575
20
96.857995
30
0.0
11
8.836575
21
95.733285
31
0.0
0
LINE
8
0
6
CONTINUOUS
10
31.850165
20
97.460725
30
0.0
11
8.836575
21
96.857995
31
0.0
0
LINE
8
0
6
CONTINUOUS
10
8.836575
20
95.733285
30
0.0
11
31.850165
21
96.276235
31
0.0
0
LINE
8
0
6
CONTINUOUS
10
33.349645
20
-85.499985
30
0.0
11
33.349665
21
85.499765
31
0.0
0
LINE
8
0
6
CONTINUOUS
10
33.349665
20
97.499995
30
0.0
11
31.850165
21
97.460725
31
0.0
0
LINE
8
0
6
CONTINUOUS
10
33.349665
20
96.311605
30
0.0
11
33.349665
21
97.499995
31
0.0
0
LINE
8
0
6
CONTINUOUS
10
33.349645
20
-93.931665
30
0.0
11
33.349645
21
-90.706915
31
0.0
0
LINE
8
0
6
CONTINUOUS
10
31.850145
20
-97.460725
30
0.0
11
33.349645
21
-97.500015
31
0.0
0
LINE
8
0
6
CONTINUOUS
10
33.349645
20
-97.500015
30
0.0
11
33.349645
21
-96.311655
31
0.0
0
LINE
8
0
6
CONTINUOUS
10
33.349645
20
-96.311655
30
0.0
11
33.349645
21
-93.931665
31
0.0
0
LINE
8
0
6
CONTINUOUS
10
31.850145
20
-96.276255
30
0.0
11
33.349645
21
-96.311655
31
0.0
0
LINE
8
0
6
CONTINUOUS
10
33.349665
20
90.706655
30
0.0
11
33.349665
21
93.931665
31
0.0
0
LINE
8
0
6
CONTINUOUS
10
33.349665
20
90.706655
30
0.0
11
31.850165
21
90.689625
31
0.0
0
LINE
8
0
6
CONTINUOUS
10
33.349665
20
85.499765
30
0.0
11
33.349665
21
90.706655
31
0.0
0
LINE
8
0
6
CONTINUOUS
10
33.349645
20
-90.706915
30
0.0
11
33.349645
21
-85.499985
31
0.0
0
LINE
8
0
6
CONTINUOUS
10
31.850145
20
-90.689845
30
0.0
11
33.349645
21
-90.706915
31
0.0
0
LINE
8
0
6
CONTINUOUS
10
33.349665
20
96.311605
30
0.0
11
31.850165
21
96.276235
31
0.0
0
LINE
8
0
6
CONTINUOUS
10
33.349665
20
93.931665
30
0.0
11
33.349665
21
96.311605
31
0.0
0
ENDSEC
0
EOF
