999
Erzeugt mit innoplus bad 
0
SECTION
2
HEADER
9
$ACADVER
1
AC1009
9
$DWGCODEPAGE
3
ISO8859-1
0
ENDSEC
0
SECTION
2
TABLES
0
TABLE
2
LAYER
70
1
0
LAYER
2
0
70
0
62
7
6
CONTINUOUS
0
ENDTAB
0
ENDSEC
0
SECTION
2
ENTITIES
0
LINE
8
0
6
CONTINUOUS
10
30.637730
20
-11.350345
30
0.0
11
30.637730
21
-10.352956
31
0.0
0
LINE
8
0
6
CONTINUOUS
10
-30.637840
20
-10.352965
30
0.0
11
-30.637840
21
-11.350345
31
0.0
0
LINE
8
0
6
CONTINUOUS
10
0.295520
20
-11.350345
30
0.0
11
-6.036000
21
-11.350345
31
0.0
0
LINE
8
0
6
CONTINUOUS
10
30.072910
20
-11.350345
30
0.0
11
27.127880
21
-11.350345
31
0.0
0
LINE
8
0
6
CONTINUOUS
10
-26.799140
20
-11.350345
30
0.0
11
-29.846610
21
-11.350345
31
0.0
0
LINE
8
0
6
CONTINUOUS
10
-12.136450
20
-11.350345
30
0.0
11
-17.770470
21
-11.350345
31
0.0
0
LINE
8
0
6
CONTINUOUS
10
27.127880
20
-11.350345
30
0.0
11
23.139330
21
-11.350345
31
0.0
0
LINE
8
0
6
CONTINUOUS
10
32.428330
20
-11.350345
30
0.0
11
31.862590
21
-11.350345
31
0.0
0
LINE
8
0
6
CONTINUOUS
10
32.422820
20
-11.759085
30
0.0
11
32.428330
21
-11.350345
31
0.0
0
LINE
8
0
6
CONTINUOUS
10
18.262660
20
-11.350345
30
0.0
11
12.683310
21
-11.350345
31
0.0
0
LINE
8
0
6
CONTINUOUS
10
-29.846610
20
-11.350345
30
0.0
11
-31.747370
21
-11.350345
31
0.0
0
LINE
8
0
6
CONTINUOUS
10
12.683310
20
-11.350345
30
0.0
11
6.616590
21
-11.350345
31
0.0
0
LINE
8
0
6
CONTINUOUS
10
-17.770470
20
-11.350345
30
0.0
11
-22.721210
21
-11.350345
31
0.0
0
LINE
8
0
6
CONTINUOUS
10
23.139330
20
-11.350345
30
0.0
11
18.262660
21
-11.350345
31
0.0
0
LINE
8
0
6
CONTINUOUS
10
6.616590
20
-11.350345
30
0.0
11
0.295520
21
-11.350345
31
0.0
0
LINE
8
0
6
CONTINUOUS
10
31.862590
20
-11.350345
30
0.0
11
30.072910
21
-11.350345
31
0.0
0
LINE
8
0
6
CONTINUOUS
10
-32.428450
20
-11.350345
30
0.0
11
-32.422940
21
-11.759085
31
0.0
0
LINE
8
0
6
CONTINUOUS
10
-31.747370
20
-11.350345
30
0.0
11
-32.428450
21
-11.350345
31
0.0
0
LINE
8
0
6
CONTINUOUS
10
-22.721210
20
-11.350345
30
0.0
11
-26.799140
21
-11.350345
31
0.0
0
LINE
8
0
6
CONTINUOUS
10
-6.036000
20
-11.350345
30
0.0
11
-12.136450
21
-11.350345
31
0.0
0
LINE
8
0
6
CONTINUOUS
10
-12.025520
20
-33.349655
30
0.0
11
-5.980840
21
-33.349655
31
0.0
0
LINE
8
0
6
CONTINUOUS
10
-26.554190
20
-33.349655
30
0.0
11
-22.513530
21
-33.349655
31
0.0
0
LINE
8
0
6
CONTINUOUS
10
-32.141630
20
-32.637295
30
0.0
11
-32.132040
21
-33.349645
31
0.0
0
LINE
8
0
6
CONTINUOUS
10
-32.132040
20
-33.349645
30
0.0
11
-31.457190
21
-33.349645
31
0.0
0
LINE
8
0
6
CONTINUOUS
10
29.798020
20
-33.349655
30
0.0
11
31.571350
21
-33.349655
31
0.0
0
LINE
8
0
6
CONTINUOUS
10
0.292810
20
-33.349655
30
0.0
11
6.556110
21
-33.349655
31
0.0
0
LINE
8
0
6
CONTINUOUS
10
18.095740
20
-33.349655
30
0.0
11
22.927830
21
-33.349655
31
0.0
0
LINE
8
0
6
CONTINUOUS
10
-22.513530
20
-33.349655
30
0.0
11
-17.608040
21
-33.349655
31
0.0
0
LINE
8
0
6
CONTINUOUS
10
6.556110
20
-33.349655
30
0.0
11
12.567390
21
-33.349655
31
0.0
0
LINE
8
0
6
CONTINUOUS
10
-31.457190
20
-33.349645
30
0.0
11
-29.573800
21
-33.349645
31
0.0
0
LINE
8
0
6
CONTINUOUS
10
12.567390
20
-33.349655
30
0.0
11
18.095740
21
-33.349655
31
0.0
0
LINE
8
0
6
CONTINUOUS
10
31.571350
20
-33.349655
30
0.0
11
32.131920
21
-33.349655
31
0.0
0
LINE
8
0
6
CONTINUOUS
10
32.131920
20
-33.349655
30
0.0
11
32.141520
21
-32.637295
31
0.0
0
LINE
8
0
6
CONTINUOUS
10
22.927830
20
-33.349655
30
0.0
11
26.879920
21
-33.349655
31
0.0
0
LINE
8
0
6
CONTINUOUS
10
-17.608040
20
-33.349655
30
0.0
11
-12.025520
21
-33.349655
31
0.0
0
LINE
8
0
6
CONTINUOUS
10
-29.573800
20
-33.349645
30
0.0
11
-26.554190
21
-33.349655
31
0.0
0
LINE
8
0
6
CONTINUOUS
10
26.879920
20
-33.349655
30
0.0
11
29.798020
21
-33.349655
31
0.0
0
LINE
8
0
6
CONTINUOUS
10
-5.980840
20
-33.349655
30
0.0
11
0.292810
21
-33.349655
31
0.0
0
LINE
8
0
6
CONTINUOUS
10
-32.422940
20
-11.759085
30
0.0
11
-32.362705
21
-16.229595
31
0.0
0
LINE
8
0
6
CONTINUOUS
10
-32.201865
20
-28.166795
30
0.0
11
-32.141630
21
-32.637295
31
0.0
0
LINE
8
0
6
CONTINUOUS
10
32.141520
20
-32.637295
30
0.0
11
32.422820
21
-11.759085
31
0.0
0
LINE
8
0
6
CONTINUOUS
10
-33.710170
20
-28.166795
30
0.0
11
-32.201865
21
-28.166795
31
0.0
0
LINE
8
0
6
CONTINUOUS
10
-32.362705
20
-16.229595
30
0.0
11
-33.710170
21
-16.229595
31
0.0
0
LINE
8
0
6
CONTINUOUS
10
-34.301040
20
-28.166795
30
0.0
11
-33.710170
21
-28.166795
31
0.0
0
LINE
8
0
6
CONTINUOUS
10
-34.301040
20
-27.902655
30
0.0
11
-34.301040
21
-28.166795
31
0.0
0
LINE
8
0
6
CONTINUOUS
10
-34.301040
20
-22.288755
30
0.0
11
-34.301040
21
-24.128725
31
0.0
0
LINE
8
0
6
CONTINUOUS
10
-34.301040
20
-27.080125
30
0.0
11
-34.301040
21
-27.902655
31
0.0
0
LINE
8
0
6
CONTINUOUS
10
-34.301040
20
-24.128725
30
0.0
11
-34.301040
21
-25.779715
31
0.0
0
LINE
8
0
6
CONTINUOUS
10
-34.301040
20
-25.779715
30
0.0
11
-34.301040
21
-27.080125
31
0.0
0
LINE
8
0
6
CONTINUOUS
10
-34.301040
20
-18.763215
30
0.0
11
-34.301040
21
-20.439925
31
0.0
0
LINE
8
0
6
CONTINUOUS
10
-34.301040
20
-17.422725
30
0.0
11
-34.301040
21
-18.763215
31
0.0
0
LINE
8
0
6
CONTINUOUS
10
-34.301040
20
-16.549705
30
0.0
11
-34.301040
21
-17.422725
31
0.0
0
LINE
8
0
6
CONTINUOUS
10
-34.301040
20
-20.439925
30
0.0
11
-34.301040
21
-22.288755
31
0.0
0
LINE
8
0
6
CONTINUOUS
10
-34.301040
20
-16.229595
30
0.0
11
-34.301040
21
-16.549705
31
0.0
0
LINE
8
0
6
CONTINUOUS
10
-33.710170
20
-16.229595
30
0.0
11
-34.301040
21
-16.229595
31
0.0
0
LINE
8
0
6
CONTINUOUS
10
53.215390
20
-9.849865
30
0.0
11
53.302570
21
-9.807435
31
0.0
0
LINE
8
0
6
CONTINUOUS
10
52.128010
20
-10.225325
30
0.0
11
52.220240
21
-10.204105
31
0.0
0
LINE
8
0
6
CONTINUOUS
10
56.079480
20
-6.174275
30
0.0
11
56.183140
21
-4.902965
31
0.0
0
LINE
8
0
6
CONTINUOUS
10
21.757220
20
-10.352965
30
0.0
11
24.109950
21
-10.352955
31
0.0
0
LINE
8
0
6
CONTINUOUS
10
-25.554670
20
-10.352955
30
0.0
11
-23.368450
21
-10.352955
31
0.0
0
LINE
8
0
6
CONTINUOUS
10
-23.368450
20
-10.352955
30
0.0
11
-20.937760
21
-10.352965
31
0.0
0
LINE
8
0
6
CONTINUOUS
10
53.301310
20
-9.808075
30
0.0
11
54.269290
21
-9.183505
31
0.0
0
LINE
8
0
6
CONTINUOUS
10
54.269290
20
-9.183505
30
0.0
11
55.075990
21
-8.360965
31
0.0
0
LINE
8
0
6
CONTINUOUS
10
34.934100
20
-10.352965
30
0.0
11
36.202820
21
-10.352965
31
0.0
0
LINE
8
0
6
CONTINUOUS
10
30.791510
20
-10.352965
30
0.0
11
31.690950
21
-10.352955
31
0.0
0
LINE
8
0
6
CONTINUOUS
10
10.343770
20
-10.352955
30
0.0
11
13.438530
21
-10.352955
31
0.0
0
LINE
8
0
6
CONTINUOUS
10
13.438530
20
-10.352955
30
0.0
11
16.393110
21
-10.352955
31
0.0
0
LINE
8
0
6
CONTINUOUS
10
-9.308690
20
-10.352955
30
0.0
11
-6.076930
21
-10.352965
31
0.0
0
LINE
8
0
6
CONTINUOUS
10
-6.076930
20
-10.352965
30
0.0
11
-2.781050
21
-10.352965
31
0.0
0
LINE
8
0
6
CONTINUOUS
10
-29.102550
20
-10.352955
30
0.0
11
-27.472540
21
-10.352965
31
0.0
0
LINE
8
0
6
CONTINUOUS
10
-32.110640
20
-10.352955
30
0.0
11
-31.433360
21
-10.352965
31
0.0
0
LINE
8
0
6
CONTINUOUS
10
19.175170
20
-10.352965
30
0.0
11
21.757220
21
-10.352965
31
0.0
0
LINE
8
0
6
CONTINUOUS
10
0.543620
20
-10.352965
30
0.0
11
3.862010
21
-10.352965
31
0.0
0
LINE
8
0
6
CONTINUOUS
10
-2.781050
20
-10.352965
30
0.0
11
0.543620
21
-10.352965
31
0.0
0
LINE
8
0
6
CONTINUOUS
10
3.862010
20
-10.352965
30
0.0
11
7.140260
21
-10.352965
31
0.0
0
LINE
8
0
6
CONTINUOUS
10
-12.442830
20
-10.352955
30
0.0
11
-9.308690
21
-10.352955
31
0.0
0
LINE
8
0
6
CONTINUOUS
10
7.140260
20
-10.352965
30
0.0
11
10.343770
21
-10.352955
31
0.0
0
LINE
8
0
6
CONTINUOUS
10
-20.937760
20
-10.352965
30
0.0
11
-18.287910
21
-10.352965
31
0.0
0
LINE
8
0
6
CONTINUOUS
10
-15.446330
20
-10.352955
30
0.0
11
-12.442830
21
-10.352955
31
0.0
0
LINE
8
0
6
CONTINUOUS
10
-31.433360
20
-10.352965
30
0.0
11
-30.427890
21
-10.352965
31
0.0
0
LINE
8
0
6
CONTINUOUS
10
55.075990
20
-8.360965
30
0.0
11
55.680820
21
-7.382925
31
0.0
0
LINE
8
0
6
CONTINUOUS
10
55.680820
20
-7.382925
30
0.0
11
56.079480
21
-6.174275
31
0.0
0
LINE
8
0
6
CONTINUOUS
10
26.211040
20
-10.352965
30
0.0
11
28.037200
21
-10.352965
31
0.0
0
LINE
8
0
6
CONTINUOUS
10
28.037200
20
-10.352965
30
0.0
11
29.569440
21
-10.352955
31
0.0
0
LINE
8
0
6
CONTINUOUS
10
31.690950
20
-10.352955
30
0.0
11
32.133010
21
-10.352955
31
0.0
0
LINE
8
0
6
CONTINUOUS
10
36.202820
20
-10.352965
30
0.0
11
37.538780
21
-10.352965
31
0.0
0
LINE
8
0
6
CONTINUOUS
10
33.796320
20
-10.352965
30
0.0
11
34.934100
21
-10.352965
31
0.0
0
LINE
8
0
6
CONTINUOUS
10
32.133010
20
-10.352955
30
0.0
11
32.846730
21
-10.352955
31
0.0
0
LINE
8
0
6
CONTINUOUS
10
54.269290
20
-0.622415
30
0.0
11
53.301310
21
0.002155
31
0.0
0
LINE
8
0
6
CONTINUOUS
10
55.075990
20
-1.444955
30
0.0
11
54.269290
21
-0.622415
31
0.0
0
LINE
8
0
6
CONTINUOUS
10
55.680820
20
-2.422995
30
0.0
11
55.075990
21
-1.444955
31
0.0
0
LINE
8
0
6
CONTINUOUS
10
56.079480
20
-3.631645
30
0.0
11
55.680820
21
-2.422995
31
0.0
0
LINE
8
0
6
CONTINUOUS
10
53.301310
20
-9.808075
30
0.0
11
52.219500
21
-10.204115
31
0.0
0
LINE
8
0
6
CONTINUOUS
10
26.211040
20
-10.352965
30
0.0
11
24.109950
21
-10.352955
31
0.0
0
LINE
8
0
6
CONTINUOUS
10
33.796320
20
-10.352965
30
0.0
11
32.846730
21
-10.352955
31
0.0
0
LINE
8
0
6
CONTINUOUS
10
19.175170
20
-10.352965
30
0.0
11
16.393110
21
-10.352955
31
0.0
0
LINE
8
0
6
CONTINUOUS
10
-15.446330
20
-10.352955
30
0.0
11
-18.287910
21
-10.352965
31
0.0
0
LINE
8
0
6
CONTINUOUS
10
50.984690
20
-10.352965
30
0.0
11
37.538780
21
-10.352965
31
0.0
0
LINE
8
0
6
CONTINUOUS
10
-25.554670
20
-10.352955
30
0.0
11
-27.472540
21
-10.352965
31
0.0
0
LINE
8
0
6
CONTINUOUS
10
-29.102550
20
-10.352955
30
0.0
11
-30.427890
21
-10.352965
31
0.0
0
LINE
8
0
6
CONTINUOUS
10
-32.110640
20
-10.352955
30
0.0
11
-32.450470
21
-10.352965
31
0.0
0
LINE
8
0
6
CONTINUOUS
10
52.219500
20
-10.204115
30
0.0
11
50.984690
21
-10.352965
31
0.0
0
LINE
8
0
6
CONTINUOUS
10
30.791510
20
-10.352965
30
0.0
11
29.569440
21
-10.352955
31
0.0
0
LINE
8
0
6
CONTINUOUS
10
50.984720
20
-10.352955
30
0.0
11
52.127370
21
-10.225715
31
0.0
0
LINE
8
0
6
CONTINUOUS
10
56.079480
20
-3.631645
30
0.0
11
56.183140
21
-4.902965
31
0.0
0
LINE
8
0
6
CONTINUOUS
10
42.098050
20
-0.653475
30
0.0
11
46.574800
21
-0.597075
31
0.0
0
LINE
8
0
6
CONTINUOUS
10
46.574800
20
-0.597075
30
0.0
11
50.765950
21
-0.431485
31
0.0
0
LINE
8
0
6
CONTINUOUS
10
50.765950
20
-0.431485
30
0.0
11
54.402410
21
-0.164995
31
0.0
0
LINE
8
0
6
CONTINUOUS
10
54.402410
20
-0.164995
30
0.0
11
57.254770
21
0.153535
31
0.0
0
LINE
8
0
6
CONTINUOUS
10
57.254770
20
0.153535
30
0.0
11
59.143840
21
0.488755
31
0.0
0
LINE
8
0
6
CONTINUOUS
10
59.143840
20
0.488755
30
0.0
11
59.924920
21
0.812755
31
0.0
0
LINE
8
0
6
CONTINUOUS
10
59.999990
20
0.971865
30
0.0
11
59.996960
21
1.676565
31
0.0
0
LINE
8
0
6
CONTINUOUS
10
59.924920
20
0.812755
30
0.0
11
59.999990
21
0.971865
31
0.0
0
LINE
8
0
6
CONTINUOUS
10
-59.999990
20
0.971865
30
0.0
11
-59.924910
21
0.812745
31
0.0
0
LINE
8
0
6
CONTINUOUS
10
-59.996960
20
1.676575
30
0.0
11
-59.999990
21
0.971865
31
0.0
0
LINE
8
0
6
CONTINUOUS
10
-59.924910
20
0.812745
30
0.0
11
-59.143840
21
0.488755
31
0.0
0
LINE
8
0
6
CONTINUOUS
10
-59.143840
20
0.488755
30
0.0
11
-57.254760
21
0.153535
31
0.0
0
LINE
8
0
6
CONTINUOUS
10
-57.254760
20
0.153535
30
0.0
11
-54.402410
21
-0.164995
31
0.0
0
LINE
8
0
6
CONTINUOUS
10
-54.402410
20
-0.164995
30
0.0
11
-50.765950
21
-0.431485
31
0.0
0
LINE
8
0
6
CONTINUOUS
10
-50.765950
20
-0.431485
30
0.0
11
-46.574790
21
-0.597075
31
0.0
0
LINE
8
0
6
CONTINUOUS
10
-46.574790
20
-0.597075
30
0.0
11
-42.098040
21
-0.653475
31
0.0
0
LINE
8
0
6
CONTINUOUS
10
59.984770
20
7.534695
30
0.0
11
59.985550
21
8.165315
31
0.0
0
LINE
8
0
6
CONTINUOUS
10
59.611390
20
8.349655
30
0.0
11
-59.611390
21
8.349655
31
0.0
0
LINE
8
0
6
CONTINUOUS
10
-59.985550
20
8.165235
30
0.0
11
-59.984760
21
7.534615
31
0.0
0
LINE
8
0
6
CONTINUOUS
10
-42.098040
20
-0.653475
30
0.0
11
42.098050
21
-0.653475
31
0.0
0
LINE
8
0
6
CONTINUOUS
10
-59.984760
20
7.534615
30
0.0
11
-59.996960
21
1.676575
31
0.0
0
LINE
8
0
6
CONTINUOUS
10
59.996960
20
1.676565
30
0.0
11
59.972430
21
7.384415
31
0.0
0
LINE
8
0
6
CONTINUOUS
10
42.098050
20
2.461895
30
0.0
11
46.617070
21
2.640205
31
0.0
0
LINE
8
0
6
CONTINUOUS
10
46.617070
20
2.640205
30
0.0
11
50.815500
21
3.226995
31
0.0
0
LINE
8
0
6
CONTINUOUS
10
50.815500
20
3.226995
30
0.0
11
54.417540
21
4.134495
31
0.0
0
LINE
8
0
6
CONTINUOUS
10
54.417540
20
4.134495
30
0.0
11
57.236160
21
5.300355
31
0.0
0
LINE
8
0
6
CONTINUOUS
10
57.236160
20
5.300355
30
0.0
11
58.866720
21
6.513185
31
0.0
0
LINE
8
0
6
CONTINUOUS
10
58.866720
20
6.513185
30
0.0
11
59.723460
21
7.580275
31
0.0
0
LINE
8
0
6
CONTINUOUS
10
59.723460
20
7.580275
30
0.0
11
59.969720
21
8.014945
31
0.0
0
LINE
8
0
6
CONTINUOUS
10
-59.969710
20
8.015365
30
0.0
11
-59.723490
21
7.581755
31
0.0
0
LINE
8
0
6
CONTINUOUS
10
-59.723490
20
7.581755
30
0.0
11
-58.866820
21
6.514415
31
0.0
0
LINE
8
0
6
CONTINUOUS
10
-58.866820
20
6.514415
30
0.0
11
-57.236610
21
5.300485
31
0.0
0
LINE
8
0
6
CONTINUOUS
10
-57.236610
20
5.300485
30
0.0
11
-54.418200
21
4.134715
31
0.0
0
LINE
8
0
6
CONTINUOUS
10
-54.418200
20
4.134715
30
0.0
11
-50.816510
21
3.226025
31
0.0
0
LINE
8
0
6
CONTINUOUS
10
-50.816510
20
3.226025
30
0.0
11
-46.616560
21
2.655505
31
0.0
0
LINE
8
0
6
CONTINUOUS
10
-46.616560
20
2.655505
30
0.0
11
-42.098040
21
2.461895
31
0.0
0
LINE
8
0
6
CONTINUOUS
10
-59.976740
20
8.249825
30
0.0
11
-59.985550
21
8.165235
31
0.0
0
LINE
8
0
6
CONTINUOUS
10
59.985550
20
8.165315
30
0.0
11
59.976740
21
8.249825
31
0.0
0
LINE
8
0
6
CONTINUOUS
10
-42.098040
20
2.461895
30
0.0
11
42.098050
21
2.461895
31
0.0
0
LINE
8
0
6
CONTINUOUS
10
59.969720
20
8.014945
30
0.0
11
59.985550
21
8.165315
31
0.0
0
LINE
8
0
6
CONTINUOUS
10
-59.985550
20
8.165235
30
0.0
11
-59.969710
21
8.015365
31
0.0
0
LINE
8
0
6
CONTINUOUS
10
-59.976730
20
8.349655
30
0.0
11
-59.976740
21
8.249825
31
0.0
0
LINE
8
0
6
CONTINUOUS
10
-59.611390
20
8.349655
30
0.0
11
-59.976730
21
8.349655
31
0.0
0
LINE
8
0
6
CONTINUOUS
10
59.976740
20
8.349655
30
0.0
11
59.611390
21
8.349655
31
0.0
0
LINE
8
0
6
CONTINUOUS
10
59.976740
20
8.249825
30
0.0
11
59.976740
21
8.349655
31
0.0
0
LINE
8
0
6
CONTINUOUS
10
-49.966030
20
8.836575
30
0.0
11
-46.914110
21
8.836575
31
0.0
0
LINE
8
0
6
CONTINUOUS
10
-41.987450
20
8.836575
30
0.0
11
41.987460
21
8.836575
31
0.0
0
LINE
8
0
6
CONTINUOUS
10
-52.217760
20
8.836575
30
0.0
11
-49.966030
21
8.836575
31
0.0
0
LINE
8
0
6
CONTINUOUS
10
46.914150
20
8.836575
30
0.0
11
49.965910
21
8.836575
31
0.0
0
LINE
8
0
6
CONTINUOUS
10
-53.342150
20
8.836575
30
0.0
11
-52.217760
21
8.836575
31
0.0
0
LINE
8
0
6
CONTINUOUS
10
-53.944600
20
31.850165
30
0.0
11
-53.342150
21
8.836575
31
0.0
0
LINE
8
0
6
CONTINUOUS
10
-52.217760
20
8.836575
30
0.0
11
-52.760480
21
31.850165
31
0.0
0
LINE
8
0
6
CONTINUOUS
10
49.965910
20
8.836575
30
0.0
11
52.217700
21
8.836575
31
0.0
0
LINE
8
0
6
CONTINUOUS
10
53.342080
20
8.836575
30
0.0
11
53.944600
21
31.850165
31
0.0
0
LINE
8
0
6
CONTINUOUS
10
52.217700
20
8.836575
30
0.0
11
53.342080
21
8.836575
31
0.0
0
LINE
8
0
6
CONTINUOUS
10
52.760490
20
31.850165
30
0.0
11
52.217700
21
8.836575
31
0.0
0
LINE
8
0
6
CONTINUOUS
10
-46.914110
20
8.836575
30
0.0
11
-41.987450
21
8.836575
31
0.0
0
LINE
8
0
6
CONTINUOUS
10
-47.175550
20
31.850165
30
0.0
11
-46.914110
21
8.836575
31
0.0
0
LINE
8
0
6
CONTINUOUS
10
41.987460
20
8.836575
30
0.0
11
46.914150
21
8.836575
31
0.0
0
LINE
8
0
6
CONTINUOUS
10
46.914150
20
8.836575
30
0.0
11
47.175560
21
31.850165
31
0.0
0
LINE
8
0
6
CONTINUOUS
10
47.192590
20
33.349665
30
0.0
11
41.986890
21
33.349665
31
0.0
0
LINE
8
0
6
CONTINUOUS
10
-47.192580
20
33.349665
30
0.0
11
-50.416790
21
33.349665
31
0.0
0
LINE
8
0
6
CONTINUOUS
10
-53.983860
20
33.349665
30
0.0
11
-53.944600
21
31.850165
31
0.0
0
LINE
8
0
6
CONTINUOUS
10
-52.795840
20
33.349665
30
0.0
11
-53.983860
21
33.349665
31
0.0
0
LINE
8
0
6
CONTINUOUS
10
-47.192580
20
33.349665
30
0.0
11
-47.175550
21
31.850165
31
0.0
0
LINE
8
0
6
CONTINUOUS
10
-41.987450
20
33.349665
30
0.0
11
-47.192580
21
33.349665
31
0.0
0
LINE
8
0
6
CONTINUOUS
10
52.795860
20
33.349665
30
0.0
11
50.416520
21
33.349665
31
0.0
0
LINE
8
0
6
CONTINUOUS
10
53.944600
20
31.850165
30
0.0
11
53.983860
21
33.349665
31
0.0
0
LINE
8
0
6
CONTINUOUS
10
52.795860
20
33.349665
30
0.0
11
52.760490
21
31.850165
31
0.0
0
LINE
8
0
6
CONTINUOUS
10
53.983860
20
33.349665
30
0.0
11
52.795860
21
33.349665
31
0.0
0
LINE
8
0
6
CONTINUOUS
10
41.986890
20
33.349665
30
0.0
11
-41.987450
21
33.349665
31
0.0
0
LINE
8
0
6
CONTINUOUS
10
47.192590
20
33.349665
30
0.0
11
47.175560
21
31.850165
31
0.0
0
LINE
8
0
6
CONTINUOUS
10
50.416520
20
33.349665
30
0.0
11
47.192590
21
33.349665
31
0.0
0
LINE
8
0
6
CONTINUOUS
10
-52.795840
20
33.349665
30
0.0
11
-52.760480
21
31.850165
31
0.0
0
LINE
8
0
6
CONTINUOUS
10
-50.416790
20
33.349665
30
0.0
11
-52.795840
21
33.349665
31
0.0
0
ENDSEC
0
EOF
