999
Erzeugt mit innoplus bad 
0
SECTION
2
HEADER
9
$ACADVER
1
AC1009
9
$DWGCODEPAGE
3
ISO8859-1
0
ENDSEC
0
SECTION
2
TABLES
0
TABLE
2
LAYER
70
1
0
LAYER
2
0
70
0
62
7
6
CONTINUOUS
0
ENDTAB
0
ENDSEC
0
SECTION
2
ENTITIES
0
LINE
8
0
6
CONTINUOUS
10
-11.350345
20
-46.649635
30
0.0
11
-10.352965
21
-46.649635
31
0.0
0
LINE
8
0
6
CONTINUOUS
10
0.547045
20
-46.649635
30
0.0
11
1.349649
21
-46.649635
31
0.0
0
LINE
8
0
6
CONTINUOUS
10
1.349653
20
14.646375
30
0.0
11
0.547035
21
14.646375
31
0.0
0
LINE
8
0
6
CONTINUOUS
10
-10.352955
20
14.646375
30
0.0
11
-11.350345
21
14.646375
31
0.0
0
LINE
8
0
6
CONTINUOUS
10
-11.350345
20
-3.861245
30
0.0
11
-11.350345
21
1.774645
31
0.0
0
LINE
8
0
6
CONTINUOUS
10
-11.350355
20
-47.875295
30
0.0
11
-11.350335
21
-46.084905
31
0.0
0
LINE
8
0
6
CONTINUOUS
10
-11.350345
20
1.774645
30
0.0
11
-11.350345
21
6.727375
31
0.0
0
LINE
8
0
6
CONTINUOUS
10
-11.350345
20
-22.620175
30
0.0
11
-11.350345
21
-16.297285
31
0.0
0
LINE
8
0
6
CONTINUOUS
10
-11.350345
20
-39.149215
30
0.0
11
-11.350345
21
-34.269815
31
0.0
0
LINE
8
0
6
CONTINUOUS
10
-11.350345
20
-16.297285
30
0.0
11
-11.350345
21
-9.963485
31
0.0
0
LINE
8
0
6
CONTINUOUS
10
-11.350345
20
-43.138145
30
0.0
11
-11.350345
21
-39.149215
31
0.0
0
LINE
8
0
6
CONTINUOUS
10
-11.350345
20
10.806165
30
0.0
11
-11.350345
21
13.854985
31
0.0
0
LINE
8
0
6
CONTINUOUS
10
-11.350345
20
13.854985
30
0.0
11
-11.350345
21
15.756505
31
0.0
0
LINE
8
0
6
CONTINUOUS
10
-11.350355
20
-48.440825
30
0.0
11
-11.350355
21
-47.875295
31
0.0
0
LINE
8
0
6
CONTINUOUS
10
-11.759085
20
-48.435315
30
0.0
11
-11.350355
21
-48.440825
31
0.0
0
LINE
8
0
6
CONTINUOUS
10
-11.350345
20
6.727375
30
0.0
11
-11.350345
21
10.806165
31
0.0
0
LINE
8
0
6
CONTINUOUS
10
-11.350345
20
16.437565
30
0.0
11
-11.759075
21
16.432055
31
0.0
0
LINE
8
0
6
CONTINUOUS
10
-11.350345
20
15.756505
30
0.0
11
-11.350345
21
16.437565
31
0.0
0
LINE
8
0
6
CONTINUOUS
10
-11.350345
20
-34.269815
30
0.0
11
-11.350345
21
-28.688745
31
0.0
0
LINE
8
0
6
CONTINUOUS
10
-11.350345
20
-9.963485
30
0.0
11
-11.350345
21
-3.861245
31
0.0
0
LINE
8
0
6
CONTINUOUS
10
-11.350345
20
-28.688745
30
0.0
11
-11.350345
21
-22.620175
31
0.0
0
LINE
8
0
6
CONTINUOUS
10
-11.350345
20
-43.138145
30
0.0
11
-11.350335
21
-46.084905
31
0.0
0
LINE
8
0
6
CONTINUOUS
10
-33.349655
20
-22.559675
30
0.0
11
-33.349655
21
-28.572785
31
0.0
0
LINE
8
0
6
CONTINUOUS
10
-33.349655
20
-3.972205
30
0.0
11
-33.349655
21
-10.018685
31
0.0
0
LINE
8
0
6
CONTINUOUS
10
-33.349655
20
-42.890115
30
0.0
11
-33.349645
21
-45.809925
31
0.0
0
LINE
8
0
6
CONTINUOUS
10
-33.349655
20
-28.572785
30
0.0
11
-33.349655
21
-34.102845
31
0.0
0
LINE
8
0
6
CONTINUOUS
10
-32.637285
20
16.150665
30
0.0
11
-33.349655
21
16.141055
31
0.0
0
LINE
8
0
6
CONTINUOUS
10
-33.349655
20
16.141055
30
0.0
11
-33.349655
21
15.466225
31
0.0
0
LINE
8
0
6
CONTINUOUS
10
-33.349655
20
10.561135
30
0.0
11
-33.349655
21
6.519625
31
0.0
0
LINE
8
0
6
CONTINUOUS
10
-33.349655
20
-47.583945
30
0.0
11
-33.349665
21
-48.144325
31
0.0
0
LINE
8
0
6
CONTINUOUS
10
-33.349665
20
-48.144325
30
0.0
11
-32.637295
21
-48.153925
31
0.0
0
LINE
8
0
6
CONTINUOUS
10
-33.349655
20
15.466225
30
0.0
11
-33.349655
21
13.582085
31
0.0
0
LINE
8
0
6
CONTINUOUS
10
-33.349655
20
13.582085
30
0.0
11
-33.349655
21
10.561135
31
0.0
0
LINE
8
0
6
CONTINUOUS
10
-33.349655
20
-38.937645
30
0.0
11
-33.349655
21
-42.890115
31
0.0
0
LINE
8
0
6
CONTINUOUS
10
-33.349655
20
-10.018685
30
0.0
11
-33.349655
21
-16.294575
31
0.0
0
LINE
8
0
6
CONTINUOUS
10
-33.349655
20
-34.102845
30
0.0
11
-33.349655
21
-38.937645
31
0.0
0
LINE
8
0
6
CONTINUOUS
10
-33.349655
20
-16.294575
30
0.0
11
-33.349655
21
-22.559675
31
0.0
0
LINE
8
0
6
CONTINUOUS
10
-33.349655
20
6.519625
30
0.0
11
-33.349655
21
1.612165
31
0.0
0
LINE
8
0
6
CONTINUOUS
10
-33.349645
20
-45.809925
30
0.0
11
-33.349655
21
-47.583945
31
0.0
0
LINE
8
0
6
CONTINUOUS
10
-33.349655
20
1.612165
30
0.0
11
-33.349655
21
-3.972205
31
0.0
0
LINE
8
0
6
CONTINUOUS
10
-11.759075
20
16.432055
30
0.0
11
-32.637285
21
16.150665
31
0.0
0
LINE
8
0
6
CONTINUOUS
10
-32.637295
20
-48.153925
30
0.0
11
-11.759085
21
-48.435315
31
0.0
0
LINE
8
0
6
CONTINUOUS
10
-4.902965
20
16.497955
30
0.0
11
-9.994295
21
16.497955
31
0.0
0
LINE
8
0
6
CONTINUOUS
10
-10.352965
20
-13.866885
30
0.0
11
-10.352955
21
-18.135915
31
0.0
0
LINE
8
0
6
CONTINUOUS
10
-9.994305
20
-48.501025
30
0.0
11
-4.902965
21
-48.501035
31
0.0
0
LINE
8
0
6
CONTINUOUS
10
0.547035
20
-18.135915
30
0.0
11
0.547035
21
-13.866885
31
0.0
0
LINE
8
0
6
CONTINUOUS
10
-10.352955
20
5.788235
30
0.0
11
-10.352965
21
3.208015
31
0.0
0
LINE
8
0
6
CONTINUOUS
10
-10.352955
20
-11.234915
30
0.0
11
-10.352965
21
-12.186815
31
0.0
0
LINE
8
0
6
CONTINUOUS
10
-10.352965
20
-12.903165
30
0.0
11
-10.352965
21
-13.347905
31
0.0
0
LINE
8
0
6
CONTINUOUS
10
-10.352965
20
-5.621805
30
0.0
11
-10.352955
21
-8.825115
31
0.0
0
LINE
8
0
6
CONTINUOUS
10
-10.352955
20
-18.654835
30
0.0
11
-10.352955
21
-19.099555
31
0.0
0
LINE
8
0
6
CONTINUOUS
10
-10.352965
20
-20.767835
30
0.0
11
-10.352965
21
-21.907485
31
0.0
0
LINE
8
0
6
CONTINUOUS
10
-10.352965
20
-29.476325
30
0.0
11
-10.352955
21
-32.429445
31
0.0
0
LINE
8
0
6
CONTINUOUS
10
-10.352955
20
-32.429445
30
0.0
11
-10.352955
21
-35.211725
31
0.0
0
LINE
8
0
6
CONTINUOUS
10
-10.352955
20
14.810965
30
0.0
11
-10.352955
21
13.592135
31
0.0
0
LINE
8
0
6
CONTINUOUS
10
-10.352955
20
13.592135
30
0.0
11
-10.352955
21
12.062015
31
0.0
0
LINE
8
0
6
CONTINUOUS
10
-10.352955
20
12.062015
30
0.0
11
-10.352965
21
10.239135
31
0.0
0
LINE
8
0
6
CONTINUOUS
10
-10.352965
20
-46.814085
30
0.0
11
-10.352965
21
-47.711325
31
0.0
0
LINE
8
0
6
CONTINUOUS
10
-10.352965
20
-45.595205
30
0.0
11
-10.352965
21
-46.814085
31
0.0
0
LINE
8
0
6
CONTINUOUS
10
-10.352965
20
-23.177805
30
0.0
11
-10.352955
21
-26.381645
31
0.0
0
LINE
8
0
6
CONTINUOUS
10
-10.352965
20
-47.711325
30
0.0
11
-10.352965
21
-48.274905
31
0.0
0
LINE
8
0
6
CONTINUOUS
10
-10.352965
20
-48.501025
30
0.0
11
-9.994305
21
-48.501025
31
0.0
0
LINE
8
0
6
CONTINUOUS
10
-10.352965
20
-48.274905
30
0.0
11
-10.352965
21
-48.501025
31
0.0
0
LINE
8
0
6
CONTINUOUS
10
-10.352965
20
10.239135
30
0.0
11
-10.352965
21
8.140005
31
0.0
0
LINE
8
0
6
CONTINUOUS
10
-10.352965
20
16.497955
30
0.0
11
-10.352965
21
16.271455
31
0.0
0
LINE
8
0
6
CONTINUOUS
10
-9.994295
20
16.497955
30
0.0
11
-10.352965
21
16.497955
31
0.0
0
LINE
8
0
6
CONTINUOUS
10
-10.352965
20
16.271455
30
0.0
11
-10.352965
21
15.707485
31
0.0
0
LINE
8
0
6
CONTINUOUS
10
-10.352965
20
15.707485
30
0.0
11
-10.352955
21
14.810965
31
0.0
0
LINE
8
0
6
CONTINUOUS
10
-10.352965
20
3.208015
30
0.0
11
-10.352965
21
0.426735
31
0.0
0
LINE
8
0
6
CONTINUOUS
10
-10.352955
20
-2.526455
30
0.0
11
-10.352965
21
-5.621805
31
0.0
0
LINE
8
0
6
CONTINUOUS
10
-10.352955
20
-8.825115
30
0.0
11
-10.352955
21
-10.095265
31
0.0
0
LINE
8
0
6
CONTINUOUS
10
-10.352965
20
-13.347905
30
0.0
11
-10.352965
21
-13.498735
31
0.0
0
LINE
8
0
6
CONTINUOUS
10
-10.352965
20
-12.186815
30
0.0
11
-10.352965
21
-12.903165
31
0.0
0
LINE
8
0
6
CONTINUOUS
10
-10.352955
20
-10.095265
30
0.0
11
-10.352955
21
-11.234915
31
0.0
0
LINE
8
0
6
CONTINUOUS
10
-10.352955
20
-18.504055
30
0.0
11
-10.352955
21
-18.654835
31
0.0
0
LINE
8
0
6
CONTINUOUS
10
-10.352955
20
-19.099555
30
0.0
11
-10.352955
21
-19.815875
31
0.0
0
LINE
8
0
6
CONTINUOUS
10
-10.352965
20
-21.907485
30
0.0
11
-10.352965
21
-23.177805
31
0.0
0
LINE
8
0
6
CONTINUOUS
10
-10.352955
20
-40.142885
30
0.0
11
-10.352955
21
-42.241795
31
0.0
0
LINE
8
0
6
CONTINUOUS
10
-10.352965
20
-44.065405
30
0.0
11
-10.352965
21
-45.595205
31
0.0
0
LINE
8
0
6
CONTINUOUS
10
-10.352965
20
-37.791315
30
0.0
11
-10.352955
21
-40.142885
31
0.0
0
LINE
8
0
6
CONTINUOUS
10
0.547035
20
5.788235
30
0.0
11
0.547035
21
8.140005
31
0.0
0
LINE
8
0
6
CONTINUOUS
10
0.547035
20
3.208005
30
0.0
11
0.547035
21
5.788235
31
0.0
0
LINE
8
0
6
CONTINUOUS
10
0.547035
20
-12.186815
30
0.0
11
0.547035
21
-11.234915
31
0.0
0
LINE
8
0
6
CONTINUOUS
10
0.547035
20
-13.347905
30
0.0
11
0.547035
21
-12.903165
31
0.0
0
LINE
8
0
6
CONTINUOUS
10
0.547035
20
-8.825115
30
0.0
11
0.547035
21
-5.621815
31
0.0
0
LINE
8
0
6
CONTINUOUS
10
0.547035
20
-19.099555
30
0.0
11
0.547035
21
-18.654835
31
0.0
0
LINE
8
0
6
CONTINUOUS
10
0.547035
20
-21.907485
30
0.0
11
0.547035
21
-20.767835
31
0.0
0
LINE
8
0
6
CONTINUOUS
10
0.547035
20
-32.429445
30
0.0
11
0.547045
21
-29.476325
31
0.0
0
LINE
8
0
6
CONTINUOUS
10
0.547035
20
-35.211725
30
0.0
11
0.547035
21
-32.429445
31
0.0
0
LINE
8
0
6
CONTINUOUS
10
0.547035
20
-37.791315
30
0.0
11
0.547035
21
-35.211725
31
0.0
0
LINE
8
0
6
CONTINUOUS
10
0.547045
20
-44.065405
30
0.0
11
0.547045
21
-42.241795
31
0.0
0
LINE
8
0
6
CONTINUOUS
10
0.547035
20
13.592135
30
0.0
11
0.547035
21
14.810965
31
0.0
0
LINE
8
0
6
CONTINUOUS
10
0.547035
20
12.062015
30
0.0
11
0.547035
21
13.592135
31
0.0
0
LINE
8
0
6
CONTINUOUS
10
0.547035
20
10.239135
30
0.0
11
0.547035
21
12.062015
31
0.0
0
LINE
8
0
6
CONTINUOUS
10
0.547045
20
-47.711325
30
0.0
11
0.547045
21
-46.814085
31
0.0
0
LINE
8
0
6
CONTINUOUS
10
0.547045
20
-46.814085
30
0.0
11
0.547045
21
-45.595205
31
0.0
0
LINE
8
0
6
CONTINUOUS
10
0.547045
20
-26.381645
30
0.0
11
0.547035
21
-23.177805
31
0.0
0
LINE
8
0
6
CONTINUOUS
10
0.547045
20
-48.274905
30
0.0
11
0.547045
21
-47.711325
31
0.0
0
LINE
8
0
6
CONTINUOUS
10
0.547045
20
-48.501035
30
0.0
11
0.547045
21
-48.274905
31
0.0
0
LINE
8
0
6
CONTINUOUS
10
0.188375
20
-48.501035
30
0.0
11
0.547045
21
-48.501035
31
0.0
0
LINE
8
0
6
CONTINUOUS
10
0.547035
20
8.140005
30
0.0
11
0.547035
21
10.239135
31
0.0
0
LINE
8
0
6
CONTINUOUS
10
0.547035
20
16.497955
30
0.0
11
0.188375
21
16.497955
31
0.0
0
LINE
8
0
6
CONTINUOUS
10
0.547035
20
16.271455
30
0.0
11
0.547035
21
16.497955
31
0.0
0
LINE
8
0
6
CONTINUOUS
10
0.547035
20
15.707485
30
0.0
11
0.547035
21
16.271455
31
0.0
0
LINE
8
0
6
CONTINUOUS
10
0.547035
20
14.810965
30
0.0
11
0.547035
21
15.707485
31
0.0
0
LINE
8
0
6
CONTINUOUS
10
0.547035
20
0.426735
30
0.0
11
0.547035
21
3.208005
31
0.0
0
LINE
8
0
6
CONTINUOUS
10
0.547035
20
-5.621815
30
0.0
11
0.547035
21
-2.526455
31
0.0
0
LINE
8
0
6
CONTINUOUS
10
0.547035
20
-2.526455
30
0.0
11
0.547035
21
0.426735
31
0.0
0
LINE
8
0
6
CONTINUOUS
10
0.547035
20
-10.095265
30
0.0
11
0.547035
21
-8.825115
31
0.0
0
LINE
8
0
6
CONTINUOUS
10
0.547035
20
-13.498735
30
0.0
11
0.547035
21
-13.347905
31
0.0
0
LINE
8
0
6
CONTINUOUS
10
0.547035
20
-12.903165
30
0.0
11
0.547035
21
-12.186815
31
0.0
0
LINE
8
0
6
CONTINUOUS
10
0.547035
20
-11.234915
30
0.0
11
0.547035
21
-10.095265
31
0.0
0
LINE
8
0
6
CONTINUOUS
10
0.547035
20
-18.654835
30
0.0
11
0.547035
21
-18.504055
31
0.0
0
LINE
8
0
6
CONTINUOUS
10
0.547035
20
-19.815875
30
0.0
11
0.547035
21
-19.099555
31
0.0
0
LINE
8
0
6
CONTINUOUS
10
0.547035
20
-20.767835
30
0.0
11
0.547035
21
-19.815875
31
0.0
0
LINE
8
0
6
CONTINUOUS
10
0.547035
20
-23.177805
30
0.0
11
0.547035
21
-21.907485
31
0.0
0
LINE
8
0
6
CONTINUOUS
10
0.547045
20
-29.476325
30
0.0
11
0.547045
21
-26.381645
31
0.0
0
LINE
8
0
6
CONTINUOUS
10
0.547045
20
-42.241795
30
0.0
11
0.547045
21
-40.142885
31
0.0
0
LINE
8
0
6
CONTINUOUS
10
0.547045
20
-45.595205
30
0.0
11
0.547045
21
-44.065405
31
0.0
0
LINE
8
0
6
CONTINUOUS
10
-4.902965
20
-48.501035
30
0.0
11
0.188375
21
-48.501035
31
0.0
0
LINE
8
0
6
CONTINUOUS
10
0.188375
20
16.497955
30
0.0
11
-4.902965
21
16.497955
31
0.0
0
LINE
8
0
6
CONTINUOUS
10
-10.352955
20
5.788235
30
0.0
11
-10.352965
21
8.140005
31
0.0
0
LINE
8
0
6
CONTINUOUS
10
-9.183505
20
-13.488485
30
0.0
11
-9.808075
21
-13.493935
31
0.0
0
LINE
8
0
6
CONTINUOUS
10
-8.360965
20
-13.481295
30
0.0
11
-9.183505
21
-13.488485
31
0.0
0
LINE
8
0
6
CONTINUOUS
10
-9.808075
20
-13.493935
30
0.0
11
-10.204115
21
-13.497405
31
0.0
0
LINE
8
0
6
CONTINUOUS
10
-10.225715
20
-18.505215
30
0.0
11
-9.850505
21
-18.508485
31
0.0
0
LINE
8
0
6
CONTINUOUS
10
-9.850505
20
-18.508485
30
0.0
11
-9.245415
21
-18.513805
31
0.0
0
LINE
8
0
6
CONTINUOUS
10
-8.438425
20
-18.520765
30
0.0
11
-7.470195
21
-18.529255
31
0.0
0
LINE
8
0
6
CONTINUOUS
10
-10.352965
20
-37.791315
30
0.0
11
-10.352955
21
-35.211725
31
0.0
0
LINE
8
0
6
CONTINUOUS
10
-10.352965
20
-44.065405
30
0.0
11
-10.352955
21
-42.241795
31
0.0
0
LINE
8
0
6
CONTINUOUS
10
-7.382925
20
-13.472735
30
0.0
11
-8.360965
21
-13.481295
31
0.0
0
LINE
8
0
6
CONTINUOUS
10
-10.352965
20
-13.498775
30
0.0
11
-10.353135
21
-13.866915
31
0.0
0
LINE
8
0
6
CONTINUOUS
10
-10.204115
20
-13.497405
30
0.0
11
-10.352965
21
-13.498775
31
0.0
0
LINE
8
0
6
CONTINUOUS
10
-6.174275
20
-13.462335
30
0.0
11
-7.382925
21
-13.472735
31
0.0
0
LINE
8
0
6
CONTINUOUS
10
-10.352955
20
-2.526455
30
0.0
11
-10.352965
21
0.426735
31
0.0
0
LINE
8
0
6
CONTINUOUS
10
-10.352965
20
-20.767835
30
0.0
11
-10.352955
21
-19.815875
31
0.0
0
LINE
8
0
6
CONTINUOUS
10
-9.245415
20
-18.513805
30
0.0
11
-8.438425
21
-18.520765
31
0.0
0
LINE
8
0
6
CONTINUOUS
10
-10.352955
20
-18.504085
30
0.0
11
-10.225715
21
-18.505215
31
0.0
0
LINE
8
0
6
CONTINUOUS
10
-7.470195
20
-18.529255
30
0.0
11
-6.221785
21
-18.539985
31
0.0
0
LINE
8
0
6
CONTINUOUS
10
-10.352965
20
-29.476325
30
0.0
11
-10.352955
21
-26.381645
31
0.0
0
LINE
8
0
6
CONTINUOUS
10
0.002155
20
-13.493935
30
0.0
11
-0.622415
21
-13.488485
31
0.0
0
LINE
8
0
6
CONTINUOUS
10
-0.622415
20
-13.488485
30
0.0
11
-1.444955
21
-13.481295
31
0.0
0
LINE
8
0
6
CONTINUOUS
10
0.398195
20
-13.497405
30
0.0
11
0.002155
21
-13.493935
31
0.0
0
LINE
8
0
6
CONTINUOUS
10
0.044575
20
-18.508485
30
0.0
11
0.419805
21
-18.505215
31
0.0
0
LINE
8
0
6
CONTINUOUS
10
-0.560505
20
-18.513805
30
0.0
11
0.044575
21
-18.508485
31
0.0
0
LINE
8
0
6
CONTINUOUS
10
-2.335735
20
-18.529255
30
0.0
11
-1.367495
21
-18.520765
31
0.0
0
LINE
8
0
6
CONTINUOUS
10
-1.444955
20
-13.481295
30
0.0
11
-2.422995
21
-13.472735
31
0.0
0
LINE
8
0
6
CONTINUOUS
10
0.547035
20
-13.498775
30
0.0
11
0.398195
21
-13.497405
31
0.0
0
LINE
8
0
6
CONTINUOUS
10
0.547215
20
-13.866915
30
0.0
11
0.547035
21
-13.498775
31
0.0
0
LINE
8
0
6
CONTINUOUS
10
-2.422995
20
-13.472735
30
0.0
11
-3.631645
21
-13.462335
31
0.0
0
LINE
8
0
6
CONTINUOUS
10
-1.367495
20
-18.520765
30
0.0
11
-0.560505
21
-18.513805
31
0.0
0
LINE
8
0
6
CONTINUOUS
10
0.419805
20
-18.505215
30
0.0
11
0.547035
21
-18.504085
31
0.0
0
LINE
8
0
6
CONTINUOUS
10
-3.584135
20
-18.539985
30
0.0
11
-2.335735
21
-18.529255
31
0.0
0
LINE
8
0
6
CONTINUOUS
10
-4.902965
20
-18.549455
30
0.0
11
-3.584135
21
-18.539985
31
0.0
0
LINE
8
0
6
CONTINUOUS
10
0.547035
20
-37.791315
30
0.0
11
0.547045
21
-40.142885
31
0.0
0
LINE
8
0
6
CONTINUOUS
10
-4.902965
20
-13.453335
30
0.0
11
-6.174275
21
-13.462335
31
0.0
0
LINE
8
0
6
CONTINUOUS
10
-6.221785
20
-18.539985
30
0.0
11
-4.902965
21
-18.549455
31
0.0
0
LINE
8
0
6
CONTINUOUS
10
-3.631645
20
-13.462335
30
0.0
11
-4.902965
21
-13.453335
31
0.0
0
LINE
8
0
6
CONTINUOUS
10
1.349655
20
43.995575
30
0.0
11
1.349655
21
43.089875
31
0.0
0
LINE
8
0
6
CONTINUOUS
10
2.043205
20
43.995575
30
0.0
11
1.349655
21
43.995575
31
0.0
0
LINE
8
0
6
CONTINUOUS
10
1.349645
20
-101.716645
30
0.0
11
1.349645
21
-107.212005
31
0.0
0
LINE
8
0
6
CONTINUOUS
10
1.349645
20
-107.212005
30
0.0
11
1.349645
21
-112.169445
31
0.0
0
LINE
8
0
6
CONTINUOUS
10
1.349645
20
-112.169445
30
0.0
11
1.349645
21
-116.103695
31
0.0
0
LINE
8
0
6
CONTINUOUS
10
1.349645
20
-116.103695
30
0.0
11
1.349645
21
-118.629635
31
0.0
0
LINE
8
0
6
CONTINUOUS
10
1.349645
20
-119.499995
30
0.0
11
2.043175
21
-119.499995
31
0.0
0
LINE
8
0
6
CONTINUOUS
10
1.349645
20
-118.629635
30
0.0
11
1.349645
21
-119.499995
31
0.0
0
LINE
8
0
6
CONTINUOUS
10
8.349645
20
-119.499995
30
0.0
11
8.349645
21
-118.629635
31
0.0
0
LINE
8
0
6
CONTINUOUS
10
7.656105
20
-119.499995
30
0.0
11
8.349645
21
-119.499995
31
0.0
0
LINE
8
0
6
CONTINUOUS
10
2.043175
20
-119.499995
30
0.0
11
7.656105
21
-119.499995
31
0.0
0
LINE
8
0
6
CONTINUOUS
10
8.349645
20
-118.629635
30
0.0
11
8.349645
21
-116.103695
31
0.0
0
LINE
8
0
6
CONTINUOUS
10
8.349645
20
-116.103695
30
0.0
11
8.349645
21
-112.169445
31
0.0
0
LINE
8
0
6
CONTINUOUS
10
8.349645
20
-112.169445
30
0.0
11
8.349645
21
-107.212005
31
0.0
0
LINE
8
0
6
CONTINUOUS
10
8.349645
20
-107.212005
30
0.0
11
8.349645
21
-101.716645
31
0.0
0
LINE
8
0
6
CONTINUOUS
10
8.349655
20
43.995575
30
0.0
11
7.656135
21
43.995575
31
0.0
0
LINE
8
0
6
CONTINUOUS
10
8.349655
20
43.089875
30
0.0
11
8.349655
21
43.995575
31
0.0
0
LINE
8
0
6
CONTINUOUS
10
7.656135
20
43.995575
30
0.0
11
2.043205
21
43.995575
31
0.0
0
LINE
8
0
6
CONTINUOUS
10
8.349645
20
-101.716645
30
0.0
11
8.349655
21
43.089875
31
0.0
0
LINE
8
0
6
CONTINUOUS
10
1.349655
20
43.089875
30
0.0
11
1.349645
21
-101.716645
31
0.0
0
LINE
8
0
6
CONTINUOUS
10
0.126395
20
110.468795
30
0.0
11
0.133075
21
110.389315
31
0.0
0
LINE
8
0
6
CONTINUOUS
10
0.188685
20
110.121275
30
0.0
11
0.126395
21
110.468795
31
0.0
0
LINE
8
0
6
CONTINUOUS
10
0.133075
20
110.389315
30
0.0
11
0.157865
21
110.092325
31
0.0
0
LINE
8
0
6
CONTINUOUS
10
0.083505
20
109.846965
30
0.0
11
0.094875
21
109.712185
31
0.0
0
LINE
8
0
6
CONTINUOUS
10
0.188685
20
110.121275
30
0.0
11
0.083505
21
109.846965
31
0.0
0
LINE
8
0
6
CONTINUOUS
10
0.200365
20
109.982215
30
0.0
11
0.188685
21
110.121275
31
0.0
0
LINE
8
0
6
CONTINUOUS
10
0.750185
20
99.934135
30
0.0
11
0.810625
21
98.671385
31
0.0
0
LINE
8
0
6
CONTINUOUS
10
0.937545
20
98.587905
30
0.0
11
0.875025
21
99.891055
31
0.0
0
LINE
8
0
6
CONTINUOUS
10
0.369665
20
106.182985
30
0.0
11
0.448985
21
105.045985
31
0.0
0
LINE
8
0
6
CONTINUOUS
10
0.564445
20
105.166535
30
0.0
11
0.482825
21
106.339915
31
0.0
0
LINE
8
0
6
CONTINUOUS
10
1.001765
20
93.463725
30
0.0
11
1.009175
21
93.191505
31
0.0
0
LINE
8
0
6
CONTINUOUS
10
0.529315
20
103.822475
30
0.0
11
0.607865
21
102.541455
31
0.0
0
LINE
8
0
6
CONTINUOUS
10
0.728115
20
102.581855
30
0.0
11
0.647165
21
103.903855
31
0.0
0
LINE
8
0
6
CONTINUOUS
10
0.968435
20
94.587175
30
0.0
11
0.988365
21
93.932865
31
0.0
0
LINE
8
0
6
CONTINUOUS
10
0.682135
20
101.234395
30
0.0
11
0.750185
21
99.934135
31
0.0
0
LINE
8
0
6
CONTINUOUS
10
0.875025
20
99.891055
30
0.0
11
0.804745
21
101.232935
31
0.0
0
LINE
8
0
6
CONTINUOUS
10
0.862725
20
97.477575
30
0.0
11
0.906215
21
96.381235
31
0.0
0
LINE
8
0
6
CONTINUOUS
10
0.988365
20
93.932865
30
0.0
11
1.001765
21
93.463725
31
0.0
0
LINE
8
0
6
CONTINUOUS
10
0.941275
20
95.410095
30
0.0
11
0.968435
21
94.587175
31
0.0
0
LINE
8
0
6
CONTINUOUS
10
0.094875
20
109.712185
30
0.0
11
0.123495
21
109.368865
31
0.0
0
LINE
8
0
6
CONTINUOUS
10
0.229765
20
109.627945
30
0.0
11
0.200365
21
109.982215
31
0.0
0
LINE
8
0
6
CONTINUOUS
10
0.607865
20
102.541455
30
0.0
11
0.682135
21
101.234395
31
0.0
0
LINE
8
0
6
CONTINUOUS
10
0.804745
20
101.232935
30
0.0
11
0.728115
21
102.581855
31
0.0
0
LINE
8
0
6
CONTINUOUS
10
0.123495
20
109.368865
30
0.0
11
0.167935
21
108.826025
31
0.0
0
LINE
8
0
6
CONTINUOUS
10
0.275425
20
109.067725
30
0.0
11
0.229765
21
109.627945
31
0.0
0
LINE
8
0
6
CONTINUOUS
10
0.226845
20
108.086055
30
0.0
11
0.294575
21
107.204735
31
0.0
0
LINE
8
0
6
CONTINUOUS
10
0.405595
20
107.394355
30
0.0
11
0.335955
21
108.304185
31
0.0
0
LINE
8
0
6
CONTINUOUS
10
0.294575
20
107.204735
30
0.0
11
0.369665
21
106.182985
31
0.0
0
LINE
8
0
6
CONTINUOUS
10
0.482825
20
106.339915
30
0.0
11
0.405595
21
107.394355
31
0.0
0
LINE
8
0
6
CONTINUOUS
10
0.167935
20
108.826025
30
0.0
11
0.226845
21
108.086055
31
0.0
0
LINE
8
0
6
CONTINUOUS
10
0.335955
20
108.304185
30
0.0
11
0.275425
21
109.067725
31
0.0
0
LINE
8
0
6
CONTINUOUS
10
1.011015
20
93.123005
30
0.0
11
1.145875
21
92.862045
31
0.0
0
LINE
8
0
6
CONTINUOUS
10
1.009175
20
93.191505
30
0.0
11
1.011015
21
93.123005
31
0.0
0
LINE
8
0
6
CONTINUOUS
10
0.906215
20
96.381235
30
0.0
11
0.941275
21
95.410095
31
0.0
0
LINE
8
0
6
CONTINUOUS
10
0.448985
20
105.045985
30
0.0
11
0.529315
21
103.822475
31
0.0
0
LINE
8
0
6
CONTINUOUS
10
0.647165
20
103.903855
30
0.0
11
0.564445
21
105.166535
31
0.0
0
LINE
8
0
6
CONTINUOUS
10
0.810625
20
98.671385
30
0.0
11
0.862725
21
97.477575
31
0.0
0
LINE
8
0
6
CONTINUOUS
10
0.854865
20
94.831995
30
0.0
11
0.891305
21
94.178365
31
0.0
0
LINE
8
0
6
CONTINUOUS
10
0.914025
20
93.774915
30
0.0
11
0.922225
21
93.635235
31
0.0
0
LINE
8
0
6
CONTINUOUS
10
0.053925
20
109.407185
30
0.0
11
0.060495
21
109.278365
31
0.0
0
LINE
8
0
6
CONTINUOUS
10
0.290575
20
105.062815
30
0.0
11
0.364975
21
103.708035
31
0.0
0
LINE
8
0
6
CONTINUOUS
10
0.505655
20
103.814525
30
0.0
11
0.427915
21
105.230215
31
0.0
0
LINE
8
0
6
CONTINUOUS
10
0.060495
20
109.278365
30
0.0
11
0.081635
21
108.885345
31
0.0
0
LINE
8
0
6
CONTINUOUS
10
0.081635
20
108.885345
30
0.0
11
0.116615
21
108.241515
31
0.0
0
LINE
8
0
6
CONTINUOUS
10
0.364975
20
103.708035
30
0.0
11
0.443625
21
102.277785
31
0.0
0
LINE
8
0
6
CONTINUOUS
10
0.587845
20
102.319965
30
0.0
11
0.505655
21
103.814525
31
0.0
0
LINE
8
0
6
CONTINUOUS
10
0.805915
20
95.713365
30
0.0
11
0.854865
21
94.831995
31
0.0
0
LINE
8
0
6
CONTINUOUS
10
0.891305
20
94.178365
30
0.0
11
0.914025
21
93.774915
31
0.0
0
LINE
8
0
6
CONTINUOUS
10
0.677605
20
98.032825
30
0.0
11
0.746175
21
96.792475
31
0.0
0
LINE
8
0
6
CONTINUOUS
10
0.832355
20
97.884105
30
0.0
11
0.903995
21
96.587965
31
0.0
0
LINE
8
0
6
CONTINUOUS
10
0.116615
20
108.241515
30
0.0
11
0.164235
21
107.369065
31
0.0
0
LINE
8
0
6
CONTINUOUS
10
0.746175
20
96.792475
30
0.0
11
0.805915
21
95.713365
31
0.0
0
LINE
8
0
6
CONTINUOUS
10
0.523615
20
100.824735
30
0.0
11
0.602665
21
99.390705
31
0.0
0
LINE
8
0
6
CONTINUOUS
10
0.671435
20
100.801555
30
0.0
11
0.754035
21
99.303055
31
0.0
0
LINE
8
0
6
CONTINUOUS
10
0.602665
20
99.390705
30
0.0
11
0.677605
21
98.032825
31
0.0
0
LINE
8
0
6
CONTINUOUS
10
0.832355
20
97.884105
30
0.0
11
0.754035
21
99.303055
31
0.0
0
LINE
8
0
6
CONTINUOUS
10
0.222885
20
106.297305
30
0.0
11
0.290575
21
105.062815
31
0.0
0
LINE
8
0
6
CONTINUOUS
10
0.164235
20
107.369065
30
0.0
11
0.222885
21
106.297305
31
0.0
0
LINE
8
0
6
CONTINUOUS
10
0.671435
20
100.801555
30
0.0
11
0.587845
21
102.319965
31
0.0
0
LINE
8
0
6
CONTINUOUS
10
0.443625
20
102.277785
30
0.0
11
0.523615
21
100.824735
31
0.0
0
LINE
8
0
6
CONTINUOUS
10
8.349665
20
44.500925
30
0.0
11
8.349665
21
44.984365
31
0.0
0
LINE
8
0
6
CONTINUOUS
10
7.718985
20
44.500925
30
0.0
11
8.349665
21
44.500925
31
0.0
0
LINE
8
0
6
CONTINUOUS
10
-0.653475
20
119.499995
30
0.0
11
-0.597075
21
118.930025
31
0.0
0
LINE
8
0
6
CONTINUOUS
10
0.051395
20
119.499995
30
0.0
11
-0.653475
21
119.499995
31
0.0
0
LINE
8
0
6
CONTINUOUS
10
-0.597075
20
118.930025
30
0.0
11
-0.431485
21
117.256805
31
0.0
0
LINE
8
0
6
CONTINUOUS
10
-0.164995
20
114.589495
30
0.0
11
0.153535
21
111.099125
31
0.0
0
LINE
8
0
6
CONTINUOUS
10
0.153535
20
111.099125
30
0.0
11
0.488755
21
107.007525
31
0.0
0
LINE
8
0
6
CONTINUOUS
10
0.488755
20
107.007525
30
0.0
11
0.812755
21
102.574825
31
0.0
0
LINE
8
0
6
CONTINUOUS
10
0.812755
20
102.574825
30
0.0
11
0.971865
21
98.058965
31
0.0
0
LINE
8
0
6
CONTINUOUS
10
8.349655
20
84.502445
30
0.0
11
8.249825
21
89.069185
31
0.0
0
LINE
8
0
6
CONTINUOUS
10
3.328135
20
116.927715
30
0.0
11
2.578625
21
119.153655
31
0.0
0
LINE
8
0
6
CONTINUOUS
10
5.300355
20
111.166295
30
0.0
11
4.134495
21
114.575195
31
0.0
0
LINE
8
0
6
CONTINUOUS
10
4.134495
20
114.575195
30
0.0
11
3.226995
21
117.229125
31
0.0
0
LINE
8
0
6
CONTINUOUS
10
3.226995
20
117.229125
30
0.0
11
2.640205
21
118.918985
31
0.0
0
LINE
8
0
6
CONTINUOUS
10
2.461895
20
119.499995
30
0.0
11
1.831215
21
119.499995
31
0.0
0
LINE
8
0
6
CONTINUOUS
10
2.054525
20
44.500925
30
0.0
11
7.718985
21
44.500925
31
0.0
0
LINE
8
0
6
CONTINUOUS
10
1.349655
20
44.500925
30
0.0
11
2.054525
21
44.500925
31
0.0
0
LINE
8
0
6
CONTINUOUS
10
1.349655
20
44.984355
30
0.0
11
1.349655
21
44.500925
31
0.0
0
LINE
8
0
6
CONTINUOUS
10
1.092595
20
93.539175
30
0.0
11
1.221135
21
89.020805
31
0.0
0
LINE
8
0
6
CONTINUOUS
10
1.221135
20
89.020805
30
0.0
11
1.349655
21
84.502445
31
0.0
0
LINE
8
0
6
CONTINUOUS
10
1.831215
20
119.499995
30
0.0
11
0.051395
21
119.499995
31
0.0
0
LINE
8
0
6
CONTINUOUS
10
0.971865
20
98.058965
30
0.0
11
1.092595
21
93.539175
31
0.0
0
LINE
8
0
6
CONTINUOUS
10
2.461895
20
119.499995
30
0.0
11
2.640205
21
118.918985
31
0.0
0
LINE
8
0
6
CONTINUOUS
10
2.578625
20
119.153665
30
0.0
11
2.461895
21
119.499995
31
0.0
0
LINE
8
0
6
CONTINUOUS
10
2.753805
20
118.581985
30
0.0
11
2.578625
21
119.153665
31
0.0
0
LINE
8
0
6
CONTINUOUS
10
-0.164995
20
114.589495
30
0.0
11
-0.431485
21
117.256805
31
0.0
0
LINE
8
0
6
CONTINUOUS
10
5.300355
20
111.166295
30
0.0
11
6.513185
21
107.109945
31
0.0
0
LINE
8
0
6
CONTINUOUS
10
6.513185
20
107.109945
30
0.0
11
7.580275
21
102.731945
31
0.0
0
LINE
8
0
6
CONTINUOUS
10
7.580275
20
102.731945
30
0.0
11
8.014945
21
98.206515
31
0.0
0
LINE
8
0
6
CONTINUOUS
10
8.165315
20
93.636655
30
0.0
11
8.249825
21
89.069185
31
0.0
0
LINE
8
0
6
CONTINUOUS
10
8.014945
20
98.206515
30
0.0
11
8.165315
21
93.636655
31
0.0
0
LINE
8
0
6
CONTINUOUS
10
1.349655
20
84.502445
30
0.0
11
1.349655
21
44.984355
31
0.0
0
LINE
8
0
6
CONTINUOUS
10
8.349665
20
44.984365
30
0.0
11
8.349655
21
84.502445
31
0.0
0
LINE
8
0
6
CONTINUOUS
10
8.836555
20
-111.738375
30
0.0
11
8.836555
21
-112.863165
31
0.0
0
LINE
8
0
6
CONTINUOUS
10
8.836555
20
-112.863165
30
0.0
11
31.850145
21
-113.465795
31
0.0
0
LINE
8
0
6
CONTINUOUS
10
8.836555
20
-101.504605
30
0.0
11
8.836555
21
-106.432965
31
0.0
0
LINE
8
0
6
CONTINUOUS
10
8.836555
20
-111.738375
30
0.0
11
31.850145
21
-112.281295
31
0.0
0
LINE
8
0
6
CONTINUOUS
10
8.836555
20
-109.485745
30
0.0
11
8.836555
21
-111.738375
31
0.0
0
LINE
8
0
6
CONTINUOUS
10
8.836575
20
79.735545
30
0.0
11
8.836575
21
77.482995
31
0.0
0
LINE
8
0
6
CONTINUOUS
10
8.836575
20
77.482995
30
0.0
11
8.836575
21
74.430215
31
0.0
0
LINE
8
0
6
CONTINUOUS
10
8.836555
20
-106.432965
30
0.0
11
8.836555
21
-109.485745
31
0.0
0
LINE
8
0
6
CONTINUOUS
10
31.850145
20
-106.694655
30
0.0
11
8.836555
21
-106.432965
31
0.0
0
LINE
8
0
6
CONTINUOUS
10
8.836575
20
74.430215
30
0.0
11
8.836575
21
69.501855
31
0.0
0
LINE
8
0
6
CONTINUOUS
10
31.850165
20
74.691695
30
0.0
11
8.836575
21
74.430215
31
0.0
0
LINE
8
0
6
CONTINUOUS
10
8.836575
20
69.501855
30
0.0
11
8.836555
21
-101.504605
31
0.0
0
LINE
8
0
6
CONTINUOUS
10
8.836575
20
80.860295
30
0.0
11
8.836575
21
79.735545
31
0.0
0
LINE
8
0
6
CONTINUOUS
10
31.850165
20
81.463045
30
0.0
11
8.836575
21
80.860295
31
0.0
0
LINE
8
0
6
CONTINUOUS
10
8.836575
20
79.735545
30
0.0
11
31.850165
21
80.278515
31
0.0
0
LINE
8
0
6
CONTINUOUS
10
33.349645
20
-101.504605
30
0.0
11
33.349665
21
69.501645
31
0.0
0
LINE
8
0
6
CONTINUOUS
10
33.349665
20
81.502325
30
0.0
11
31.850165
21
81.463045
31
0.0
0
LINE
8
0
6
CONTINUOUS
10
33.349665
20
80.313885
30
0.0
11
33.349665
21
81.502325
31
0.0
0
LINE
8
0
6
CONTINUOUS
10
33.349645
20
-109.936605
30
0.0
11
33.349645
21
-106.711715
31
0.0
0
LINE
8
0
6
CONTINUOUS
10
31.850145
20
-113.465795
30
0.0
11
33.349645
21
-113.505075
31
0.0
0
LINE
8
0
6
CONTINUOUS
10
33.349645
20
-113.505075
30
0.0
11
33.349645
21
-112.316675
31
0.0
0
LINE
8
0
6
CONTINUOUS
10
33.349645
20
-112.316675
30
0.0
11
33.349645
21
-109.936605
31
0.0
0
LINE
8
0
6
CONTINUOUS
10
31.850145
20
-112.281295
30
0.0
11
33.349645
21
-112.316675
31
0.0
0
LINE
8
0
6
CONTINUOUS
10
33.349665
20
74.708735
30
0.0
11
33.349665
21
77.933845
31
0.0
0
LINE
8
0
6
CONTINUOUS
10
33.349665
20
74.708735
30
0.0
11
31.850165
21
74.691695
31
0.0
0
LINE
8
0
6
CONTINUOUS
10
33.349665
20
69.501645
30
0.0
11
33.349665
21
74.708735
31
0.0
0
LINE
8
0
6
CONTINUOUS
10
33.349645
20
-106.711715
30
0.0
11
33.349645
21
-101.504605
31
0.0
0
LINE
8
0
6
CONTINUOUS
10
31.850145
20
-106.694655
30
0.0
11
33.349645
21
-106.711715
31
0.0
0
LINE
8
0
6
CONTINUOUS
10
33.349665
20
80.313885
30
0.0
11
31.850165
21
80.278515
31
0.0
0
LINE
8
0
6
CONTINUOUS
10
33.349665
20
77.933845
30
0.0
11
33.349665
21
80.313885
31
0.0
0
ENDSEC
0
EOF
