999
Erzeugt mit innoplus bad 
0
SECTION
2
HEADER
9
$ACADVER
1
AC1009
9
$DWGCODEPAGE
3
ISO8859-1
0
ENDSEC
0
SECTION
2
TABLES
0
TABLE
2
LAYER
70
1
0
LAYER
2
0
70
0
62
7
6
CONTINUOUS
0
ENDTAB
0
ENDSEC
0
SECTION
2
ENTITIES
0
LINE
8
0
6
CONTINUOUS
10
70.770890
20
-82.012020
30
0.0
11
69.738520
21
-82.012020
31
0.0
0
LINE
8
0
6
CONTINUOUS
10
70.770900
20
-83.132990
30
0.0
11
70.770890
21
-82.303350
31
0.0
0
LINE
8
0
6
CONTINUOUS
10
70.770890
20
-85.839230
30
0.0
11
70.770890
21
-84.374620
31
0.0
0
LINE
8
0
6
CONTINUOUS
10
70.770890
20
-87.303840
30
0.0
11
70.770890
21
-85.839230
31
0.0
0
LINE
8
0
6
CONTINUOUS
10
70.770890
20
-88.545470
30
0.0
11
70.770890
21
-87.303840
31
0.0
0
LINE
8
0
6
CONTINUOUS
10
70.770890
20
-89.375100
30
0.0
11
70.770890
21
-88.545470
31
0.0
0
LINE
8
0
6
CONTINUOUS
10
3.336960
20
-90.706154
30
0.0
11
69.738520
21
-89.666440
31
0.0
0
LINE
8
0
6
CONTINUOUS
10
70.770890
20
-89.666440
30
0.0
11
70.770890
21
-89.375100
31
0.0
0
LINE
8
0
6
CONTINUOUS
10
69.738520
20
-89.666440
30
0.0
11
70.770890
21
-89.666440
31
0.0
0
LINE
8
0
6
CONTINUOUS
10
69.738520
20
-82.012020
30
0.0
11
3.336960
21
-83.051734
31
0.0
0
LINE
8
0
6
CONTINUOUS
10
70.770890
20
-82.012020
30
0.0
11
70.770890
21
-82.303350
31
0.0
0
LINE
8
0
6
CONTINUOUS
10
70.770900
20
-83.132990
30
0.0
11
70.770890
21
-84.374620
31
0.0
0
LINE
8
0
6
CONTINUOUS
10
-59.291570
20
-42.375590
30
0.0
11
-61.149120
21
-42.375590
31
0.0
0
LINE
8
0
6
CONTINUOUS
10
-21.003580
20
-42.375590
30
0.0
11
-25.765680
21
-42.375590
31
0.0
0
LINE
8
0
6
CONTINUOUS
10
-17.026710
20
-42.375590
30
0.0
11
-21.003580
21
-42.375590
31
0.0
0
LINE
8
0
6
CONTINUOUS
10
-45.628430
20
-36.339390
30
0.0
11
-46.994600
21
-36.339390
31
0.0
0
LINE
8
0
6
CONTINUOUS
10
-36.663030
20
-36.339390
30
0.0
11
-39.214710
21
-36.339390
31
0.0
0
LINE
8
0
6
CONTINUOUS
10
-27.697630
20
-36.339390
30
0.0
11
-29.513360
21
-36.339390
31
0.0
0
LINE
8
0
6
CONTINUOUS
10
-46.994600
20
-36.339390
30
0.0
11
-47.842700
21
-36.339390
31
0.0
0
LINE
8
0
6
CONTINUOUS
10
-39.214710
20
-36.339390
30
0.0
11
-41.638450
21
-36.339390
31
0.0
0
LINE
8
0
6
CONTINUOUS
10
-29.513360
20
-36.339390
30
0.0
11
-31.687610
21
-36.339390
31
0.0
0
LINE
8
0
6
CONTINUOUS
10
-21.604580
20
-27.000130
30
0.0
11
-23.595790
21
-27.000130
31
0.0
0
LINE
8
0
6
CONTINUOUS
10
-32.943890
20
-27.000130
30
0.0
11
-36.663030
21
-27.000130
31
0.0
0
LINE
8
0
6
CONTINUOUS
10
-47.083810
20
-27.000130
30
0.0
11
-49.730270
21
-27.000130
31
0.0
0
LINE
8
0
6
CONTINUOUS
10
-20.368460
20
-27.000130
30
0.0
11
-21.604580
21
-27.000130
31
0.0
0
LINE
8
0
6
CONTINUOUS
10
-29.411260
20
-27.000130
30
0.0
11
-32.943890
21
-27.000130
31
0.0
0
LINE
8
0
6
CONTINUOUS
10
-43.914800
20
-27.000130
30
0.0
11
-47.083810
21
-27.000130
31
0.0
0
LINE
8
0
6
CONTINUOUS
10
-53.376660
20
-27.000130
30
0.0
11
-53.376660
21
-27.459550
31
0.0
0
LINE
8
0
6
CONTINUOUS
10
-52.957610
20
-27.000130
30
0.0
11
-53.376660
21
-27.000130
31
0.0
0
LINE
8
0
6
CONTINUOUS
10
-19.949420
20
-27.000130
30
0.0
11
-20.368460
21
-27.000130
31
0.0
0
LINE
8
0
6
CONTINUOUS
10
-19.949420
20
-27.459550
30
0.0
11
-19.949420
21
-27.000130
31
0.0
0
LINE
8
0
6
CONTINUOUS
10
-26.242250
20
-27.000130
30
0.0
11
-29.411260
21
-27.000130
31
0.0
0
LINE
8
0
6
CONTINUOUS
10
-40.382160
20
-27.000130
30
0.0
11
-43.914800
21
-27.000130
31
0.0
0
LINE
8
0
6
CONTINUOUS
10
-51.721490
20
-27.000130
30
0.0
11
-52.957610
21
-27.000130
31
0.0
0
LINE
8
0
6
CONTINUOUS
10
-23.595790
20
-27.000130
30
0.0
11
-26.242250
21
-27.000130
31
0.0
0
LINE
8
0
6
CONTINUOUS
10
-36.663030
20
-27.000130
30
0.0
11
-40.382160
21
-27.000130
31
0.0
0
LINE
8
0
6
CONTINUOUS
10
-49.730270
20
-27.000130
30
0.0
11
-51.721490
21
-27.000130
31
0.0
0
LINE
8
0
6
CONTINUOUS
10
-48.016980
20
-30.614840
30
0.0
11
-44.180280
21
-32.247020
31
0.0
0
LINE
8
0
6
CONTINUOUS
10
-29.145790
20
-32.247020
30
0.0
11
-25.309110
21
-30.614840
31
0.0
0
LINE
8
0
6
CONTINUOUS
10
-53.376660
20
-27.459550
30
0.0
11
-53.376660
21
-28.826890
31
0.0
0
LINE
8
0
6
CONTINUOUS
10
-19.949420
20
-28.826890
30
0.0
11
-19.949420
21
-27.459550
31
0.0
0
LINE
8
0
6
CONTINUOUS
10
-25.195860
20
-36.339390
30
0.0
11
-25.483370
21
-36.339390
31
0.0
0
LINE
8
0
6
CONTINUOUS
10
-25.195860
20
-36.564360
30
0.0
11
-25.195860
21
-36.339390
31
0.0
0
LINE
8
0
6
CONTINUOUS
10
-48.130210
20
-36.339390
30
0.0
11
-48.130210
21
-36.564360
31
0.0
0
LINE
8
0
6
CONTINUOUS
10
-47.842700
20
-36.339390
30
0.0
11
-48.118480
21
-36.339390
31
0.0
0
LINE
8
0
6
CONTINUOUS
10
-41.638450
20
-36.339390
30
0.0
11
-43.812700
21
-36.339390
31
0.0
0
LINE
8
0
6
CONTINUOUS
10
-31.687610
20
-36.339390
30
0.0
11
-34.111340
21
-36.339390
31
0.0
0
LINE
8
0
6
CONTINUOUS
10
-25.483370
20
-36.339390
30
0.0
11
-26.331470
21
-36.339390
31
0.0
0
LINE
8
0
6
CONTINUOUS
10
-30.964750
20
-33.879200
30
0.0
11
-29.145790
21
-32.247020
31
0.0
0
LINE
8
0
6
CONTINUOUS
10
-44.180280
20
-32.247020
30
0.0
11
-42.361320
21
-33.879200
31
0.0
0
LINE
8
0
6
CONTINUOUS
10
-61.778830
20
-122.880800
30
0.0
11
-61.778830
21
-123.764390
31
0.0
0
LINE
8
0
6
CONTINUOUS
10
-61.778830
20
-123.764390
30
0.0
11
-61.149120
21
-123.764390
31
0.0
0
LINE
8
0
6
CONTINUOUS
10
-61.149120
20
-123.764390
30
0.0
11
-59.291570
21
-123.764390
31
0.0
0
LINE
8
0
6
CONTINUOUS
10
-59.291570
20
-123.764390
30
0.0
11
-56.299340
21
-123.764390
31
0.0
0
LINE
8
0
6
CONTINUOUS
10
-56.299340
20
-123.764390
30
0.0
11
-52.322460
21
-123.764390
31
0.0
0
LINE
8
0
6
CONTINUOUS
10
-52.322460
20
-123.764390
30
0.0
11
-47.560360
21
-123.764390
31
0.0
0
LINE
8
0
6
CONTINUOUS
10
-47.560360
20
-123.764390
30
0.0
11
-42.251810
21
-123.764390
31
0.0
0
LINE
8
0
6
CONTINUOUS
10
-42.251810
20
-123.764390
30
0.0
11
-36.663020
21
-123.764390
31
0.0
0
LINE
8
0
6
CONTINUOUS
10
-36.663020
20
-123.764390
30
0.0
11
-31.074230
21
-123.764390
31
0.0
0
LINE
8
0
6
CONTINUOUS
10
-31.074230
20
-123.764390
30
0.0
11
-25.765680
21
-123.764390
31
0.0
0
LINE
8
0
6
CONTINUOUS
10
-25.765680
20
-123.764390
30
0.0
11
-21.003580
21
-123.764390
31
0.0
0
LINE
8
0
6
CONTINUOUS
10
-21.003580
20
-123.764390
30
0.0
11
-17.026710
21
-123.764390
31
0.0
0
LINE
8
0
6
CONTINUOUS
10
-17.026710
20
-123.764390
30
0.0
11
-14.034480
21
-123.764390
31
0.0
0
LINE
8
0
6
CONTINUOUS
10
-11.547250
20
-123.764390
30
0.0
11
-11.547250
21
-122.880800
31
0.0
0
LINE
8
0
6
CONTINUOUS
10
-12.176950
20
-123.764390
30
0.0
11
-11.547250
21
-123.764390
31
0.0
0
LINE
8
0
6
CONTINUOUS
10
-14.034480
20
-123.764390
30
0.0
11
-12.176950
21
-123.764390
31
0.0
0
LINE
8
0
6
CONTINUOUS
10
-43.812700
20
-36.339390
30
0.0
11
-45.628430
21
-36.339390
31
0.0
0
LINE
8
0
6
CONTINUOUS
10
-20.543310
20
-29.626630
30
0.0
11
-19.949420
21
-29.503470
31
0.0
0
LINE
8
0
6
CONTINUOUS
10
-53.376660
20
-29.503470
30
0.0
11
-52.782770
21
-29.626630
31
0.0
0
LINE
8
0
6
CONTINUOUS
10
-36.663030
20
-29.503470
30
0.0
11
-32.943890
21
-29.503470
31
0.0
0
LINE
8
0
6
CONTINUOUS
10
-49.730270
20
-29.503470
30
0.0
11
-47.083810
21
-29.503470
31
0.0
0
LINE
8
0
6
CONTINUOUS
10
-21.604580
20
-29.503470
30
0.0
11
-20.368460
21
-29.503470
31
0.0
0
LINE
8
0
6
CONTINUOUS
10
-32.943890
20
-29.503470
30
0.0
11
-29.411260
21
-29.503470
31
0.0
0
LINE
8
0
6
CONTINUOUS
10
-47.083810
20
-29.503470
30
0.0
11
-43.914800
21
-29.503470
31
0.0
0
LINE
8
0
6
CONTINUOUS
10
-53.376660
20
-29.503470
30
0.0
11
-52.957610
21
-29.503470
31
0.0
0
LINE
8
0
6
CONTINUOUS
10
-53.376660
20
-28.826890
30
0.0
11
-53.376660
21
-29.503470
31
0.0
0
LINE
8
0
6
CONTINUOUS
10
-20.368460
20
-29.503470
30
0.0
11
-19.949420
21
-29.503470
31
0.0
0
LINE
8
0
6
CONTINUOUS
10
-19.949420
20
-29.503470
30
0.0
11
-19.949420
21
-28.826890
31
0.0
0
LINE
8
0
6
CONTINUOUS
10
-29.411260
20
-29.503470
30
0.0
11
-26.242250
21
-29.503470
31
0.0
0
LINE
8
0
6
CONTINUOUS
10
-43.914800
20
-29.503470
30
0.0
11
-40.382160
21
-29.503470
31
0.0
0
LINE
8
0
6
CONTINUOUS
10
-52.957610
20
-29.503470
30
0.0
11
-51.721490
21
-29.503470
31
0.0
0
LINE
8
0
6
CONTINUOUS
10
-26.242250
20
-29.503470
30
0.0
11
-23.595790
21
-29.503470
31
0.0
0
LINE
8
0
6
CONTINUOUS
10
-40.382160
20
-29.503470
30
0.0
11
-36.663030
21
-29.503470
31
0.0
0
LINE
8
0
6
CONTINUOUS
10
-51.721490
20
-29.503470
30
0.0
11
-49.730270
21
-29.503470
31
0.0
0
LINE
8
0
6
CONTINUOUS
10
-21.604580
20
-29.503470
30
0.0
11
-23.595790
21
-29.503470
31
0.0
0
LINE
8
0
6
CONTINUOUS
10
-25.309110
20
-30.614840
30
0.0
11
-20.543310
21
-29.626630
31
0.0
0
LINE
8
0
6
CONTINUOUS
10
-52.782770
20
-29.626630
30
0.0
11
-48.016980
21
-30.614840
31
0.0
0
LINE
8
0
6
CONTINUOUS
10
-34.111340
20
-36.339390
30
0.0
11
-36.663030
21
-36.339390
31
0.0
0
LINE
8
0
6
CONTINUOUS
10
-26.331470
20
-36.339390
30
0.0
11
-27.697630
21
-36.339390
31
0.0
0
LINE
8
0
6
CONTINUOUS
10
-35.395040
20
-33.879200
30
0.0
11
-36.663030
21
-33.879200
31
0.0
0
LINE
8
0
6
CONTINUOUS
10
-37.931890
20
-36.339390
30
0.0
11
-36.663030
21
-36.339390
31
0.0
0
LINE
8
0
6
CONTINUOUS
10
-39.137130
20
-36.339390
30
0.0
11
-37.931890
21
-36.339390
31
0.0
0
LINE
8
0
6
CONTINUOUS
10
-40.218310
20
-36.339390
30
0.0
11
-39.137130
21
-36.339390
31
0.0
0
LINE
8
0
6
CONTINUOUS
10
-41.121210
20
-36.339390
30
0.0
11
-40.218310
21
-36.339390
31
0.0
0
LINE
8
0
6
CONTINUOUS
10
-41.800560
20
-36.339390
30
0.0
11
-41.121210
21
-36.339390
31
0.0
0
LINE
8
0
6
CONTINUOUS
10
-42.222280
20
-36.339390
30
0.0
11
-41.800560
21
-36.339390
31
0.0
0
LINE
8
0
6
CONTINUOUS
10
-42.365250
20
-36.339390
30
0.0
11
-42.222280
21
-36.339390
31
0.0
0
LINE
8
0
6
CONTINUOUS
10
-42.364860
20
-36.093360
30
0.0
11
-42.365250
21
-36.339390
31
0.0
0
LINE
8
0
6
CONTINUOUS
10
-30.960820
20
-36.339390
30
0.0
11
-30.961210
21
-36.093360
31
0.0
0
LINE
8
0
6
CONTINUOUS
10
-31.103780
20
-36.339390
30
0.0
11
-30.960820
21
-36.339390
31
0.0
0
LINE
8
0
6
CONTINUOUS
10
-31.525510
20
-36.339390
30
0.0
11
-31.103780
21
-36.339390
31
0.0
0
LINE
8
0
6
CONTINUOUS
10
-32.204860
20
-36.339390
30
0.0
11
-31.525510
21
-36.339390
31
0.0
0
LINE
8
0
6
CONTINUOUS
10
-33.107760
20
-36.339390
30
0.0
11
-32.204860
21
-36.339390
31
0.0
0
LINE
8
0
6
CONTINUOUS
10
-34.188930
20
-36.339390
30
0.0
11
-33.107760
21
-36.339390
31
0.0
0
LINE
8
0
6
CONTINUOUS
10
-35.394170
20
-36.339390
30
0.0
11
-34.188930
21
-36.339390
31
0.0
0
LINE
8
0
6
CONTINUOUS
10
-36.663030
20
-36.339390
30
0.0
11
-35.394170
21
-36.339390
31
0.0
0
LINE
8
0
6
CONTINUOUS
10
-34.190640
20
-33.879200
30
0.0
11
-35.395040
21
-33.879200
31
0.0
0
LINE
8
0
6
CONTINUOUS
10
-32.207940
20
-33.879200
30
0.0
11
-33.110210
21
-33.879200
31
0.0
0
LINE
8
0
6
CONTINUOUS
10
-31.107620
20
-33.879200
30
0.0
11
-31.529060
21
-33.879200
31
0.0
0
LINE
8
0
6
CONTINUOUS
10
-42.361320
20
-33.879200
30
0.0
11
-42.364860
21
-36.093360
31
0.0
0
LINE
8
0
6
CONTINUOUS
10
-42.218460
20
-33.879200
30
0.0
11
-42.361320
21
-33.879200
31
0.0
0
LINE
8
0
6
CONTINUOUS
10
-33.110210
20
-33.879200
30
0.0
11
-34.190640
21
-33.879200
31
0.0
0
LINE
8
0
6
CONTINUOUS
10
-31.529060
20
-33.879200
30
0.0
11
-32.207940
21
-33.879200
31
0.0
0
LINE
8
0
6
CONTINUOUS
10
-30.961210
20
-36.093360
30
0.0
11
-30.964750
21
-33.879200
31
0.0
0
LINE
8
0
6
CONTINUOUS
10
-30.964750
20
-33.879200
30
0.0
11
-31.107620
21
-33.879200
31
0.0
0
LINE
8
0
6
CONTINUOUS
10
-25.195860
20
-42.039070
30
0.0
11
-25.195860
21
-36.564360
31
0.0
0
LINE
8
0
6
CONTINUOUS
10
-41.797010
20
-33.879200
30
0.0
11
-42.218460
21
-33.879200
31
0.0
0
LINE
8
0
6
CONTINUOUS
10
-48.130210
20
-36.564360
30
0.0
11
-48.130210
21
-42.039070
31
0.0
0
LINE
8
0
6
CONTINUOUS
10
-41.118130
20
-33.879200
30
0.0
11
-41.797010
21
-33.879200
31
0.0
0
LINE
8
0
6
CONTINUOUS
10
-40.215860
20
-33.879200
30
0.0
11
-41.118130
21
-33.879200
31
0.0
0
LINE
8
0
6
CONTINUOUS
10
-39.135430
20
-33.879200
30
0.0
11
-40.215860
21
-33.879200
31
0.0
0
LINE
8
0
6
CONTINUOUS
10
-37.931020
20
-33.879200
30
0.0
11
-39.135430
21
-33.879200
31
0.0
0
LINE
8
0
6
CONTINUOUS
10
-36.663030
20
-33.879200
30
0.0
11
-37.931020
21
-33.879200
31
0.0
0
LINE
8
0
6
CONTINUOUS
10
-46.994600
20
-42.375590
30
0.0
11
-45.628430
21
-42.375590
31
0.0
0
LINE
8
0
6
CONTINUOUS
10
-39.214710
20
-42.375590
30
0.0
11
-36.663030
21
-42.375590
31
0.0
0
LINE
8
0
6
CONTINUOUS
10
-29.513360
20
-42.375590
30
0.0
11
-27.697630
21
-42.375590
31
0.0
0
LINE
8
0
6
CONTINUOUS
10
-47.842700
20
-42.375590
30
0.0
11
-46.994600
21
-42.375590
31
0.0
0
LINE
8
0
6
CONTINUOUS
10
-41.638450
20
-42.375590
30
0.0
11
-39.214710
21
-42.375590
31
0.0
0
LINE
8
0
6
CONTINUOUS
10
-31.687610
20
-42.375590
30
0.0
11
-29.513360
21
-42.375590
31
0.0
0
LINE
8
0
6
CONTINUOUS
10
-25.483370
20
-42.375590
30
0.0
11
-25.195860
21
-42.375590
31
0.0
0
LINE
8
0
6
CONTINUOUS
10
-25.195860
20
-42.375590
30
0.0
11
-25.195860
21
-42.039070
31
0.0
0
LINE
8
0
6
CONTINUOUS
10
-48.130210
20
-42.375590
30
0.0
11
-47.842700
21
-42.375590
31
0.0
0
LINE
8
0
6
CONTINUOUS
10
-48.130210
20
-42.039070
30
0.0
11
-48.130210
21
-42.375590
31
0.0
0
LINE
8
0
6
CONTINUOUS
10
-43.812700
20
-42.375590
30
0.0
11
-41.638450
21
-42.375590
31
0.0
0
LINE
8
0
6
CONTINUOUS
10
-34.111340
20
-42.375590
30
0.0
11
-31.687610
21
-42.375590
31
0.0
0
LINE
8
0
6
CONTINUOUS
10
-26.331470
20
-42.375590
30
0.0
11
-25.483370
21
-42.375590
31
0.0
0
LINE
8
0
6
CONTINUOUS
10
-45.628430
20
-42.375590
30
0.0
11
-43.812700
21
-42.375590
31
0.0
0
LINE
8
0
6
CONTINUOUS
10
-36.663030
20
-42.375590
30
0.0
11
-34.111340
21
-42.375590
31
0.0
0
LINE
8
0
6
CONTINUOUS
10
-27.697630
20
-42.375590
30
0.0
11
-26.331470
21
-42.375590
31
0.0
0
LINE
8
0
6
CONTINUOUS
10
-3.352450
20
-105.251200
30
0.0
11
3.053460
21
-105.213290
31
0.0
0
LINE
8
0
6
CONTINUOUS
10
-10.884560
20
-58.298980
30
0.0
11
-11.547250
21
-55.339360
31
0.0
0
LINE
8
0
6
CONTINUOUS
10
-6.326320
20
-62.032920
30
0.0
11
-9.003860
21
-60.628250
31
0.0
0
LINE
8
0
6
CONTINUOUS
10
-3.302050
20
-62.272160
30
0.0
11
-6.326320
21
-62.032920
31
0.0
0
LINE
8
0
6
CONTINUOUS
10
-6.462560
20
-105.561950
30
0.0
11
-3.352450
21
-105.251200
31
0.0
0
LINE
8
0
6
CONTINUOUS
10
-11.021270
20
-109.526300
30
0.0
11
-9.212040
21
-106.990000
31
0.0
0
LINE
8
0
6
CONTINUOUS
10
-11.547250
20
-112.550090
30
0.0
11
-11.021270
21
-109.526300
31
0.0
0
LINE
8
0
6
CONTINUOUS
10
-9.003860
20
-60.628250
30
0.0
11
-10.884560
21
-58.298980
31
0.0
0
LINE
8
0
6
CONTINUOUS
10
-9.212040
20
-106.990000
30
0.0
11
-6.462560
21
-105.561950
31
0.0
0
LINE
8
0
6
CONTINUOUS
10
3.053500
20
-62.380220
30
0.0
11
-3.302050
21
-62.272160
31
0.0
0
LINE
8
0
6
CONTINUOUS
10
-11.547250
20
-55.339360
30
0.0
11
-11.547250
21
-43.369870
31
0.0
0
LINE
8
0
6
CONTINUOUS
10
-61.778830
20
-84.905920
30
0.0
11
-61.778830
21
-95.874720
31
0.0
0
LINE
8
0
6
CONTINUOUS
10
-61.778830
20
-72.643190
30
0.0
11
-61.778830
21
-84.905920
31
0.0
0
LINE
8
0
6
CONTINUOUS
10
-61.778830
20
-42.375590
30
0.0
11
-61.778830
21
-43.369870
31
0.0
0
LINE
8
0
6
CONTINUOUS
10
-61.149120
20
-42.375590
30
0.0
11
-61.778830
21
-42.375590
31
0.0
0
LINE
8
0
6
CONTINUOUS
10
-56.299340
20
-42.375590
30
0.0
11
-59.291570
21
-42.375590
31
0.0
0
LINE
8
0
6
CONTINUOUS
10
-52.322460
20
-42.375590
30
0.0
11
-56.299340
21
-42.375590
31
0.0
0
LINE
8
0
6
CONTINUOUS
10
-47.560360
20
-42.375590
30
0.0
11
-52.322460
21
-42.375590
31
0.0
0
LINE
8
0
6
CONTINUOUS
10
-42.251810
20
-42.375590
30
0.0
11
-47.560360
21
-42.375590
31
0.0
0
LINE
8
0
6
CONTINUOUS
10
-36.663020
20
-42.375590
30
0.0
11
-42.251810
21
-42.375590
31
0.0
0
LINE
8
0
6
CONTINUOUS
10
-31.074230
20
-42.375590
30
0.0
11
-36.663020
21
-42.375590
31
0.0
0
LINE
8
0
6
CONTINUOUS
10
-25.765680
20
-42.375590
30
0.0
11
-31.074230
21
-42.375590
31
0.0
0
LINE
8
0
6
CONTINUOUS
10
-14.034480
20
-42.375590
30
0.0
11
-17.026710
21
-42.375590
31
0.0
0
LINE
8
0
6
CONTINUOUS
10
-11.547250
20
-42.375590
30
0.0
11
-12.176950
21
-42.375590
31
0.0
0
LINE
8
0
6
CONTINUOUS
10
-11.547250
20
-43.369870
30
0.0
11
-11.547250
21
-42.375590
31
0.0
0
LINE
8
0
6
CONTINUOUS
10
-12.176950
20
-42.375590
30
0.0
11
-14.034480
21
-42.375590
31
0.0
0
LINE
8
0
6
CONTINUOUS
10
-11.547250
20
-122.880800
30
0.0
11
-11.547250
21
-112.550090
31
0.0
0
LINE
8
0
6
CONTINUOUS
10
-61.778830
20
-43.369870
30
0.0
11
-61.778830
21
-72.643190
31
0.0
0
LINE
8
0
6
CONTINUOUS
10
-61.778830
20
-95.874720
30
0.0
11
-61.778830
21
-122.880800
31
0.0
0
LINE
8
0
6
CONTINUOUS
10
3.336960
20
-103.218580
30
0.0
11
3.336960
21
-100.885490
31
0.0
0
LINE
8
0
6
CONTINUOUS
10
3.336960
20
-100.885490
30
0.0
11
3.336960
21
-97.631730
31
0.0
0
LINE
8
0
6
CONTINUOUS
10
3.336960
20
-104.778170
30
0.0
11
3.336960
21
-103.218580
31
0.0
0
LINE
8
0
6
CONTINUOUS
10
3.336960
20
-70.950900
30
0.0
11
3.336960
21
-67.325940
31
0.0
0
LINE
8
0
6
CONTINUOUS
10
3.336960
20
-79.807010
30
0.0
11
3.336960
21
-75.078680
31
0.0
0
LINE
8
0
6
CONTINUOUS
10
3.336960
20
-97.631730
30
0.0
11
3.336960
21
-93.648850
31
0.0
0
LINE
8
0
6
CONTINUOUS
10
3.336960
20
-93.648850
30
0.0
11
3.336960
21
-89.338750
31
0.0
0
LINE
8
0
6
CONTINUOUS
10
3.053460
20
-105.213290
30
0.0
11
3.336960
21
-105.211610
31
0.0
0
LINE
8
0
6
CONTINUOUS
10
3.336960
20
-105.211610
30
0.0
11
3.336960
21
-104.778170
31
0.0
0
LINE
8
0
6
CONTINUOUS
10
3.336960
20
-84.508080
30
0.0
11
3.336960
21
-79.807010
31
0.0
0
LINE
8
0
6
CONTINUOUS
10
3.336960
20
-89.338750
30
0.0
11
3.336960
21
-84.508080
31
0.0
0
LINE
8
0
6
CONTINUOUS
10
3.336960
20
-64.675460
30
0.0
11
3.336960
21
-62.938980
31
0.0
0
LINE
8
0
6
CONTINUOUS
10
3.336960
20
-67.325940
30
0.0
11
3.336960
21
-64.675460
31
0.0
0
LINE
8
0
6
CONTINUOUS
10
3.336960
20
-62.385030
30
0.0
11
3.053500
21
-62.380220
31
0.0
0
LINE
8
0
6
CONTINUOUS
10
3.336960
20
-62.938980
30
0.0
11
3.336960
21
-62.385030
31
0.0
0
LINE
8
0
6
CONTINUOUS
10
3.336960
20
-75.078680
30
0.0
11
3.336960
21
-70.950900
31
0.0
0
LINE
8
0
6
CONTINUOUS
10
-22.697540
20
-32.100790
30
0.0
11
-18.804590
21
-29.617890
31
0.0
0
LINE
8
0
6
CONTINUOUS
10
-54.542640
20
-29.687030
30
0.0
11
-50.504510
21
-32.154600
31
0.0
0
LINE
8
0
6
CONTINUOUS
10
-60.516590
20
-41.179760
30
0.0
11
-59.679210
21
-41.179760
31
0.0
0
LINE
8
0
6
CONTINUOUS
10
-12.825690
20
-41.179760
30
0.0
11
-24.955250
21
-41.042550
31
0.0
0
LINE
8
0
6
CONTINUOUS
10
-15.182250
20
-41.179760
30
0.0
11
-12.825690
21
-41.179760
31
0.0
0
LINE
8
0
6
CONTINUOUS
10
-18.360880
20
-41.179760
30
0.0
11
-15.182250
21
-41.179760
31
0.0
0
LINE
8
0
6
CONTINUOUS
10
-22.568860
20
-41.179760
30
0.0
11
-18.360880
21
-41.179760
31
0.0
0
LINE
8
0
6
CONTINUOUS
10
-25.195860
20
-41.179760
30
0.0
11
-22.568860
21
-41.179760
31
0.0
0
LINE
8
0
6
CONTINUOUS
10
-49.672310
20
-41.179760
30
0.0
11
-48.130210
21
-41.179760
31
0.0
0
LINE
8
0
6
CONTINUOUS
10
-55.871360
20
-41.179760
30
0.0
11
-49.672310
21
-41.179760
31
0.0
0
LINE
8
0
6
CONTINUOUS
10
-59.679210
20
-41.179760
30
0.0
11
-55.871360
21
-41.179760
31
0.0
0
LINE
8
0
6
CONTINUOUS
10
-47.708770
20
-41.081280
30
0.0
11
-60.516590
21
-41.179760
31
0.0
0
LINE
8
0
6
CONTINUOUS
10
-48.162610
20
-41.087450
30
0.0
11
-47.843735
21
-41.083115
31
0.0
0
LINE
8
0
6
CONTINUOUS
10
-47.842175
20
-41.083094
30
0.0
11
-47.708770
21
-41.081280
31
0.0
0
LINE
8
0
6
CONTINUOUS
10
-63.286270
20
1.689960
30
0.0
11
-62.057230
21
-38.695970
31
0.0
0
LINE
8
0
6
CONTINUOUS
10
-11.330410
20
-38.759130
30
0.0
11
-10.130800
21
0.599890
31
0.0
0
LINE
8
0
6
CONTINUOUS
10
-19.212610
20
-29.631090
30
0.0
11
-18.804590
21
-29.617890
31
0.0
0
LINE
8
0
6
CONTINUOUS
10
-18.804590
20
-29.617890
30
0.0
11
-18.690230
21
-27.742470
31
0.0
0
LINE
8
0
6
CONTINUOUS
10
-56.327010
20
28.969220
30
0.0
11
-54.718420
21
-27.700270
31
0.0
0
LINE
8
0
6
CONTINUOUS
10
-20.741100
20
-29.650240
30
0.0
11
-19.212610
21
-29.631090
31
0.0
0
LINE
8
0
6
CONTINUOUS
10
-48.141320
20
-35.210080
30
0.0
11
-48.162600
21
-41.084770
31
0.0
0
LINE
8
0
6
CONTINUOUS
10
-24.955250
20
-41.042550
30
0.0
11
-24.975770
21
-35.165250
31
0.0
0
LINE
8
0
6
CONTINUOUS
10
-25.220210
20
-41.051120
30
0.0
11
-24.955250
21
-41.042550
31
0.0
0
LINE
8
0
6
CONTINUOUS
10
-24.975770
20
-35.165250
30
0.0
11
-22.697540
21
-32.100790
31
0.0
0
LINE
8
0
6
CONTINUOUS
10
-25.240260
20
-35.173820
30
0.0
11
-24.975770
21
-35.165250
31
0.0
0
LINE
8
0
6
CONTINUOUS
10
-48.141320
20
-35.210080
30
0.0
11
-47.808670
21
-35.214780
31
0.0
0
LINE
8
0
6
CONTINUOUS
10
-50.504510
20
-32.154600
30
0.0
11
-48.141320
21
-35.210080
31
0.0
0
LINE
8
0
6
CONTINUOUS
10
-47.808670
20
-35.214780
30
0.0
11
-46.594280
21
-35.214920
31
0.0
0
LINE
8
0
6
CONTINUOUS
10
-46.594280
20
-35.214920
30
0.0
11
-44.639940
21
-35.213770
31
0.0
0
LINE
8
0
6
CONTINUOUS
10
-44.639940
20
-35.213770
30
0.0
11
-42.137720
21
-35.215490
31
0.0
0
LINE
8
0
6
CONTINUOUS
10
-30.296190
20
-35.207220
30
0.0
11
-27.979230
21
-35.197370
31
0.0
0
LINE
8
0
6
CONTINUOUS
10
-27.979230
20
-35.197370
30
0.0
11
-26.231030
21
-35.186220
31
0.0
0
LINE
8
0
6
CONTINUOUS
10
-26.231030
20
-35.186220
30
0.0
11
-25.240260
21
-35.173820
31
0.0
0
LINE
8
0
6
CONTINUOUS
10
-58.955440
20
45.205910
30
0.0
11
-63.400820
21
53.381700
31
0.0
0
LINE
8
0
6
CONTINUOUS
10
-53.719540
20
38.238140
30
0.0
11
-58.955440
21
45.205910
31
0.0
0
LINE
8
0
6
CONTINUOUS
10
-49.232300
20
34.494600
30
0.0
11
-53.719540
21
38.238140
31
0.0
0
LINE
8
0
6
CONTINUOUS
10
-43.703350
20
32.498140
30
0.0
11
-49.232300
21
34.494600
31
0.0
0
LINE
8
0
6
CONTINUOUS
10
-37.853580
20
32.824590
30
0.0
11
-43.703350
21
32.498140
31
0.0
0
LINE
8
0
6
CONTINUOUS
10
-32.593250
20
35.466520
30
0.0
11
-37.853580
21
32.824590
31
0.0
0
LINE
8
0
6
CONTINUOUS
10
-28.170330
20
39.212870
30
0.0
11
-32.593250
21
35.466520
31
0.0
0
LINE
8
0
6
CONTINUOUS
10
-22.116010
20
46.666580
30
0.0
11
-28.170330
21
39.212870
31
0.0
0
LINE
8
0
6
CONTINUOUS
10
-37.084280
20
23.791610
30
0.0
11
-36.539030
21
29.398690
31
0.0
0
LINE
8
0
6
CONTINUOUS
10
-41.565240
20
24.582940
30
0.0
11
-41.484610
21
29.381390
31
0.0
0
LINE
8
0
6
CONTINUOUS
10
-16.418680
20
47.818400
30
0.0
11
-16.206050
21
58.891960
31
0.0
0
LINE
8
0
6
CONTINUOUS
10
-13.858770
20
104.591000
30
0.0
11
-10.804910
21
105.066230
31
0.0
0
LINE
8
0
6
CONTINUOUS
10
-9.955240
20
105.207720
30
0.0
11
-13.858770
21
104.591000
31
0.0
0
LINE
8
0
6
CONTINUOUS
10
-10.804910
20
105.066230
30
0.0
11
-9.955240
21
105.207720
31
0.0
0
LINE
8
0
6
CONTINUOUS
10
-10.804910
20
105.066230
30
0.0
11
-14.602980
21
104.578960
31
0.0
0
LINE
8
0
6
CONTINUOUS
10
-16.206050
20
58.891960
30
0.0
11
-15.801160
21
69.395170
31
0.0
0
LINE
8
0
6
CONTINUOUS
10
-15.801160
20
69.395170
30
0.0
11
-15.033280
21
81.883000
31
0.0
0
LINE
8
0
6
CONTINUOUS
10
-18.478300
20
104.859610
30
0.0
11
-23.278840
21
106.072570
31
0.0
0
LINE
8
0
6
CONTINUOUS
10
-18.690230
20
-27.742470
30
0.0
11
-17.046410
21
28.386390
31
0.0
0
LINE
8
0
6
CONTINUOUS
10
-37.943520
20
13.447040
30
0.0
11
-33.273830
21
14.787850
31
0.0
0
LINE
8
0
6
CONTINUOUS
10
-37.964470
20
13.927880
30
0.0
11
-33.810460
21
15.531920
31
0.0
0
LINE
8
0
6
CONTINUOUS
10
-34.428520
20
49.564700
30
0.0
11
-37.299880
21
47.535320
31
0.0
0
LINE
8
0
6
CONTINUOUS
10
-38.204020
20
16.390720
30
0.0
11
-34.677560
21
17.598530
31
0.0
0
LINE
8
0
6
CONTINUOUS
10
-34.147970
20
-41.179760
30
0.0
11
-26.957450
21
-41.179760
31
0.0
0
LINE
8
0
6
CONTINUOUS
10
-49.383250
20
21.283880
30
0.0
11
-46.261360
21
17.732710
31
0.0
0
LINE
8
0
6
CONTINUOUS
10
-48.766240
20
21.548130
30
0.0
11
-45.587260
21
18.394910
31
0.0
0
LINE
8
0
6
CONTINUOUS
10
-43.367380
20
46.341450
30
0.0
11
-47.070930
21
48.061690
31
0.0
0
LINE
8
0
6
CONTINUOUS
10
-46.844400
20
23.263700
30
0.0
11
-44.408060
21
20.482420
31
0.0
0
LINE
8
0
6
CONTINUOUS
10
-50.285230
20
-41.179760
30
0.0
11
-45.213100
21
-41.179760
31
0.0
0
LINE
8
0
6
CONTINUOUS
10
-41.544990
20
122.262220
30
0.0
11
-42.411450
21
122.806220
31
0.0
0
LINE
8
0
6
CONTINUOUS
10
-58.041850
20
44.521880
30
0.0
11
-57.476920
21
42.531730
31
0.0
0
LINE
8
0
6
CONTINUOUS
10
-55.783390
20
44.978270
30
0.0
11
-55.121270
21
43.074770
31
0.0
0
LINE
8
0
6
CONTINUOUS
10
-55.623000
20
46.242590
30
0.0
11
-54.867000
21
43.529830
31
0.0
0
LINE
8
0
6
CONTINUOUS
10
-54.867000
20
43.529830
30
0.0
11
-55.381570
21
45.391150
31
0.0
0
LINE
8
0
6
CONTINUOUS
10
-69.495550
20
72.045760
30
0.0
11
-69.104540
21
70.150210
31
0.0
0
LINE
8
0
6
CONTINUOUS
10
1.390720
20
110.236350
30
0.0
11
1.403550
21
111.140260
31
0.0
0
LINE
8
0
6
CONTINUOUS
10
1.100560
20
109.512260
30
0.0
11
1.390720
21
110.236350
31
0.0
0
LINE
8
0
6
CONTINUOUS
10
-18.054480
20
45.741420
30
0.0
11
-18.840800
21
42.656110
31
0.0
0
LINE
8
0
6
CONTINUOUS
10
-21.217400
20
42.523280
30
0.0
11
-23.253400
21
34.799480
31
0.0
0
LINE
8
0
6
CONTINUOUS
10
-21.974050
20
34.376440
30
0.0
11
-19.760620
21
42.248370
31
0.0
0
LINE
8
0
6
CONTINUOUS
10
-24.379430
20
35.307580
30
0.0
11
-22.578990
21
42.762840
31
0.0
0
LINE
8
0
6
CONTINUOUS
10
-7.526660
20
106.512000
30
0.0
11
-4.714890
21
109.720550
31
0.0
0
LINE
8
0
6
CONTINUOUS
10
-4.283690
20
110.256320
30
0.0
11
-7.526660
21
106.512000
31
0.0
0
LINE
8
0
6
CONTINUOUS
10
-14.838780
20
60.274170
30
0.0
11
-14.051400
21
63.827370
31
0.0
0
LINE
8
0
6
CONTINUOUS
10
-4.714890
20
109.720550
30
0.0
11
-8.269190
21
106.206750
31
0.0
0
LINE
8
0
6
CONTINUOUS
10
-14.008770
20
86.337790
30
0.0
11
-15.033280
21
81.883000
31
0.0
0
LINE
8
0
6
CONTINUOUS
10
-16.134930
20
76.901220
30
0.0
11
-14.008770
21
86.337790
31
0.0
0
LINE
8
0
6
CONTINUOUS
10
-15.033280
20
81.883000
30
0.0
11
-16.134930
21
76.901220
31
0.0
0
LINE
8
0
6
CONTINUOUS
10
-18.720290
20
72.989970
30
0.0
11
-17.362230
21
76.119340
31
0.0
0
LINE
8
0
6
CONTINUOUS
10
-15.884250
20
80.950400
30
0.0
11
-18.720290
21
72.989970
31
0.0
0
LINE
8
0
6
CONTINUOUS
10
-17.362230
20
76.119340
30
0.0
11
-20.675770
21
69.720200
31
0.0
0
LINE
8
0
6
CONTINUOUS
10
-20.675770
20
69.720200
30
0.0
11
-22.120430
21
66.949190
31
0.0
0
LINE
8
0
6
CONTINUOUS
10
-15.033280
20
81.883000
30
0.0
11
-11.992020
21
92.156880
31
0.0
0
LINE
8
0
6
CONTINUOUS
10
-18.450210
20
43.929380
30
0.0
11
-17.475370
21
48.050130
31
0.0
0
LINE
8
0
6
CONTINUOUS
10
-14.051400
20
63.827370
30
0.0
11
-13.272840
21
67.479490
31
0.0
0
LINE
8
0
6
CONTINUOUS
10
-13.272840
20
67.479490
30
0.0
11
-12.263600
21
71.474180
31
0.0
0
LINE
8
0
6
CONTINUOUS
10
-18.343880
20
44.491110
30
0.0
11
-19.082490
21
41.975910
31
0.0
0
LINE
8
0
6
CONTINUOUS
10
-18.840800
20
42.656110
30
0.0
11
-18.343880
21
44.491110
31
0.0
0
LINE
8
0
6
CONTINUOUS
10
-17.475370
20
48.050130
30
0.0
11
-16.585080
21
52.320320
31
0.0
0
LINE
8
0
6
CONTINUOUS
10
-16.585080
20
52.320320
30
0.0
11
-15.678360
21
56.451870
31
0.0
0
LINE
8
0
6
CONTINUOUS
10
-15.678360
20
56.451870
30
0.0
11
-14.838780
21
60.274170
31
0.0
0
LINE
8
0
6
CONTINUOUS
10
-57.934760
20
66.503570
30
0.0
11
-57.314220
21
59.141400
31
0.0
0
LINE
8
0
6
CONTINUOUS
10
-54.542640
20
-29.687030
30
0.0
11
-54.029440
21
-29.694280
31
0.0
0
LINE
8
0
6
CONTINUOUS
10
-54.718420
20
-27.700270
30
0.0
11
-54.542640
21
-29.687030
31
0.0
0
LINE
8
0
6
CONTINUOUS
10
-57.314220
20
59.141400
30
0.0
11
-56.849270
21
49.183280
31
0.0
0
LINE
8
0
6
CONTINUOUS
10
-16.670280
20
38.121860
30
0.0
11
-16.418680
21
47.818400
31
0.0
0
LINE
8
0
6
CONTINUOUS
10
-56.347360
20
39.288870
30
0.0
11
-56.620450
21
47.773940
31
0.0
0
LINE
8
0
6
CONTINUOUS
10
-56.620450
20
47.773940
30
0.0
11
-56.539450
21
38.394790
31
0.0
0
LINE
8
0
6
CONTINUOUS
10
-56.849270
20
49.183280
30
0.0
11
-56.347360
21
39.288870
31
0.0
0
LINE
8
0
6
CONTINUOUS
10
-17.046410
20
28.386390
30
0.0
11
-16.670280
21
38.121860
31
0.0
0
LINE
8
0
6
CONTINUOUS
10
-44.673580
20
123.692370
30
0.0
11
-45.828600
21
123.764390
31
0.0
0
LINE
8
0
6
CONTINUOUS
10
-45.828600
20
123.764390
30
0.0
11
-46.846390
21
123.628870
31
0.0
0
LINE
8
0
6
CONTINUOUS
10
0.907420
20
110.121050
30
0.0
11
1.260970
21
110.841320
31
0.0
0
LINE
8
0
6
CONTINUOUS
10
0.042840
20
111.284710
30
0.0
11
0.418280
21
111.947870
31
0.0
0
LINE
8
0
6
CONTINUOUS
10
-23.278840
20
106.072570
30
0.0
11
-28.106650
21
108.146960
31
0.0
0
LINE
8
0
6
CONTINUOUS
10
-13.858770
20
104.591000
30
0.0
11
-18.478300
21
104.859610
31
0.0
0
LINE
8
0
6
CONTINUOUS
10
-14.602980
20
104.578960
30
0.0
11
-13.858770
21
104.591000
31
0.0
0
LINE
8
0
6
CONTINUOUS
10
-41.009200
20
121.172170
30
0.0
11
-36.765770
21
115.359810
31
0.0
0
LINE
8
0
6
CONTINUOUS
10
-36.765770
20
115.359810
30
0.0
11
-41.544990
21
122.262220
31
0.0
0
LINE
8
0
6
CONTINUOUS
10
-1.063200
20
112.355890
30
0.0
11
-2.383560
21
112.104750
31
0.0
0
LINE
8
0
6
CONTINUOUS
10
-2.383560
20
112.104750
30
0.0
11
-2.452610
21
112.056490
31
0.0
0
LINE
8
0
6
CONTINUOUS
10
-18.646640
20
43.451740
30
0.0
11
-18.343880
21
44.491110
31
0.0
0
LINE
8
0
6
CONTINUOUS
10
-58.731200
20
46.997730
30
0.0
11
-58.327240
21
46.088710
31
0.0
0
LINE
8
0
6
CONTINUOUS
10
-19.231300
20
44.262310
30
0.0
11
-18.910040
21
45.678550
31
0.0
0
LINE
8
0
6
CONTINUOUS
10
-55.381570
20
45.391150
30
0.0
11
-55.623000
21
46.242590
31
0.0
0
LINE
8
0
6
CONTINUOUS
10
-56.407820
20
47.013730
30
0.0
11
-56.135310
21
46.233740
31
0.0
0
LINE
8
0
6
CONTINUOUS
10
-21.943870
20
44.737900
30
0.0
11
-21.569810
21
46.067820
31
0.0
0
LINE
8
0
6
CONTINUOUS
10
-38.220060
20
17.704950
30
0.0
11
-38.217660
21
18.266630
31
0.0
0
LINE
8
0
6
CONTINUOUS
10
-53.737770
20
28.623900
30
0.0
11
-56.290100
21
34.617170
31
0.0
0
LINE
8
0
6
CONTINUOUS
10
-56.470080
20
34.933900
30
0.0
11
-53.737770
21
28.623900
31
0.0
0
LINE
8
0
6
CONTINUOUS
10
-18.343880
20
44.491110
30
0.0
11
-18.054480
21
45.741420
31
0.0
0
LINE
8
0
6
CONTINUOUS
10
-48.223570
20
122.625420
30
0.0
11
-54.883270
21
116.215530
31
0.0
0
LINE
8
0
6
CONTINUOUS
10
-1.061320
20
105.278250
30
0.0
11
0.907420
21
110.121050
31
0.0
0
LINE
8
0
6
CONTINUOUS
10
-54.883270
20
116.215530
30
0.0
11
-61.399610
21
108.798400
31
0.0
0
LINE
8
0
6
CONTINUOUS
10
-61.399610
20
108.798400
30
0.0
11
-66.147680
21
100.842200
31
0.0
0
LINE
8
0
6
CONTINUOUS
10
-3.228780
20
100.037850
30
0.0
11
-1.061320
21
105.278250
31
0.0
0
LINE
8
0
6
CONTINUOUS
10
-5.435440
20
94.361620
30
0.0
11
-3.228780
21
100.037850
31
0.0
0
LINE
8
0
6
CONTINUOUS
10
-46.846390
20
123.628870
30
0.0
11
-48.223570
21
122.625420
31
0.0
0
LINE
8
0
6
CONTINUOUS
10
-58.893090
20
43.905440
30
0.0
11
-59.234050
21
45.179740
31
0.0
0
LINE
8
0
6
CONTINUOUS
10
-58.477730
20
42.508330
30
0.0
11
-58.893090
21
43.905440
31
0.0
0
LINE
8
0
6
CONTINUOUS
10
-66.147680
20
100.842200
30
0.0
11
-69.100710
21
93.731720
31
0.0
0
LINE
8
0
6
CONTINUOUS
10
-69.100710
20
93.731720
30
0.0
11
-70.397260
21
87.342160
31
0.0
0
LINE
8
0
6
CONTINUOUS
10
-70.397260
20
87.342160
30
0.0
11
-70.770900
21
81.599680
31
0.0
0
LINE
8
0
6
CONTINUOUS
10
-70.770900
20
81.599680
30
0.0
11
-70.384590
21
76.624800
31
0.0
0
LINE
8
0
6
CONTINUOUS
10
-70.384590
20
76.624800
30
0.0
11
-69.495550
21
72.045760
31
0.0
0
LINE
8
0
6
CONTINUOUS
10
-56.110120
20
34.300430
30
0.0
11
-53.398830
21
27.804070
31
0.0
0
LINE
8
0
6
CONTINUOUS
10
-46.261360
20
17.732710
30
0.0
11
-42.513080
21
14.849840
31
0.0
0
LINE
8
0
6
CONTINUOUS
10
-69.495550
20
72.045760
30
0.0
11
-68.189240
21
67.914530
31
0.0
0
LINE
8
0
6
CONTINUOUS
10
-68.189240
20
67.914530
30
0.0
11
-66.618070
21
63.919000
31
0.0
0
LINE
8
0
6
CONTINUOUS
10
-9.176960
20
82.975610
30
0.0
11
-7.425910
21
88.559450
31
0.0
0
LINE
8
0
6
CONTINUOUS
10
-11.928900
20
73.147190
30
0.0
11
-10.692610
21
77.774760
31
0.0
0
LINE
8
0
6
CONTINUOUS
10
-13.712880
20
65.458230
30
0.0
11
-12.911270
21
69.128520
31
0.0
0
LINE
8
0
6
CONTINUOUS
10
-14.494550
20
61.900630
30
0.0
11
-13.712880
21
65.458230
31
0.0
0
LINE
8
0
6
CONTINUOUS
10
-63.002460
20
54.809870
30
0.0
11
-61.112650
21
50.031020
31
0.0
0
LINE
8
0
6
CONTINUOUS
10
-53.398830
20
27.804070
30
0.0
11
-49.383250
21
21.283880
31
0.0
0
LINE
8
0
6
CONTINUOUS
10
-42.513080
20
14.849840
30
0.0
11
-37.943520
21
13.447040
31
0.0
0
LINE
8
0
6
CONTINUOUS
10
-33.273830
20
14.787850
30
0.0
11
-29.695340
21
17.805780
31
0.0
0
LINE
8
0
6
CONTINUOUS
10
-29.695340
20
17.805780
30
0.0
11
-24.692040
21
25.387070
31
0.0
0
LINE
8
0
6
CONTINUOUS
10
-24.692040
20
25.387070
30
0.0
11
-21.208550
21
34.354510
31
0.0
0
LINE
8
0
6
CONTINUOUS
10
-21.051540
20
34.967390
30
0.0
11
-18.450210
21
43.929380
31
0.0
0
LINE
8
0
6
CONTINUOUS
10
-18.840800
20
42.656110
30
0.0
11
-21.051540
21
34.967390
31
0.0
0
LINE
8
0
6
CONTINUOUS
10
-19.082490
20
41.975910
30
0.0
11
-18.646640
21
43.451740
31
0.0
0
LINE
8
0
6
CONTINUOUS
10
1.403550
20
111.140260
30
0.0
11
0.636670
21
111.958130
31
0.0
0
LINE
8
0
6
CONTINUOUS
10
1.260970
20
110.841320
30
0.0
11
1.403550
21
111.140260
31
0.0
0
LINE
8
0
6
CONTINUOUS
10
-7.425910
20
88.559450
30
0.0
11
-5.435440
21
94.361620
31
0.0
0
LINE
8
0
6
CONTINUOUS
10
-10.692610
20
77.774760
30
0.0
11
-9.176960
21
82.975610
31
0.0
0
LINE
8
0
6
CONTINUOUS
10
-12.911270
20
69.128520
30
0.0
11
-11.928900
21
73.147190
31
0.0
0
LINE
8
0
6
CONTINUOUS
10
-15.340190
20
58.118790
30
0.0
11
-14.494550
21
61.900630
31
0.0
0
LINE
8
0
6
CONTINUOUS
10
-16.221740
20
54.069070
30
0.0
11
-15.340190
21
58.118790
31
0.0
0
LINE
8
0
6
CONTINUOUS
10
-17.129650
20
49.895680
30
0.0
11
-16.221740
21
54.069070
31
0.0
0
LINE
8
0
6
CONTINUOUS
10
-18.054480
20
45.741420
30
0.0
11
-17.129650
21
49.895680
31
0.0
0
LINE
8
0
6
CONTINUOUS
10
-18.910040
20
45.678550
30
0.0
11
-18.694640
21
47.010320
31
0.0
0
LINE
8
0
6
CONTINUOUS
10
-47.169200
20
123.019990
30
0.0
11
-53.396930
21
116.188020
31
0.0
0
LINE
8
0
6
CONTINUOUS
10
-1.884260
20
106.303970
30
0.0
11
0.042840
21
111.284710
31
0.0
0
LINE
8
0
6
CONTINUOUS
10
-53.396930
20
116.188020
30
0.0
11
-59.454600
21
108.673810
31
0.0
0
LINE
8
0
6
CONTINUOUS
10
-59.454600
20
108.673810
30
0.0
11
-63.509290
21
101.092120
31
0.0
0
LINE
8
0
6
CONTINUOUS
10
-4.264260
20
101.075070
30
0.0
11
-1.884260
21
106.303970
31
0.0
0
LINE
8
0
6
CONTINUOUS
10
-6.679800
20
95.467560
30
0.0
11
-4.264260
21
101.075070
31
0.0
0
LINE
8
0
6
CONTINUOUS
10
-63.509290
20
101.092120
30
0.0
11
-66.605140
21
94.416090
31
0.0
0
LINE
8
0
6
CONTINUOUS
10
-66.605140
20
94.416090
30
0.0
11
-68.380700
21
88.429770
31
0.0
0
LINE
8
0
6
CONTINUOUS
10
-54.120070
20
35.144420
30
0.0
11
-55.708530
21
40.732600
31
0.0
0
LINE
8
0
6
CONTINUOUS
10
-57.130570
20
40.421340
30
0.0
11
-55.447350
21
34.427210
31
0.0
0
LINE
8
0
6
CONTINUOUS
10
-68.380700
20
88.429770
30
0.0
11
-68.953630
21
82.644630
31
0.0
0
LINE
8
0
6
CONTINUOUS
10
-68.953630
20
82.644630
30
0.0
11
-68.660430
21
77.573160
31
0.0
0
LINE
8
0
6
CONTINUOUS
10
-68.660430
20
77.573160
30
0.0
11
-67.975350
21
73.016900
31
0.0
0
LINE
8
0
6
CONTINUOUS
10
-55.447350
20
34.427210
30
0.0
11
-52.758750
21
27.800650
31
0.0
0
LINE
8
0
6
CONTINUOUS
10
-45.587260
20
18.394910
30
0.0
11
-42.303010
21
15.363640
31
0.0
0
LINE
8
0
6
CONTINUOUS
10
-67.975350
20
73.016900
30
0.0
11
-66.840170
21
68.893810
31
0.0
0
LINE
8
0
6
CONTINUOUS
10
-66.840170
20
68.893810
30
0.0
11
-65.297830
21
64.915720
31
0.0
0
LINE
8
0
6
CONTINUOUS
10
-10.403890
20
84.237830
30
0.0
11
-8.665830
21
89.784350
31
0.0
0
LINE
8
0
6
CONTINUOUS
10
-12.966010
20
74.307220
30
0.0
11
-11.853060
21
79.009160
31
0.0
0
LINE
8
0
6
CONTINUOUS
10
-14.425780
20
66.646530
30
0.0
11
-13.708380
21
70.192180
31
0.0
0
LINE
8
0
6
CONTINUOUS
10
-15.250040
20
63.003070
30
0.0
11
-14.425780
21
66.646530
31
0.0
0
LINE
8
0
6
CONTINUOUS
10
-42.411450
20
122.806220
30
0.0
11
-43.945230
21
123.448820
31
0.0
0
LINE
8
0
6
CONTINUOUS
10
-43.477740
20
123.016650
30
0.0
11
-42.411450
21
122.806220
31
0.0
0
LINE
8
0
6
CONTINUOUS
10
-43.945230
20
123.448820
30
0.0
11
-44.673580
21
123.692370
31
0.0
0
LINE
8
0
6
CONTINUOUS
10
-65.297830
20
64.915720
30
0.0
11
-63.585100
21
60.430820
31
0.0
0
LINE
8
0
6
CONTINUOUS
10
-63.585100
20
60.430820
30
0.0
11
-61.784550
21
55.776590
31
0.0
0
LINE
8
0
6
CONTINUOUS
10
-60.018740
20
51.000700
30
0.0
11
-58.731200
21
46.997730
31
0.0
0
LINE
8
0
6
CONTINUOUS
10
-61.784550
20
55.776590
30
0.0
11
-60.018740
21
51.000700
31
0.0
0
LINE
8
0
6
CONTINUOUS
10
-52.758750
20
27.800650
30
0.0
11
-48.766240
21
21.548130
31
0.0
0
LINE
8
0
6
CONTINUOUS
10
-42.303010
20
15.363640
30
0.0
11
-37.964470
21
13.927880
31
0.0
0
LINE
8
0
6
CONTINUOUS
10
-33.810460
20
15.531920
30
0.0
11
-30.177090
21
18.075700
31
0.0
0
LINE
8
0
6
CONTINUOUS
10
-30.177090
20
18.075700
30
0.0
11
-25.354100
21
25.452930
31
0.0
0
LINE
8
0
6
CONTINUOUS
10
-25.354100
20
25.452930
30
0.0
11
-21.974050
21
34.376440
31
0.0
0
LINE
8
0
6
CONTINUOUS
10
-19.760620
20
42.248370
30
0.0
11
-19.231300
21
44.262310
31
0.0
0
LINE
8
0
6
CONTINUOUS
10
-0.666680
20
112.374890
30
0.0
11
-1.063200
21
112.355890
31
0.0
0
LINE
8
0
6
CONTINUOUS
10
0.636670
20
111.958130
30
0.0
11
-0.666680
21
112.374890
31
0.0
0
LINE
8
0
6
CONTINUOUS
10
0.418280
20
111.947870
30
0.0
11
0.636670
21
111.958130
31
0.0
0
LINE
8
0
6
CONTINUOUS
10
-8.665830
20
89.784350
30
0.0
11
-6.679800
21
95.467560
31
0.0
0
LINE
8
0
6
CONTINUOUS
10
-11.853060
20
79.009160
30
0.0
11
-10.403890
21
84.237830
31
0.0
0
LINE
8
0
6
CONTINUOUS
10
-13.708380
20
70.192180
30
0.0
11
-12.966010
21
74.307220
31
0.0
0
LINE
8
0
6
CONTINUOUS
10
-16.098040
20
59.141400
30
0.0
11
-15.250040
21
63.003070
31
0.0
0
LINE
8
0
6
CONTINUOUS
10
-16.974520
20
55.110730
30
0.0
11
-16.098040
21
59.141400
31
0.0
0
LINE
8
0
6
CONTINUOUS
10
-17.859800
20
51.057960
30
0.0
11
-16.974520
21
55.110730
31
0.0
0
LINE
8
0
6
CONTINUOUS
10
-18.694640
20
47.010320
30
0.0
11
-17.859800
21
51.057960
31
0.0
0
LINE
8
0
6
CONTINUOUS
10
-50.851470
20
51.868260
30
0.0
11
-55.206900
21
58.837630
31
0.0
0
LINE
8
0
6
CONTINUOUS
10
-47.070930
20
48.061690
30
0.0
11
-50.851470
21
51.868260
31
0.0
0
LINE
8
0
6
CONTINUOUS
10
-40.068260
20
46.372420
30
0.0
11
-43.367380
21
46.341450
31
0.0
0
LINE
8
0
6
CONTINUOUS
10
-37.299880
20
47.535320
30
0.0
11
-40.068260
21
46.372420
31
0.0
0
LINE
8
0
6
CONTINUOUS
10
-30.983010
20
52.957600
30
0.0
11
-34.428520
21
49.564700
31
0.0
0
LINE
8
0
6
CONTINUOUS
10
-56.135310
20
46.233740
30
0.0
11
-55.783390
21
44.978270
31
0.0
0
LINE
8
0
6
CONTINUOUS
10
-21.569810
20
46.067820
30
0.0
11
-21.356510
21
46.954490
31
0.0
0
LINE
8
0
6
CONTINUOUS
10
-27.949250
20
108.191840
30
0.0
11
-32.416270
21
111.241390
31
0.0
0
LINE
8
0
6
CONTINUOUS
10
-57.476920
20
42.531730
30
0.0
11
-57.130570
21
40.421340
31
0.0
0
LINE
8
0
6
CONTINUOUS
10
-36.170510
20
114.924960
30
0.0
11
-41.009200
21
121.172170
31
0.0
0
LINE
8
0
6
CONTINUOUS
10
-54.504660
20
41.269710
30
0.0
11
-52.794850
21
35.663920
31
0.0
0
LINE
8
0
6
CONTINUOUS
10
-32.416270
20
111.241390
30
0.0
11
-36.170510
21
114.924960
31
0.0
0
LINE
8
0
6
CONTINUOUS
10
-28.106650
20
108.146960
30
0.0
11
-22.837920
21
105.804930
31
0.0
0
LINE
8
0
6
CONTINUOUS
10
-22.837920
20
105.804930
30
0.0
11
-27.949250
21
108.191840
31
0.0
0
LINE
8
0
6
CONTINUOUS
10
-52.794850
20
35.663920
30
0.0
11
-50.238400
21
29.189670
31
0.0
0
LINE
8
0
6
CONTINUOUS
10
-44.408060
20
20.482420
30
0.0
11
-41.748610
21
17.835470
31
0.0
0
LINE
8
0
6
CONTINUOUS
10
-50.238400
20
29.189670
30
0.0
11
-46.844400
21
23.263700
31
0.0
0
LINE
8
0
6
CONTINUOUS
10
-38.204020
20
16.390720
30
0.0
11
-38.222770
21
17.142850
31
0.0
0
LINE
8
0
6
CONTINUOUS
10
-41.748610
20
17.835470
30
0.0
11
-38.204020
21
16.390720
31
0.0
0
LINE
8
0
6
CONTINUOUS
10
-34.677560
20
17.598530
30
0.0
11
-31.848060
21
19.955660
31
0.0
0
LINE
8
0
6
CONTINUOUS
10
-31.848060
20
19.955660
30
0.0
11
-27.597090
21
26.691420
31
0.0
0
LINE
8
0
6
CONTINUOUS
10
-27.597090
20
26.691420
30
0.0
11
-24.379430
21
35.307580
31
0.0
0
LINE
8
0
6
CONTINUOUS
10
-22.578990
20
42.762840
30
0.0
11
-21.943870
21
44.737900
31
0.0
0
LINE
8
0
6
CONTINUOUS
10
-2.452610
20
112.056490
30
0.0
11
-3.281870
21
111.257140
31
0.0
0
LINE
8
0
6
CONTINUOUS
10
-3.281870
20
111.257140
30
0.0
11
-3.378180
21
111.150900
31
0.0
0
LINE
8
0
6
CONTINUOUS
10
-55.121270
20
43.074770
30
0.0
11
-54.504660
21
41.269710
31
0.0
0
LINE
8
0
6
CONTINUOUS
10
-8.269190
20
106.206750
30
0.0
11
-10.804910
21
105.066230
31
0.0
0
LINE
8
0
6
CONTINUOUS
10
-54.029440
20
-29.694280
30
0.0
11
-52.155980
21
-29.694510
31
0.0
0
LINE
8
0
6
CONTINUOUS
10
-3.378180
20
111.150900
30
0.0
11
-4.283690
21
110.256320
31
0.0
0
LINE
8
0
6
CONTINUOUS
10
-57.370280
20
63.091590
30
0.0
11
-57.934760
21
66.503570
31
0.0
0
LINE
8
0
6
CONTINUOUS
10
-55.206900
20
58.837630
30
0.0
11
-59.828030
21
68.844140
31
0.0
0
LINE
8
0
6
CONTINUOUS
10
-56.539450
20
38.394790
30
0.0
11
-56.327010
21
28.969220
31
0.0
0
LINE
8
0
6
CONTINUOUS
10
-59.828030
20
68.844140
30
0.0
11
-57.370280
21
63.091590
31
0.0
0
LINE
8
0
6
CONTINUOUS
10
-11.992020
20
92.156880
30
0.0
11
-14.008770
21
86.337790
31
0.0
0
LINE
8
0
6
CONTINUOUS
10
-40.433700
20
42.114590
30
0.0
11
-40.739240
21
38.267780
31
0.0
0
LINE
8
0
6
CONTINUOUS
10
-26.502210
20
58.690750
30
0.0
11
-30.983010
21
52.957600
31
0.0
0
LINE
8
0
6
CONTINUOUS
10
-22.120430
20
66.949190
30
0.0
11
-26.502210
21
58.690750
31
0.0
0
LINE
8
0
6
CONTINUOUS
10
-38.222770
20
17.142850
30
0.0
11
-38.220060
21
17.704950
31
0.0
0
LINE
8
0
6
CONTINUOUS
10
-14.008770
20
86.337790
30
0.0
11
-15.884250
21
80.950400
31
0.0
0
LINE
8
0
6
CONTINUOUS
10
-55.283920
20
32.299240
30
0.0
11
-56.460991
21
34.913712
31
0.0
0
LINE
8
0
6
CONTINUOUS
10
-58.493860
20
39.426430
30
0.0
11
-55.283920
21
32.299240
31
0.0
0
LINE
8
0
6
CONTINUOUS
10
-59.537400
20
46.079440
30
0.0
11
-61.112650
21
50.031020
31
0.0
0
LINE
8
0
6
CONTINUOUS
10
-17.475370
20
48.050130
30
0.0
11
-20.879270
21
35.575930
31
0.0
0
LINE
8
0
6
CONTINUOUS
10
-19.695320
20
39.313860
30
0.0
11
-17.475370
21
48.050130
31
0.0
0
LINE
8
0
6
CONTINUOUS
10
-20.879270
20
35.575930
30
0.0
11
-19.695320
21
39.313860
31
0.0
0
LINE
8
0
6
CONTINUOUS
10
-15.304890
20
-41.179760
30
0.0
11
-11.858350
21
-41.179760
31
0.0
0
LINE
8
0
6
CONTINUOUS
10
-45.213100
20
-41.179760
30
0.0
11
-39.740980
21
-41.179760
31
0.0
0
LINE
8
0
6
CONTINUOUS
10
-26.957450
20
-41.179760
30
0.0
11
-21.364090
21
-41.179760
31
0.0
0
LINE
8
0
6
CONTINUOUS
10
-55.392520
20
-41.179760
30
0.0
11
-50.285230
21
-41.179760
31
0.0
0
LINE
8
0
6
CONTINUOUS
10
-61.981640
20
-41.179760
30
0.0
11
-59.608050
21
-41.179760
31
0.0
0
LINE
8
0
6
CONTINUOUS
10
-62.057230
20
-38.695970
30
0.0
11
-61.981640
21
-41.179760
31
0.0
0
LINE
8
0
6
CONTINUOUS
10
-11.404190
20
-41.179760
30
0.0
11
-11.330410
21
-38.759130
31
0.0
0
LINE
8
0
6
CONTINUOUS
10
-11.858350
20
-41.179760
30
0.0
11
-11.404190
21
-41.179760
31
0.0
0
LINE
8
0
6
CONTINUOUS
10
-59.608050
20
-41.179760
30
0.0
11
-55.392520
21
-41.179760
31
0.0
0
LINE
8
0
6
CONTINUOUS
10
-39.740980
20
-41.179760
30
0.0
11
-34.147970
21
-41.179760
31
0.0
0
LINE
8
0
6
CONTINUOUS
10
-21.364090
20
-41.179760
30
0.0
11
-15.304890
21
-41.179760
31
0.0
0
LINE
8
0
6
CONTINUOUS
10
-1.460060
20
103.140710
30
0.0
11
1.100560
21
109.512260
31
0.0
0
LINE
8
0
6
CONTINUOUS
10
0.827870
20
108.950630
30
0.0
11
-1.460060
21
103.140710
31
0.0
0
LINE
8
0
6
CONTINUOUS
10
-4.984960
20
91.640650
30
0.0
11
-2.601710
21
98.759910
31
0.0
0
LINE
8
0
6
CONTINUOUS
10
-3.289530
20
98.810890
30
0.0
11
-4.984960
21
91.640650
31
0.0
0
LINE
8
0
6
CONTINUOUS
10
-66.540040
20
61.214460
30
0.0
11
-65.246570
21
57.853630
31
0.0
0
LINE
8
0
6
CONTINUOUS
10
-64.569580
20
55.446180
30
0.0
11
-68.411330
21
68.089420
31
0.0
0
LINE
8
0
6
CONTINUOUS
10
-68.411330
20
68.089420
30
0.0
11
-65.830500
21
58.255360
31
0.0
0
LINE
8
0
6
CONTINUOUS
10
-63.400820
20
53.381700
30
0.0
11
-67.582910
21
64.518200
31
0.0
0
LINE
8
0
6
CONTINUOUS
10
-67.582910
20
64.518200
30
0.0
11
-64.569580
21
55.446180
31
0.0
0
LINE
8
0
6
CONTINUOUS
10
-62.511660
20
50.761600
30
0.0
11
-63.733060
21
54.053550
31
0.0
0
LINE
8
0
6
CONTINUOUS
10
-65.246570
20
57.853630
30
0.0
11
-62.511660
21
50.761600
31
0.0
0
LINE
8
0
6
CONTINUOUS
10
-59.234050
20
45.179740
30
0.0
11
-59.537400
21
46.079440
31
0.0
0
LINE
8
0
6
CONTINUOUS
10
-63.002460
20
54.809870
30
0.0
11
-64.841670
21
59.457450
31
0.0
0
LINE
8
0
6
CONTINUOUS
10
-64.841670
20
59.457450
30
0.0
11
-66.618070
21
63.919000
31
0.0
0
LINE
8
0
6
CONTINUOUS
10
-67.582910
20
64.518200
30
0.0
11
-66.540040
21
61.214460
31
0.0
0
LINE
8
0
6
CONTINUOUS
10
-69.104540
20
70.150210
30
0.0
11
-67.582910
21
64.518200
31
0.0
0
LINE
8
0
6
CONTINUOUS
10
-63.955000
20
25.134650
30
0.0
11
-63.655820
21
13.249700
31
0.0
0
LINE
8
0
6
CONTINUOUS
10
-64.274280
20
37.608940
30
0.0
11
-63.955000
21
25.134650
31
0.0
0
LINE
8
0
6
CONTINUOUS
10
-63.655820
20
13.249700
30
0.0
11
-63.286270
21
1.689960
31
0.0
0
LINE
8
0
6
CONTINUOUS
10
-65.139750
20
50.707350
30
0.0
11
-64.274280
21
37.608940
31
0.0
0
LINE
8
0
6
CONTINUOUS
10
-63.830970
20
48.461030
30
0.0
11
-66.502670
21
63.906930
31
0.0
0
LINE
8
0
6
CONTINUOUS
10
-66.502670
20
63.906930
30
0.0
11
-65.139750
21
50.707350
31
0.0
0
LINE
8
0
6
CONTINUOUS
10
-62.250470
20
46.502330
30
0.0
11
-66.381860
21
60.801460
31
0.0
0
LINE
8
0
6
CONTINUOUS
10
-66.381860
20
60.801460
30
0.0
11
-63.830970
21
48.461030
31
0.0
0
LINE
8
0
6
CONTINUOUS
10
-65.830500
20
58.255360
30
0.0
11
-68.751680
21
72.163270
31
0.0
0
LINE
8
0
6
CONTINUOUS
10
-66.381860
20
60.801460
30
0.0
11
-65.830500
21
58.255360
31
0.0
0
LINE
8
0
6
CONTINUOUS
10
-68.751680
20
72.163270
30
0.0
11
-66.381860
21
60.801460
31
0.0
0
LINE
8
0
6
CONTINUOUS
10
-65.830500
20
58.255360
30
0.0
11
-62.250470
21
46.502330
31
0.0
0
LINE
8
0
6
CONTINUOUS
10
-53.569120
20
28.213570
30
0.0
11
-56.110120
21
34.300430
31
0.0
0
LINE
8
0
6
CONTINUOUS
10
-56.290100
20
34.617170
30
0.0
11
-53.569120
21
28.213570
31
0.0
0
LINE
8
0
6
CONTINUOUS
10
-7.907930
20
62.763190
30
0.0
11
-7.100496
21
81.451322
31
0.0
0
LINE
8
0
6
CONTINUOUS
10
-7.100480
20
81.451690
30
0.0
11
-7.756980
21
76.605560
31
0.0
0
LINE
8
0
6
CONTINUOUS
10
-2.601710
20
98.759910
30
0.0
11
0.827870
21
108.950630
31
0.0
0
LINE
8
0
6
CONTINUOUS
10
-7.756980
20
76.605560
30
0.0
11
-5.553380
21
92.871180
31
0.0
0
LINE
8
0
6
CONTINUOUS
10
-9.672410
20
12.696170
30
0.0
11
-9.220300
21
24.669160
31
0.0
0
LINE
8
0
6
CONTINUOUS
10
-8.737090
20
36.723200
30
0.0
11
-8.258440
21
49.344190
31
0.0
0
LINE
8
0
6
CONTINUOUS
10
-20.343090
20
48.825920
30
0.0
11
-16.710470
21
55.953780
31
0.0
0
LINE
8
0
6
CONTINUOUS
10
-16.710470
20
55.953780
30
0.0
11
-22.116010
21
46.666580
31
0.0
0
LINE
8
0
6
CONTINUOUS
10
-9.220300
20
24.669160
30
0.0
11
-8.737090
21
36.723200
31
0.0
0
LINE
8
0
6
CONTINUOUS
10
-8.258440
20
49.344190
30
0.0
11
-7.907930
21
62.763190
31
0.0
0
LINE
8
0
6
CONTINUOUS
10
-15.862080
20
59.391280
30
0.0
11
-20.343090
21
48.825920
31
0.0
0
LINE
8
0
6
CONTINUOUS
10
-10.130800
20
0.599890
30
0.0
11
-9.672410
21
12.696170
31
0.0
0
LINE
8
0
6
CONTINUOUS
10
-60.047760
20
43.610950
30
0.0
11
-58.493860
21
39.426430
31
0.0
0
LINE
8
0
6
CONTINUOUS
10
-63.733060
20
54.053550
30
0.0
11
-61.438430
21
47.464690
31
0.0
0
LINE
8
0
6
CONTINUOUS
10
-61.438430
20
47.464690
30
0.0
11
-60.047760
21
43.610950
31
0.0
0
LINE
8
0
6
CONTINUOUS
10
-12.263600
20
71.474180
30
0.0
11
-15.862080
21
59.391280
31
0.0
0
LINE
8
0
6
CONTINUOUS
10
-21.208550
20
34.354510
30
0.0
11
-18.840800
21
42.656110
31
0.0
0
LINE
8
0
6
CONTINUOUS
10
-7.100480
20
81.451690
30
0.0
11
-3.289530
21
98.810890
31
0.0
0
LINE
8
0
6
CONTINUOUS
10
-5.553380
20
92.871180
30
0.0
11
-7.100480
21
81.451690
31
0.0
0
ENDSEC
0
EOF
