999
Erzeugt mit innoplus bad 
0
SECTION
2
HEADER
9
$ACADVER
1
AC1009
9
$DWGCODEPAGE
3
ISO8859-1
0
ENDSEC
0
SECTION
2
TABLES
0
TABLE
2
LAYER
70
1
0
LAYER
2
0
70
0
62
7
6
CONTINUOUS
0
ENDTAB
0
ENDSEC
0
SECTION
2
ENTITIES
0
LINE
8
0
6
CONTINUOUS
10
69.738520
20
46.167825
30
0.0
11
3.336960
21
46.167825
31
0.0
0
LINE
8
0
6
CONTINUOUS
10
70.770890
20
38.804735
30
0.0
11
70.770900
21
39.634375
31
0.0
0
LINE
8
0
6
CONTINUOUS
10
70.770890
20
38.513405
30
0.0
11
70.770890
21
38.804735
31
0.0
0
LINE
8
0
6
CONTINUOUS
10
69.738520
20
38.513405
30
0.0
11
70.770890
21
38.513405
31
0.0
0
LINE
8
0
6
CONTINUOUS
10
3.336960
20
38.513405
30
0.0
11
69.738520
21
38.513405
31
0.0
0
LINE
8
0
6
CONTINUOUS
10
70.770890
20
46.167825
30
0.0
11
69.738520
21
46.167825
31
0.0
0
LINE
8
0
6
CONTINUOUS
10
70.770890
20
45.876495
30
0.0
11
70.770890
21
46.167825
31
0.0
0
LINE
8
0
6
CONTINUOUS
10
70.770900
20
45.046865
30
0.0
11
70.770890
21
45.876495
31
0.0
0
LINE
8
0
6
CONTINUOUS
10
70.770890
20
42.340625
30
0.0
11
70.770890
21
40.876015
31
0.0
0
LINE
8
0
6
CONTINUOUS
10
70.770890
20
40.876015
30
0.0
11
70.770900
21
39.634375
31
0.0
0
LINE
8
0
6
CONTINUOUS
10
70.770900
20
45.046865
30
0.0
11
70.770890
21
43.805225
31
0.0
0
LINE
8
0
6
CONTINUOUS
10
70.770890
20
43.805225
30
0.0
11
70.770890
21
42.340625
31
0.0
0
LINE
8
0
6
CONTINUOUS
10
-26.242250
20
55.656625
30
0.0
11
-29.411260
21
57.647845
31
0.0
0
LINE
8
0
6
CONTINUOUS
10
-47.083810
20
55.656645
30
0.0
11
-49.730270
21
53.010185
31
0.0
0
LINE
8
0
6
CONTINUOUS
10
-43.914800
20
57.647865
30
0.0
11
-47.083810
21
55.656645
31
0.0
0
LINE
8
0
6
CONTINUOUS
10
-23.595790
20
53.010165
30
0.0
11
-26.242250
21
55.656625
31
0.0
0
LINE
8
0
6
CONTINUOUS
10
-40.382160
20
58.883985
30
0.0
11
-43.914800
21
57.647865
31
0.0
0
LINE
8
0
6
CONTINUOUS
10
-49.730270
20
53.010185
30
0.0
11
-51.721490
21
49.841185
31
0.0
0
LINE
8
0
6
CONTINUOUS
10
-29.411260
20
57.647845
30
0.0
11
-32.943890
21
58.883975
31
0.0
0
LINE
8
0
6
CONTINUOUS
10
-32.943890
20
58.883975
30
0.0
11
-36.663030
21
59.303025
31
0.0
0
LINE
8
0
6
CONTINUOUS
10
-19.949420
20
42.589405
30
0.0
11
-20.368460
21
46.308505
31
0.0
0
LINE
8
0
6
CONTINUOUS
10
-51.721490
20
49.841185
30
0.0
11
-52.957610
21
46.308545
31
0.0
0
LINE
8
0
6
CONTINUOUS
10
-36.663030
20
59.303025
30
0.0
11
-40.382160
21
58.883985
31
0.0
0
LINE
8
0
6
CONTINUOUS
10
-20.368460
20
46.308505
30
0.0
11
-21.604580
21
49.841155
31
0.0
0
LINE
8
0
6
CONTINUOUS
10
-21.604580
20
49.841155
30
0.0
11
-23.595790
21
53.010165
31
0.0
0
LINE
8
0
6
CONTINUOUS
10
-52.957610
20
46.308545
30
0.0
11
-53.376660
21
42.589405
31
0.0
0
LINE
8
0
6
CONTINUOUS
10
-46.635220
20
44.865495
30
0.0
11
-46.891670
21
42.589405
31
0.0
0
LINE
8
0
6
CONTINUOUS
10
-45.878720
20
47.027445
30
0.0
11
-46.635220
21
44.865495
31
0.0
0
LINE
8
0
6
CONTINUOUS
10
-44.660100
20
48.966865
30
0.0
11
-45.878720
21
47.027445
31
0.0
0
LINE
8
0
6
CONTINUOUS
10
-43.040480
20
50.586475
30
0.0
11
-44.660100
21
48.966865
31
0.0
0
LINE
8
0
6
CONTINUOUS
10
-41.101070
20
51.805085
30
0.0
11
-43.040480
21
50.586475
31
0.0
0
LINE
8
0
6
CONTINUOUS
10
-38.939120
20
52.561585
30
0.0
11
-41.101070
21
51.805085
31
0.0
0
LINE
8
0
6
CONTINUOUS
10
-36.663030
20
52.818035
30
0.0
11
-38.939120
21
52.561585
31
0.0
0
LINE
8
0
6
CONTINUOUS
10
-34.386950
20
52.561585
30
0.0
11
-36.663030
21
52.818035
31
0.0
0
LINE
8
0
6
CONTINUOUS
10
-32.224990
20
51.805085
30
0.0
11
-34.386950
21
52.561585
31
0.0
0
LINE
8
0
6
CONTINUOUS
10
-30.285580
20
50.586465
30
0.0
11
-32.224990
21
51.805085
31
0.0
0
LINE
8
0
6
CONTINUOUS
10
-28.665970
20
48.966845
30
0.0
11
-30.285580
21
50.586465
31
0.0
0
LINE
8
0
6
CONTINUOUS
10
-27.447350
20
47.027425
30
0.0
11
-28.665970
21
48.966845
31
0.0
0
LINE
8
0
6
CONTINUOUS
10
-26.690850
20
44.865465
30
0.0
11
-27.447350
21
47.027425
31
0.0
0
LINE
8
0
6
CONTINUOUS
10
-26.434410
20
42.589405
30
0.0
11
-26.690850
21
44.865465
31
0.0
0
LINE
8
0
6
CONTINUOUS
10
-48.919670
20
42.589405
30
0.0
11
-48.612370
21
45.316765
31
0.0
0
LINE
8
0
6
CONTINUOUS
10
-48.612370
20
45.316765
30
0.0
11
-47.705880
21
47.907365
31
0.0
0
LINE
8
0
6
CONTINUOUS
10
-47.705880
20
47.907365
30
0.0
11
-46.245650
21
50.231295
31
0.0
0
LINE
8
0
6
CONTINUOUS
10
-46.245650
20
50.231295
30
0.0
11
-44.304920
21
52.172035
31
0.0
0
LINE
8
0
6
CONTINUOUS
10
-44.304920
20
52.172035
30
0.0
11
-41.980990
21
53.632245
31
0.0
0
LINE
8
0
6
CONTINUOUS
10
-41.980990
20
53.632245
30
0.0
11
-39.390390
21
54.538735
31
0.0
0
LINE
8
0
6
CONTINUOUS
10
-39.390390
20
54.538735
30
0.0
11
-36.663030
21
54.846035
31
0.0
0
LINE
8
0
6
CONTINUOUS
10
-36.663030
20
54.846035
30
0.0
11
-33.935670
21
54.538735
31
0.0
0
LINE
8
0
6
CONTINUOUS
10
-33.935670
20
54.538735
30
0.0
11
-31.345080
21
53.632235
31
0.0
0
LINE
8
0
6
CONTINUOUS
10
-31.345080
20
53.632235
30
0.0
11
-29.021150
21
52.172015
31
0.0
0
LINE
8
0
6
CONTINUOUS
10
-29.021150
20
52.172015
30
0.0
11
-27.080420
21
50.231275
31
0.0
0
LINE
8
0
6
CONTINUOUS
10
-27.080420
20
50.231275
30
0.0
11
-25.620190
21
47.907345
31
0.0
0
LINE
8
0
6
CONTINUOUS
10
-25.620190
20
47.907345
30
0.0
11
-24.713710
21
45.316735
31
0.0
0
LINE
8
0
6
CONTINUOUS
10
-24.713710
20
45.316735
30
0.0
11
-24.406410
21
42.589405
31
0.0
0
LINE
8
0
6
CONTINUOUS
10
3.053510
20
64.048995
30
0.0
11
1.364227
21
64.071932
31
0.0
0
LINE
8
0
6
CONTINUOUS
10
-29.411260
20
27.530955
30
0.0
11
-26.242250
21
29.522175
31
0.0
0
LINE
8
0
6
CONTINUOUS
10
-49.730270
20
32.168615
30
0.0
11
-47.083810
21
29.522155
31
0.0
0
LINE
8
0
6
CONTINUOUS
10
-47.083810
20
29.522155
30
0.0
11
-43.914800
21
27.530945
31
0.0
0
LINE
8
0
6
CONTINUOUS
10
-26.242250
20
29.522175
30
0.0
11
-23.595790
21
32.168645
31
0.0
0
LINE
8
0
6
CONTINUOUS
10
-43.914800
20
27.530945
30
0.0
11
-40.382160
21
26.294825
31
0.0
0
LINE
8
0
6
CONTINUOUS
10
-51.721490
20
35.337625
30
0.0
11
-49.730270
21
32.168615
31
0.0
0
LINE
8
0
6
CONTINUOUS
10
-32.943890
20
26.294825
30
0.0
11
-29.411260
21
27.530955
31
0.0
0
LINE
8
0
6
CONTINUOUS
10
-36.663030
20
25.875775
30
0.0
11
-32.943890
21
26.294825
31
0.0
0
LINE
8
0
6
CONTINUOUS
10
-20.368460
20
38.870295
30
0.0
11
-19.949420
21
42.589405
31
0.0
0
LINE
8
0
6
CONTINUOUS
10
-52.957610
20
38.870265
30
0.0
11
-51.721490
21
35.337625
31
0.0
0
LINE
8
0
6
CONTINUOUS
10
-40.382160
20
26.294825
30
0.0
11
-36.663030
21
25.875775
31
0.0
0
LINE
8
0
6
CONTINUOUS
10
-21.604580
20
35.337655
30
0.0
11
-20.368460
21
38.870295
31
0.0
0
LINE
8
0
6
CONTINUOUS
10
-23.595790
20
32.168645
30
0.0
11
-21.604580
21
35.337655
31
0.0
0
LINE
8
0
6
CONTINUOUS
10
-53.376660
20
42.589405
30
0.0
11
-52.957610
21
38.870265
31
0.0
0
LINE
8
0
6
CONTINUOUS
10
-46.891670
20
42.589405
30
0.0
11
-46.635220
21
40.313315
31
0.0
0
LINE
8
0
6
CONTINUOUS
10
-46.635220
20
40.313315
30
0.0
11
-45.878720
21
38.151355
31
0.0
0
LINE
8
0
6
CONTINUOUS
10
-45.878720
20
38.151355
30
0.0
11
-44.660100
21
36.211945
31
0.0
0
LINE
8
0
6
CONTINUOUS
10
-44.660100
20
36.211945
30
0.0
11
-43.040480
21
34.592325
31
0.0
0
LINE
8
0
6
CONTINUOUS
10
-43.040480
20
34.592325
30
0.0
11
-41.101070
21
33.373715
31
0.0
0
LINE
8
0
6
CONTINUOUS
10
-41.101070
20
33.373715
30
0.0
11
-38.939120
21
32.617225
31
0.0
0
LINE
8
0
6
CONTINUOUS
10
-38.939120
20
32.617225
30
0.0
11
-36.663030
21
32.360765
31
0.0
0
LINE
8
0
6
CONTINUOUS
10
-36.663030
20
32.360765
30
0.0
11
-34.386950
21
32.617225
31
0.0
0
LINE
8
0
6
CONTINUOUS
10
-34.386950
20
32.617225
30
0.0
11
-32.224990
21
33.373725
31
0.0
0
LINE
8
0
6
CONTINUOUS
10
-32.224990
20
33.373725
30
0.0
11
-30.285580
21
34.592345
31
0.0
0
LINE
8
0
6
CONTINUOUS
10
-30.285580
20
34.592345
30
0.0
11
-28.665970
21
36.211965
31
0.0
0
LINE
8
0
6
CONTINUOUS
10
-28.665970
20
36.211965
30
0.0
11
-27.447350
21
38.151375
31
0.0
0
LINE
8
0
6
CONTINUOUS
10
-27.447350
20
38.151375
30
0.0
11
-26.690850
21
40.313335
31
0.0
0
LINE
8
0
6
CONTINUOUS
10
-26.690850
20
40.313335
30
0.0
11
-26.434410
21
42.589405
31
0.0
0
LINE
8
0
6
CONTINUOUS
10
-48.612370
20
39.862035
30
0.0
11
-48.919670
21
42.589405
31
0.0
0
LINE
8
0
6
CONTINUOUS
10
-47.705880
20
37.271445
30
0.0
11
-48.612370
21
39.862035
31
0.0
0
LINE
8
0
6
CONTINUOUS
10
-46.245650
20
34.947505
30
0.0
11
-47.705880
21
37.271445
31
0.0
0
LINE
8
0
6
CONTINUOUS
10
-44.304920
20
33.006775
30
0.0
11
-46.245650
21
34.947505
31
0.0
0
LINE
8
0
6
CONTINUOUS
10
-41.980990
20
31.546555
30
0.0
11
-44.304920
21
33.006775
31
0.0
0
LINE
8
0
6
CONTINUOUS
10
-39.390390
20
30.640065
30
0.0
11
-41.980990
21
31.546555
31
0.0
0
LINE
8
0
6
CONTINUOUS
10
-36.663030
20
30.332775
30
0.0
11
-39.390390
21
30.640065
31
0.0
0
LINE
8
0
6
CONTINUOUS
10
-33.935670
20
30.640075
30
0.0
11
-36.663030
21
30.332775
31
0.0
0
LINE
8
0
6
CONTINUOUS
10
-31.345080
20
31.546565
30
0.0
11
-33.935670
21
30.640075
31
0.0
0
LINE
8
0
6
CONTINUOUS
10
-29.021150
20
33.006795
30
0.0
11
-31.345080
21
31.546565
31
0.0
0
LINE
8
0
6
CONTINUOUS
10
-27.080420
20
34.947525
30
0.0
11
-29.021150
21
33.006795
31
0.0
0
LINE
8
0
6
CONTINUOUS
10
-25.620190
20
37.271465
30
0.0
11
-27.080420
21
34.947525
31
0.0
0
LINE
8
0
6
CONTINUOUS
10
-24.713710
20
39.862065
30
0.0
11
-25.620190
21
37.271465
31
0.0
0
LINE
8
0
6
CONTINUOUS
10
-24.406410
20
42.589405
30
0.0
11
-24.713710
21
39.862065
31
0.0
0
LINE
8
0
6
CONTINUOUS
10
-9.488755
20
20.959515
30
0.0
11
3.053510
21
21.129815
31
0.0
0
LINE
8
0
6
CONTINUOUS
10
3.336960
20
56.345445
30
0.0
11
3.336960
21
59.718135
31
0.0
0
LINE
8
0
6
CONTINUOUS
10
3.336960
20
62.197495
30
0.0
11
3.336960
21
63.636325
31
0.0
0
LINE
8
0
6
CONTINUOUS
10
3.336960
20
63.636325
30
0.0
11
3.336960
21
64.045145
31
0.0
0
LINE
8
0
6
CONTINUOUS
10
3.336960
20
64.045145
30
0.0
11
3.053510
21
64.048995
31
0.0
0
LINE
8
0
6
CONTINUOUS
10
3.336960
20
47.576535
30
0.0
11
3.336960
21
52.203985
31
0.0
0
LINE
8
0
6
CONTINUOUS
10
3.336960
20
52.203985
30
0.0
11
3.336960
21
56.345445
31
0.0
0
LINE
8
0
6
CONTINUOUS
10
3.336960
20
42.589405
30
0.0
11
3.336960
21
47.576535
31
0.0
0
LINE
8
0
6
CONTINUOUS
10
3.336960
20
59.718135
30
0.0
11
3.336960
21
62.197495
31
0.0
0
LINE
8
0
6
CONTINUOUS
10
3.336960
20
25.460665
30
0.0
11
3.336960
21
28.833365
31
0.0
0
LINE
8
0
6
CONTINUOUS
10
3.336960
20
21.542485
30
0.0
11
3.336960
21
22.981305
31
0.0
0
LINE
8
0
6
CONTINUOUS
10
3.053510
20
21.129815
30
0.0
11
3.336960
21
21.133655
31
0.0
0
LINE
8
0
6
CONTINUOUS
10
3.336960
20
21.133655
30
0.0
11
3.336960
21
21.542485
31
0.0
0
LINE
8
0
6
CONTINUOUS
10
3.336960
20
32.974825
30
0.0
11
3.336960
21
37.602265
31
0.0
0
LINE
8
0
6
CONTINUOUS
10
3.336960
20
28.833365
30
0.0
11
3.336960
21
32.974825
31
0.0
0
LINE
8
0
6
CONTINUOUS
10
3.336960
20
37.602265
30
0.0
11
3.336960
21
42.589405
31
0.0
0
LINE
8
0
6
CONTINUOUS
10
3.336960
20
22.981305
30
0.0
11
3.336960
21
25.460665
31
0.0
0
LINE
8
0
6
CONTINUOUS
10
-35.962960
20
60.478135
30
0.0
11
-31.252790
21
59.685425
31
0.0
0
LINE
8
0
6
CONTINUOUS
10
-18.804590
20
42.007175
30
0.0
11
-19.494190
21
37.553845
31
0.0
0
LINE
8
0
6
CONTINUOUS
10
-19.212610
20
46.530405
30
0.0
11
-18.804590
21
42.007175
31
0.0
0
LINE
8
0
6
CONTINUOUS
10
-31.666080
20
25.420705
30
0.0
11
-36.100140
21
24.705825
31
0.0
0
LINE
8
0
6
CONTINUOUS
10
-21.229010
20
33.409775
30
0.0
11
-24.015340
21
29.884245
31
0.0
0
LINE
8
0
6
CONTINUOUS
10
-40.623610
20
25.074445
30
0.0
11
-44.956410
21
26.707055
31
0.0
0
LINE
8
0
6
CONTINUOUS
10
-20.741100
20
50.853155
30
0.0
11
-19.212610
21
46.530405
31
0.0
0
LINE
8
0
6
CONTINUOUS
10
-27.564490
20
27.185605
30
0.0
11
-31.666080
21
25.420705
31
0.0
0
LINE
8
0
6
CONTINUOUS
10
-53.843740
20
37.385845
30
0.0
11
-54.542640
21
42.172905
31
0.0
0
LINE
8
0
6
CONTINUOUS
10
-48.748680
20
29.407125
30
0.0
11
-51.779360
21
33.026605
31
0.0
0
LINE
8
0
6
CONTINUOUS
10
-19.494190
20
37.553845
30
0.0
11
-21.229010
21
33.409775
31
0.0
0
LINE
8
0
6
CONTINUOUS
10
-36.100140
20
24.705825
30
0.0
11
-40.623610
21
25.074445
31
0.0
0
LINE
8
0
6
CONTINUOUS
10
-27.012520
20
57.649935
30
0.0
11
-23.438100
21
54.656305
31
0.0
0
LINE
8
0
6
CONTINUOUS
10
-37.084280
20
-63.390095
30
0.0
11
-36.539030
21
-50.186035
31
0.0
0
LINE
8
0
6
CONTINUOUS
10
-41.565240
20
-63.587455
30
0.0
11
-41.484610
21
-50.074655
31
0.0
0
LINE
8
0
6
CONTINUOUS
10
-1.088330
20
72.982985
30
0.0
11
-5.000190
21
78.203115
31
0.0
0
LINE
8
0
6
CONTINUOUS
10
-10.200190
20
82.489305
30
0.0
11
-16.573080
21
85.838035
31
0.0
0
LINE
8
0
6
CONTINUOUS
10
-38.080160
20
-81.213305
30
0.0
11
-34.288220
21
-81.574325
31
0.0
0
LINE
8
0
6
CONTINUOUS
10
-38.204020
20
-81.117615
30
0.0
11
-34.677560
21
-81.306425
31
0.0
0
LINE
8
0
6
CONTINUOUS
10
-47.736410
20
-83.153885
30
0.0
11
-44.913930
21
-82.348735
31
0.0
0
LINE
8
0
6
CONTINUOUS
10
-46.844400
20
-82.855005
30
0.0
11
-44.408060
21
-82.039105
31
0.0
0
LINE
8
0
6
CONTINUOUS
10
-56.197880
20
-88.256755
30
0.0
11
-55.121270
21
-87.696595
31
0.0
0
LINE
8
0
6
CONTINUOUS
10
-44.384800
20
79.863445
30
0.0
11
-45.014340
21
78.575955
31
0.0
0
LINE
8
0
6
CONTINUOUS
10
-58.893090
20
-87.120905
30
0.0
11
-57.476920
21
-88.277665
31
0.0
0
LINE
8
0
6
CONTINUOUS
10
-42.411450
20
76.677375
30
0.0
11
-41.544990
21
78.169015
31
0.0
0
LINE
8
0
6
CONTINUOUS
10
-42.909960
20
79.342635
30
0.0
11
-43.945230
21
77.675605
31
0.0
0
LINE
8
0
6
CONTINUOUS
10
-57.476920
20
-88.277665
30
0.0
11
-56.197880
21
-88.256755
31
0.0
0
LINE
8
0
6
CONTINUOUS
10
-58.041850
20
-87.795595
30
0.0
11
-57.476920
21
-88.277665
31
0.0
0
LINE
8
0
6
CONTINUOUS
10
-55.783390
20
-87.169985
30
0.0
11
-55.121270
21
-87.696595
31
0.0
0
LINE
8
0
6
CONTINUOUS
10
-45.054460
20
79.255665
30
0.0
11
-45.999410
21
78.227595
31
0.0
0
LINE
8
0
6
CONTINUOUS
10
-56.100110
20
66.805855
30
0.0
11
-60.716950
21
60.473555
31
0.0
0
LINE
8
0
6
CONTINUOUS
10
-50.305880
20
73.617875
30
0.0
11
-56.100110
21
66.805855
31
0.0
0
LINE
8
0
6
CONTINUOUS
10
-45.999410
20
78.227595
30
0.0
11
-50.305880
21
73.617875
31
0.0
0
LINE
8
0
6
CONTINUOUS
10
1.403550
20
64.462525
30
0.0
11
1.390720
21
65.453335
31
0.0
0
LINE
8
0
6
CONTINUOUS
10
-1.006980
20
66.355545
30
0.0
11
-0.666680
21
64.848595
31
0.0
0
LINE
8
0
6
CONTINUOUS
10
-24.379430
20
-86.058425
30
0.0
11
-22.578990
21
-87.356475
31
0.0
0
LINE
8
0
6
CONTINUOUS
10
-19.795870
20
32.597188
30
0.0
11
-23.998330
21
27.231085
31
0.0
0
LINE
8
0
6
CONTINUOUS
10
-54.542640
20
42.172905
30
0.0
11
-54.029440
21
47.015235
31
0.0
0
LINE
8
0
6
CONTINUOUS
10
-17.894697
20
35.769281
30
0.0
11
-21.824350
21
28.782035
31
0.0
0
LINE
8
0
6
CONTINUOUS
10
-16.670280
20
41.799435
30
0.0
11
-18.263770
21
33.951625
31
0.0
0
LINE
8
0
6
CONTINUOUS
10
-17.643750
20
37.708995
30
0.0
11
-20.473170
21
30.988435
31
0.0
0
LINE
8
0
6
CONTINUOUS
10
-22.824836
20
28.729515
30
0.0
11
-27.811450
21
24.780125
31
0.0
0
LINE
8
0
6
CONTINUOUS
10
0.907420
20
61.578785
30
0.0
11
1.260970
21
63.046295
31
0.0
0
LINE
8
0
6
CONTINUOUS
10
0.042840
20
60.964265
30
0.0
11
0.418280
21
62.735095
31
0.0
0
LINE
8
0
6
CONTINUOUS
10
-39.609820
20
84.693155
30
0.0
11
-45.054460
21
79.255665
31
0.0
0
LINE
8
0
6
CONTINUOUS
10
-46.846390
20
76.370055
30
0.0
11
-45.828600
21
77.270525
31
0.0
0
LINE
8
0
6
CONTINUOUS
10
-44.913930
20
-82.348735
30
0.0
11
-42.011020
21
-81.597535
31
0.0
0
LINE
8
0
6
CONTINUOUS
10
-51.395240
20
-84.771955
30
0.0
11
-46.844400
21
-82.855005
31
0.0
0
LINE
8
0
6
CONTINUOUS
10
-42.011020
20
-81.597535
30
0.0
11
-38.080160
21
-81.213305
31
0.0
0
LINE
8
0
6
CONTINUOUS
10
-34.288220
20
-81.574325
30
0.0
11
-31.049460
21
-82.243335
31
0.0
0
LINE
8
0
6
CONTINUOUS
10
-22.578990
20
-87.356475
30
0.0
11
-21.217400
21
-88.304075
31
0.0
0
LINE
8
0
6
CONTINUOUS
10
-56.197880
20
-88.256755
30
0.0
11
-55.708530
21
-88.070045
31
0.0
0
LINE
8
0
6
CONTINUOUS
10
-59.537400
20
-84.877925
30
0.0
11
-59.234050
21
-86.482915
31
0.0
0
LINE
8
0
6
CONTINUOUS
10
-19.231300
20
-87.836545
30
0.0
11
-18.646640
21
-86.920245
31
0.0
0
LINE
8
0
6
CONTINUOUS
10
-18.646640
20
-86.920245
30
0.0
11
-18.343880
21
-86.090385
31
0.0
0
LINE
8
0
6
CONTINUOUS
10
-58.731200
20
-85.080735
30
0.0
11
-58.327240
21
-86.587425
31
0.0
0
LINE
8
0
6
CONTINUOUS
10
-19.231300
20
-87.836545
30
0.0
11
-18.910040
21
-86.911795
31
0.0
0
LINE
8
0
6
CONTINUOUS
10
-56.407820
20
-84.536695
30
0.0
11
-56.135310
21
-86.050625
31
0.0
0
LINE
8
0
6
CONTINUOUS
10
-21.943870
20
-87.201825
30
0.0
11
-21.569810
21
-86.127795
31
0.0
0
LINE
8
0
6
CONTINUOUS
10
-38.220060
20
-78.646825
30
0.0
11
-38.217660
21
-77.156045
31
0.0
0
LINE
8
0
6
CONTINUOUS
10
-59.234050
20
-86.482915
30
0.0
11
-58.893090
21
-87.120905
31
0.0
0
LINE
8
0
6
CONTINUOUS
10
-18.343880
20
-86.090385
30
0.0
11
-18.054480
21
-84.662225
31
0.0
0
LINE
8
0
6
CONTINUOUS
10
-1.061320
20
55.691165
30
0.0
11
0.907420
21
61.578785
31
0.0
0
LINE
8
0
6
CONTINUOUS
10
-29.472390
20
88.304075
30
0.0
11
-35.014800
21
87.137715
31
0.0
0
LINE
8
0
6
CONTINUOUS
10
-61.399610
20
59.226185
30
0.0
11
-66.147680
21
50.351405
31
0.0
0
LINE
8
0
6
CONTINUOUS
10
-3.228780
20
49.149835
30
0.0
11
-1.061320
21
55.691165
31
0.0
0
LINE
8
0
6
CONTINUOUS
10
-5.435440
20
41.558705
30
0.0
11
-3.228780
21
49.149835
31
0.0
0
LINE
8
0
6
CONTINUOUS
10
-66.147680
20
50.351405
30
0.0
11
-69.100710
21
40.610595
31
0.0
0
LINE
8
0
6
CONTINUOUS
10
-69.100710
20
40.610595
30
0.0
11
-70.397260
21
30.895345
31
0.0
0
LINE
8
0
6
CONTINUOUS
10
-39.609820
20
84.693155
30
0.0
11
-44.384800
21
79.863445
31
0.0
0
LINE
8
0
6
CONTINUOUS
10
-35.014800
20
87.137715
30
0.0
11
-39.609820
21
84.693155
31
0.0
0
LINE
8
0
6
CONTINUOUS
10
-23.060840
20
87.818105
30
0.0
11
-29.472390
21
88.304075
31
0.0
0
LINE
8
0
6
CONTINUOUS
10
-70.397260
20
30.895345
30
0.0
11
-70.770900
21
20.263335
31
0.0
0
LINE
8
0
6
CONTINUOUS
10
-70.770900
20
20.263335
30
0.0
11
-70.384590
21
9.485005
31
0.0
0
LINE
8
0
6
CONTINUOUS
10
-70.384590
20
9.485005
30
0.0
11
-69.495550
21
-1.479375
31
0.0
0
LINE
8
0
6
CONTINUOUS
10
-69.495550
20
-1.479375
30
0.0
11
-68.189240
21
-13.605675
31
0.0
0
LINE
8
0
6
CONTINUOUS
10
-68.189240
20
-13.605675
30
0.0
11
-66.618070
21
-26.615625
31
0.0
0
LINE
8
0
6
CONTINUOUS
10
-9.176960
20
23.100215
30
0.0
11
-7.425910
21
32.823985
31
0.0
0
LINE
8
0
6
CONTINUOUS
10
-16.573080
20
85.838035
30
0.0
11
-23.060840
21
87.818105
31
0.0
0
LINE
8
0
6
CONTINUOUS
10
-5.000190
20
78.203115
30
0.0
11
-10.200190
21
82.489305
31
0.0
0
LINE
8
0
6
CONTINUOUS
10
-11.928900
20
1.862905
30
0.0
11
-10.692610
21
12.694175
31
0.0
0
LINE
8
0
6
CONTINUOUS
10
-13.712880
20
-20.630605
30
0.0
11
-12.911270
21
-9.237245
31
0.0
0
LINE
8
0
6
CONTINUOUS
10
-14.494550
20
-32.575665
30
0.0
11
-13.712880
21
-20.630605
31
0.0
0
LINE
8
0
6
CONTINUOUS
10
-43.945230
20
77.675605
30
0.0
11
-45.014340
21
78.575955
31
0.0
0
LINE
8
0
6
CONTINUOUS
10
-45.014340
20
78.575955
30
0.0
11
-45.828600
21
77.270525
31
0.0
0
LINE
8
0
6
CONTINUOUS
10
-66.618070
20
-26.615625
30
0.0
11
-64.841670
21
-41.283115
31
0.0
0
LINE
8
0
6
CONTINUOUS
10
-64.841670
20
-41.283115
30
0.0
11
-63.002460
21
-56.486295
31
0.0
0
LINE
8
0
6
CONTINUOUS
10
-61.112650
20
-72.110885
30
0.0
11
-59.537400
21
-84.877925
31
0.0
0
LINE
8
0
6
CONTINUOUS
10
-63.002460
20
-56.486295
30
0.0
11
-61.112650
21
-72.110885
31
0.0
0
LINE
8
0
6
CONTINUOUS
10
1.260970
20
63.046295
30
0.0
11
1.403550
21
64.462525
31
0.0
0
LINE
8
0
6
CONTINUOUS
10
-7.425910
20
32.823985
30
0.0
11
-5.435440
21
41.558705
31
0.0
0
LINE
8
0
6
CONTINUOUS
10
-10.692610
20
12.694175
30
0.0
11
-9.176960
21
23.100215
31
0.0
0
LINE
8
0
6
CONTINUOUS
10
-12.911270
20
-9.237245
30
0.0
11
-11.928900
21
1.862905
31
0.0
0
LINE
8
0
6
CONTINUOUS
10
-15.340190
20
-45.220465
30
0.0
11
-14.494550
21
-32.575665
31
0.0
0
LINE
8
0
6
CONTINUOUS
10
-16.221740
20
-58.386495
30
0.0
11
-15.340190
21
-45.220465
31
0.0
0
LINE
8
0
6
CONTINUOUS
10
-17.129650
20
-71.615455
30
0.0
11
-16.221740
21
-58.386495
31
0.0
0
LINE
8
0
6
CONTINUOUS
10
-18.054480
20
-84.662225
30
0.0
11
-17.129650
21
-71.615455
31
0.0
0
LINE
8
0
6
CONTINUOUS
10
-18.910040
20
-86.911795
30
0.0
11
-18.694640
21
-84.978635
31
0.0
0
LINE
8
0
6
CONTINUOUS
10
-47.169200
20
73.968355
30
0.0
11
-53.396930
21
66.311045
31
0.0
0
LINE
8
0
6
CONTINUOUS
10
-1.884260
20
55.190615
30
0.0
11
0.042840
21
60.964265
31
0.0
0
LINE
8
0
6
CONTINUOUS
10
-53.396930
20
66.311045
30
0.0
11
-59.454600
21
57.902915
31
0.0
0
LINE
8
0
6
CONTINUOUS
10
-59.454600
20
57.902915
30
0.0
11
-63.509290
21
48.888725
31
0.0
0
LINE
8
0
6
CONTINUOUS
10
-4.264260
20
48.717725
30
0.0
11
-1.884260
21
55.190615
31
0.0
0
LINE
8
0
6
CONTINUOUS
10
-6.679800
20
41.063135
30
0.0
11
-4.264260
21
48.717725
31
0.0
0
LINE
8
0
6
CONTINUOUS
10
-63.509290
20
48.888725
30
0.0
11
-66.605140
21
39.582165
31
0.0
0
LINE
8
0
6
CONTINUOUS
10
-66.605140
20
39.582165
30
0.0
11
-68.380700
21
30.095885
31
0.0
0
LINE
8
0
6
CONTINUOUS
10
-41.544990
20
78.169015
30
0.0
11
-36.765770
21
82.959215
31
0.0
0
LINE
8
0
6
CONTINUOUS
10
-37.995310
20
84.217785
30
0.0
11
-42.909960
21
79.342635
31
0.0
0
LINE
8
0
6
CONTINUOUS
10
-68.380700
20
30.095885
30
0.0
11
-68.953630
21
19.767605
31
0.0
0
LINE
8
0
6
CONTINUOUS
10
-68.953630
20
19.767605
30
0.0
11
-68.660430
21
9.285195
31
0.0
0
LINE
8
0
6
CONTINUOUS
10
-68.660430
20
9.285195
30
0.0
11
-67.975350
21
-1.636915
31
0.0
0
LINE
8
0
6
CONTINUOUS
10
-67.975350
20
-1.636915
30
0.0
11
-66.840170
21
-13.676555
31
0.0
0
LINE
8
0
6
CONTINUOUS
10
-66.840170
20
-13.676555
30
0.0
11
-65.297830
21
-26.685955
31
0.0
0
LINE
8
0
6
CONTINUOUS
10
-10.403890
20
22.748815
30
0.0
11
-8.665830
21
32.339005
31
0.0
0
LINE
8
0
6
CONTINUOUS
10
-12.966010
20
1.651845
30
0.0
11
-11.853060
21
12.393705
31
0.0
0
LINE
8
0
6
CONTINUOUS
10
-14.425780
20
-20.909115
30
0.0
11
-13.708380
21
-9.447635
31
0.0
0
LINE
8
0
6
CONTINUOUS
10
-15.250040
20
-32.833495
30
0.0
11
-14.425780
21
-20.909115
31
0.0
0
LINE
8
0
6
CONTINUOUS
10
-43.477740
20
75.416455
30
0.0
11
-42.411450
21
76.677375
31
0.0
0
LINE
8
0
6
CONTINUOUS
10
-65.297830
20
-26.685955
30
0.0
11
-63.585100
21
-41.352895
31
0.0
0
LINE
8
0
6
CONTINUOUS
10
-63.585100
20
-41.352895
30
0.0
11
-61.784550
21
-56.573665
31
0.0
0
LINE
8
0
6
CONTINUOUS
10
-60.018740
20
-72.192205
30
0.0
11
-58.731200
21
-85.080735
31
0.0
0
LINE
8
0
6
CONTINUOUS
10
-61.784550
20
-56.573665
30
0.0
11
-60.018740
21
-72.192205
31
0.0
0
LINE
8
0
6
CONTINUOUS
10
1.390720
20
65.453335
30
0.0
11
-1.088330
21
72.982985
31
0.0
0
LINE
8
0
6
CONTINUOUS
10
-21.217400
20
-88.304075
30
0.0
11
-19.760620
21
-88.240795
31
0.0
0
LINE
8
0
6
CONTINUOUS
10
-19.760620
20
-88.240795
30
0.0
11
-19.231300
21
-87.836545
31
0.0
0
LINE
8
0
6
CONTINUOUS
10
0.418280
20
62.735095
30
0.0
11
0.636670
21
64.639195
31
0.0
0
LINE
8
0
6
CONTINUOUS
10
-8.665830
20
32.339005
30
0.0
11
-6.679800
21
41.063135
31
0.0
0
LINE
8
0
6
CONTINUOUS
10
-11.853060
20
12.393705
30
0.0
11
-10.403890
21
22.748815
31
0.0
0
LINE
8
0
6
CONTINUOUS
10
-13.708380
20
-9.447635
30
0.0
11
-12.966010
21
1.651845
31
0.0
0
LINE
8
0
6
CONTINUOUS
10
-16.098040
20
-45.460195
30
0.0
11
-15.250040
21
-32.833495
31
0.0
0
LINE
8
0
6
CONTINUOUS
10
-16.974520
20
-58.636465
30
0.0
11
-16.098040
21
-45.460195
31
0.0
0
LINE
8
0
6
CONTINUOUS
10
-17.859800
20
-71.888125
30
0.0
11
-16.974520
21
-58.636465
31
0.0
0
LINE
8
0
6
CONTINUOUS
10
-18.694640
20
-84.978635
30
0.0
11
-17.859800
21
-71.888125
31
0.0
0
LINE
8
0
6
CONTINUOUS
10
-56.135310
20
-86.050625
30
0.0
11
-55.783390
21
-87.169985
31
0.0
0
LINE
8
0
6
CONTINUOUS
10
-21.569810
20
-86.127795
30
0.0
11
-21.356510
21
-84.508095
31
0.0
0
LINE
8
0
6
CONTINUOUS
10
-54.504660
20
-87.261985
30
0.0
11
-52.794850
21
-85.764035
31
0.0
0
LINE
8
0
6
CONTINUOUS
10
-52.794850
20
-85.764035
30
0.0
11
-50.238400
21
-84.191365
31
0.0
0
LINE
8
0
6
CONTINUOUS
10
-44.408060
20
-82.039105
30
0.0
11
-41.748610
21
-81.519835
31
0.0
0
LINE
8
0
6
CONTINUOUS
10
-50.238400
20
-84.191365
30
0.0
11
-46.844400
21
-82.855005
31
0.0
0
LINE
8
0
6
CONTINUOUS
10
-38.204020
20
-81.117615
30
0.0
11
-38.222770
21
-80.138825
31
0.0
0
LINE
8
0
6
CONTINUOUS
10
-41.748610
20
-81.519835
30
0.0
11
-38.204020
21
-81.117615
31
0.0
0
LINE
8
0
6
CONTINUOUS
10
-34.677560
20
-81.306425
30
0.0
11
-31.848060
21
-82.055885
31
0.0
0
LINE
8
0
6
CONTINUOUS
10
-31.848060
20
-82.055885
30
0.0
11
-27.597090
21
-83.833495
31
0.0
0
LINE
8
0
6
CONTINUOUS
10
-27.597090
20
-83.833495
30
0.0
11
-24.379430
21
-86.058425
31
0.0
0
LINE
8
0
6
CONTINUOUS
10
0.529650
20
66.391925
30
0.0
11
-2.225590
21
73.386565
31
0.0
0
LINE
8
0
6
CONTINUOUS
10
-22.578990
20
-87.356475
30
0.0
11
-21.943870
21
-87.201825
31
0.0
0
LINE
8
0
6
CONTINUOUS
10
-55.121270
20
-87.696595
30
0.0
11
-54.504660
21
-87.261985
31
0.0
0
LINE
8
0
6
CONTINUOUS
10
-45.280740
20
58.345295
30
0.0
11
-40.721450
21
60.013875
31
0.0
0
LINE
8
0
6
CONTINUOUS
10
-54.029440
20
47.015235
30
0.0
11
-52.155980
21
51.564695
31
0.0
0
LINE
8
0
6
CONTINUOUS
10
-31.252790
20
59.685425
30
0.0
11
-27.012520
21
57.649935
31
0.0
0
LINE
8
0
6
CONTINUOUS
10
-52.155980
20
51.564695
30
0.0
11
-49.140970
21
55.395955
31
0.0
0
LINE
8
0
6
CONTINUOUS
10
-23.438100
20
54.656305
30
0.0
11
-20.741100
21
50.853155
31
0.0
0
LINE
8
0
6
CONTINUOUS
10
-44.956410
20
26.707055
30
0.0
11
-48.748680
21
29.407125
31
0.0
0
LINE
8
0
6
CONTINUOUS
10
-40.721450
20
60.013875
30
0.0
11
-35.962960
21
60.478135
31
0.0
0
LINE
8
0
6
CONTINUOUS
10
-24.015340
20
29.884245
30
0.0
11
-27.564490
21
27.185605
31
0.0
0
LINE
8
0
6
CONTINUOUS
10
-49.140970
20
55.395955
30
0.0
11
-45.280740
21
58.345295
31
0.0
0
LINE
8
0
6
CONTINUOUS
10
-51.779360
20
33.026605
30
0.0
11
-53.843740
21
37.385845
31
0.0
0
LINE
8
0
6
CONTINUOUS
10
-40.433700
20
-14.411365
30
0.0
11
-40.739240
21
-25.249155
31
0.0
0
LINE
8
0
6
CONTINUOUS
10
-38.222770
20
-80.138825
30
0.0
11
-38.220060
21
-78.646825
31
0.0
0
LINE
8
0
6
CONTINUOUS
10
-48.223570
20
75.074075
30
0.0
11
-46.846390
21
76.370055
31
0.0
0
LINE
8
0
6
CONTINUOUS
10
-61.399610
20
59.226185
30
0.0
11
-54.883270
21
67.515785
31
0.0
0
LINE
8
0
6
CONTINUOUS
10
-60.716950
20
60.473555
30
0.0
11
-61.399610
21
59.226185
31
0.0
0
LINE
8
0
6
CONTINUOUS
10
-54.883270
20
67.515785
30
0.0
11
-48.223570
21
75.074075
31
0.0
0
ENDSEC
0
EOF
