999
Erzeugt mit innoplus bad 
0
SECTION
2
HEADER
9
$ACADVER
1
AC1009
9
$DWGCODEPAGE
3
ISO8859-1
0
ENDSEC
0
SECTION
2
TABLES
0
TABLE
2
LAYER
70
1
0
LAYER
2
0
70
0
62
7
6
CONTINUOUS
0
ENDTAB
0
ENDSEC
0
SECTION
2
ENTITIES
0
LINE
8
0
6
CONTINUOUS
10
38.507525
20
-75.726500
30
0.0
11
40.491615
21
-75.062670
31
0.0
0
LINE
8
0
6
CONTINUOUS
10
50.015525
20
-78.181500
30
0.0
11
51.209815
21
-79.846500
31
0.0
0
LINE
8
0
6
CONTINUOUS
10
50.419975
20
-89.988780
30
0.0
11
48.908755
21
-91.590170
31
0.0
0
LINE
8
0
6
CONTINUOUS
10
42.589405
20
-93.804060
30
0.0
11
40.406635
21
-93.581720
31
0.0
0
LINE
8
0
6
CONTINUOUS
10
44.687195
20
-75.062670
30
0.0
11
46.671285
21
-75.726500
31
0.0
0
LINE
8
0
6
CONTINUOUS
10
46.671285
20
-75.726500
30
0.0
11
48.472165
21
-76.745080
31
0.0
0
LINE
8
0
6
CONTINUOUS
10
48.908755
20
-91.590170
30
0.0
11
47.038385
21
-92.757080
31
0.0
0
LINE
8
0
6
CONTINUOUS
10
40.491615
20
-75.062670
30
0.0
11
42.589405
21
-74.853970
31
0.0
0
LINE
8
0
6
CONTINUOUS
10
51.209815
20
-79.846500
30
0.0
11
52.015395
21
-81.855190
31
0.0
0
LINE
8
0
6
CONTINUOUS
10
33.569545
20
-88.032440
30
0.0
11
32.984375
21
-86.080680
31
0.0
0
LINE
8
0
6
CONTINUOUS
10
47.038385
20
-92.757080
30
0.0
11
44.772175
21
-93.581720
31
0.0
0
LINE
8
0
6
CONTINUOUS
10
38.140425
20
-92.757080
30
0.0
11
36.270055
21
-91.590170
31
0.0
0
LINE
8
0
6
CONTINUOUS
10
40.406635
20
-93.581720
30
0.0
11
38.140425
21
-92.757080
31
0.0
0
LINE
8
0
6
CONTINUOUS
10
52.194435
20
-86.080680
30
0.0
11
51.609255
21
-88.032440
31
0.0
0
LINE
8
0
6
CONTINUOUS
10
32.814915
20
-83.867460
30
0.0
11
33.163405
21
-81.855190
31
0.0
0
LINE
8
0
6
CONTINUOUS
10
33.968995
20
-79.846500
30
0.0
11
35.163285
21
-78.181500
31
0.0
0
LINE
8
0
6
CONTINUOUS
10
52.015395
20
-81.855190
30
0.0
11
52.363895
21
-83.867460
31
0.0
0
LINE
8
0
6
CONTINUOUS
10
34.758835
20
-89.988780
30
0.0
11
33.569545
21
-88.032440
31
0.0
0
LINE
8
0
6
CONTINUOUS
10
35.163285
20
-78.181500
30
0.0
11
36.706645
21
-76.745080
31
0.0
0
LINE
8
0
6
CONTINUOUS
10
36.270055
20
-91.590170
30
0.0
11
34.758835
21
-89.988780
31
0.0
0
LINE
8
0
6
CONTINUOUS
10
36.706645
20
-76.745080
30
0.0
11
38.507525
21
-75.726500
31
0.0
0
LINE
8
0
6
CONTINUOUS
10
32.984375
20
-86.080680
30
0.0
11
32.814915
21
-83.867460
31
0.0
0
LINE
8
0
6
CONTINUOUS
10
33.163405
20
-81.855190
30
0.0
11
33.968995
21
-79.846500
31
0.0
0
LINE
8
0
6
CONTINUOUS
10
52.363895
20
-83.867460
30
0.0
11
52.194435
21
-86.080680
31
0.0
0
LINE
8
0
6
CONTINUOUS
10
44.772175
20
-93.581720
30
0.0
11
42.589405
21
-93.804060
31
0.0
0
LINE
8
0
6
CONTINUOUS
10
42.589405
20
-74.853970
30
0.0
11
44.687195
21
-75.062670
31
0.0
0
LINE
8
0
6
CONTINUOUS
10
48.472165
20
-76.745080
30
0.0
11
50.015525
21
-78.181500
31
0.0
0
LINE
8
0
6
CONTINUOUS
10
51.609255
20
-88.032440
30
0.0
11
50.419975
21
-89.988780
31
0.0
0
LINE
8
0
6
CONTINUOUS
10
46.167825
20
-86.890603
30
0.0
11
46.167825
21
-85.839230
31
0.0
0
LINE
8
0
6
CONTINUOUS
10
38.513405
20
-85.839230
30
0.0
11
38.513405
21
-86.892134
31
0.0
0
LINE
8
0
6
CONTINUOUS
10
42.340625
20
-82.012020
30
0.0
11
40.876015
21
-82.303350
31
0.0
0
LINE
8
0
6
CONTINUOUS
10
40.876015
20
-82.303350
30
0.0
11
39.634375
21
-83.132990
31
0.0
0
LINE
8
0
6
CONTINUOUS
10
39.634375
20
-83.132990
30
0.0
11
38.804735
21
-84.374620
31
0.0
0
LINE
8
0
6
CONTINUOUS
10
38.804735
20
-84.374620
30
0.0
11
38.513405
21
-85.839230
31
0.0
0
LINE
8
0
6
CONTINUOUS
10
38.513405
20
-85.839230
30
0.0
11
38.804735
21
-87.303840
31
0.0
0
LINE
8
0
6
CONTINUOUS
10
38.804735
20
-87.303840
30
0.0
11
39.634375
21
-88.545470
31
0.0
0
LINE
8
0
6
CONTINUOUS
10
39.634375
20
-88.545470
30
0.0
11
40.876015
21
-89.375100
31
0.0
0
LINE
8
0
6
CONTINUOUS
10
40.876015
20
-89.375100
30
0.0
11
42.340625
21
-89.666440
31
0.0
0
LINE
8
0
6
CONTINUOUS
10
42.340625
20
-89.666440
30
0.0
11
43.805225
21
-89.375110
31
0.0
0
LINE
8
0
6
CONTINUOUS
10
43.805225
20
-89.375110
30
0.0
11
45.046865
21
-88.545470
31
0.0
0
LINE
8
0
6
CONTINUOUS
10
45.046865
20
-88.545470
30
0.0
11
45.876495
21
-87.303840
31
0.0
0
LINE
8
0
6
CONTINUOUS
10
45.876495
20
-87.303840
30
0.0
11
46.167825
21
-85.839230
31
0.0
0
LINE
8
0
6
CONTINUOUS
10
46.167825
20
-85.839230
30
0.0
11
45.876495
21
-84.374620
31
0.0
0
LINE
8
0
6
CONTINUOUS
10
45.876495
20
-84.374620
30
0.0
11
45.046865
21
-83.132980
31
0.0
0
LINE
8
0
6
CONTINUOUS
10
45.046865
20
-83.132980
30
0.0
11
43.805225
21
-82.303350
31
0.0
0
LINE
8
0
6
CONTINUOUS
10
43.805225
20
-82.303350
30
0.0
11
42.340625
21
-82.012020
31
0.0
0
LINE
8
0
6
CONTINUOUS
10
65.217935
20
-42.375590
30
0.0
11
62.225695
21
-42.375590
31
0.0
0
LINE
8
0
6
CONTINUOUS
10
62.225695
20
-42.375590
30
0.0
11
58.248815
21
-42.375590
31
0.0
0
LINE
8
0
6
CONTINUOUS
10
67.075475
20
-123.764390
30
0.0
11
67.705195
21
-123.764390
31
0.0
0
LINE
8
0
6
CONTINUOUS
10
67.705195
20
-123.764390
30
0.0
11
67.705195
21
-122.880800
31
0.0
0
LINE
8
0
6
CONTINUOUS
10
65.217935
20
-123.764390
30
0.0
11
67.075475
21
-123.764390
31
0.0
0
LINE
8
0
6
CONTINUOUS
10
62.225695
20
-123.764390
30
0.0
11
65.217935
21
-123.764390
31
0.0
0
LINE
8
0
6
CONTINUOUS
10
58.248815
20
-123.764390
30
0.0
11
62.225695
21
-123.764390
31
0.0
0
LINE
8
0
6
CONTINUOUS
10
53.486705
20
-123.764390
30
0.0
11
58.248815
21
-123.764390
31
0.0
0
LINE
8
0
6
CONTINUOUS
10
42.589405
20
-123.764390
30
0.0
11
48.178155
21
-123.764390
31
0.0
0
LINE
8
0
6
CONTINUOUS
10
48.178155
20
-123.764390
30
0.0
11
53.486705
21
-123.764390
31
0.0
0
LINE
8
0
6
CONTINUOUS
10
54.056575
20
-42.039070
30
0.0
11
54.056575
21
-41.179760
31
0.0
0
LINE
8
0
6
CONTINUOUS
10
49.739055
20
-42.375590
30
0.0
11
51.554795
21
-42.375590
31
0.0
0
LINE
8
0
6
CONTINUOUS
10
51.554795
20
-42.375590
30
0.0
11
52.920965
21
-42.375590
31
0.0
0
LINE
8
0
6
CONTINUOUS
10
42.589405
20
-42.375590
30
0.0
11
45.141075
21
-42.375590
31
0.0
0
LINE
8
0
6
CONTINUOUS
10
52.920965
20
-42.375590
30
0.0
11
53.769065
21
-42.375590
31
0.0
0
LINE
8
0
6
CONTINUOUS
10
45.141075
20
-42.375590
30
0.0
11
47.564805
21
-42.375590
31
0.0
0
LINE
8
0
6
CONTINUOUS
10
54.056575
20
-42.375590
30
0.0
11
54.056575
21
-42.039070
31
0.0
0
LINE
8
0
6
CONTINUOUS
10
53.769065
20
-42.375590
30
0.0
11
54.056575
21
-42.375590
31
0.0
0
LINE
8
0
6
CONTINUOUS
10
47.564805
20
-42.375590
30
0.0
11
49.739055
21
-42.375590
31
0.0
0
LINE
8
0
6
CONTINUOUS
10
51.640425
20
-103.201670
30
0.0
11
52.897065
21
-102.632620
31
0.0
0
LINE
8
0
6
CONTINUOUS
10
55.620535
20
-100.864610
30
0.0
11
56.797655
21
-99.929870
31
0.0
0
LINE
8
0
6
CONTINUOUS
10
47.104155
20
-104.770380
30
0.0
11
47.985415
21
-104.569300
31
0.0
0
LINE
8
0
6
CONTINUOUS
10
67.705195
20
-72.643220
30
0.0
11
67.705195
21
-43.369870
31
0.0
0
LINE
8
0
6
CONTINUOUS
10
59.739115
20
-70.978570
30
0.0
11
57.847145
21
-68.651960
31
0.0
0
LINE
8
0
6
CONTINUOUS
10
57.847145
20
-68.651960
30
0.0
11
56.378795
21
-67.355390
31
0.0
0
LINE
8
0
6
CONTINUOUS
10
62.907255
20
-76.654860
30
0.0
11
62.207545
21
-75.100990
31
0.0
0
LINE
8
0
6
CONTINUOUS
10
58.959695
20
-97.612100
30
0.0
11
59.989015
21
-96.500510
31
0.0
0
LINE
8
0
6
CONTINUOUS
10
61.681715
20
-93.635550
30
0.0
11
62.288815
21
-92.704600
31
0.0
0
LINE
8
0
6
CONTINUOUS
10
52.246695
20
-64.695170
30
0.0
11
48.512145
21
-63.103890
31
0.0
0
LINE
8
0
6
CONTINUOUS
10
48.512145
20
-63.103890
30
0.0
11
47.611595
21
-62.945160
31
0.0
0
LINE
8
0
6
CONTINUOUS
10
56.378795
20
-67.355390
30
0.0
11
53.681325
21
-65.357190
31
0.0
0
LINE
8
0
6
CONTINUOUS
10
53.681325
20
-65.357190
30
0.0
11
52.246695
21
-64.695170
31
0.0
0
LINE
8
0
6
CONTINUOUS
10
47.611595
20
-62.945160
30
0.0
11
42.589405
21
-62.272160
31
0.0
0
LINE
8
0
6
CONTINUOUS
10
62.207545
20
-75.100990
30
0.0
11
60.914825
21
-72.530270
31
0.0
0
LINE
8
0
6
CONTINUOUS
10
60.914825
20
-72.530270
30
0.0
11
59.739115
21
-70.978570
31
0.0
0
LINE
8
0
6
CONTINUOUS
10
67.705195
20
-95.874750
30
0.0
11
67.705195
21
-84.905980
31
0.0
0
LINE
8
0
6
CONTINUOUS
10
67.705195
20
-84.905980
30
0.0
11
67.705195
21
-72.643220
31
0.0
0
LINE
8
0
6
CONTINUOUS
10
67.705195
20
-42.375590
30
0.0
11
67.075475
21
-42.375590
31
0.0
0
LINE
8
0
6
CONTINUOUS
10
67.705195
20
-43.369870
30
0.0
11
67.705195
21
-42.375590
31
0.0
0
LINE
8
0
6
CONTINUOUS
10
67.075475
20
-42.375590
30
0.0
11
65.217935
21
-42.375590
31
0.0
0
LINE
8
0
6
CONTINUOUS
10
58.248815
20
-42.375590
30
0.0
11
53.486705
21
-42.375590
31
0.0
0
LINE
8
0
6
CONTINUOUS
10
48.178155
20
-42.375590
30
0.0
11
42.589405
21
-42.375590
31
0.0
0
LINE
8
0
6
CONTINUOUS
10
53.486705
20
-42.375590
30
0.0
11
48.178155
21
-42.375590
31
0.0
0
LINE
8
0
6
CONTINUOUS
10
67.705195
20
-122.880800
30
0.0
11
67.705195
21
-95.874750
31
0.0
0
LINE
8
0
6
CONTINUOUS
10
22.953105
20
-42.375590
30
0.0
11
19.960875
21
-42.375590
31
0.0
0
LINE
8
0
6
CONTINUOUS
10
26.929995
20
-42.375590
30
0.0
11
22.953105
21
-42.375590
31
0.0
0
LINE
8
0
6
CONTINUOUS
10
17.473615
20
-122.880800
30
0.0
11
17.473615
21
-123.764390
31
0.0
0
LINE
8
0
6
CONTINUOUS
10
17.473615
20
-123.764390
30
0.0
11
18.103325
21
-123.764390
31
0.0
0
LINE
8
0
6
CONTINUOUS
10
18.103325
20
-123.764390
30
0.0
11
19.960875
21
-123.764390
31
0.0
0
LINE
8
0
6
CONTINUOUS
10
19.960875
20
-123.764390
30
0.0
11
22.953105
21
-123.764390
31
0.0
0
LINE
8
0
6
CONTINUOUS
10
22.953105
20
-123.764390
30
0.0
11
26.929995
21
-123.764390
31
0.0
0
LINE
8
0
6
CONTINUOUS
10
26.929995
20
-123.764390
30
0.0
11
31.692105
21
-123.764390
31
0.0
0
LINE
8
0
6
CONTINUOUS
10
37.000655
20
-123.764390
30
0.0
11
42.589405
21
-123.764390
31
0.0
0
LINE
8
0
6
CONTINUOUS
10
31.692105
20
-123.764390
30
0.0
11
37.000655
21
-123.764390
31
0.0
0
LINE
8
0
6
CONTINUOUS
10
31.122225
20
-41.179760
30
0.0
11
31.122225
21
-42.039070
31
0.0
0
LINE
8
0
6
CONTINUOUS
10
33.624015
20
-42.375590
30
0.0
11
35.439745
21
-42.375590
31
0.0
0
LINE
8
0
6
CONTINUOUS
10
32.257845
20
-42.375590
30
0.0
11
33.624015
21
-42.375590
31
0.0
0
LINE
8
0
6
CONTINUOUS
10
40.037735
20
-42.375590
30
0.0
11
42.589405
21
-42.375590
31
0.0
0
LINE
8
0
6
CONTINUOUS
10
31.409735
20
-42.375590
30
0.0
11
32.257845
21
-42.375590
31
0.0
0
LINE
8
0
6
CONTINUOUS
10
37.613995
20
-42.375590
30
0.0
11
40.037735
21
-42.375590
31
0.0
0
LINE
8
0
6
CONTINUOUS
10
31.122225
20
-42.375590
30
0.0
11
31.409735
21
-42.375590
31
0.0
0
LINE
8
0
6
CONTINUOUS
10
31.122225
20
-42.039070
30
0.0
11
31.122225
21
-42.375590
31
0.0
0
LINE
8
0
6
CONTINUOUS
10
35.439745
20
-42.375590
30
0.0
11
37.613995
21
-42.375590
31
0.0
0
LINE
8
0
6
CONTINUOUS
10
32.281745
20
-102.632620
30
0.0
11
33.538385
21
-103.201670
31
0.0
0
LINE
8
0
6
CONTINUOUS
10
28.381145
20
-99.929870
30
0.0
11
29.558265
21
-100.864610
31
0.0
0
LINE
8
0
6
CONTINUOUS
10
37.193395
20
-104.569300
30
0.0
11
38.074645
21
-104.770380
31
0.0
0
LINE
8
0
6
CONTINUOUS
10
17.473615
20
-43.369870
30
0.0
11
17.473615
21
-72.643220
31
0.0
0
LINE
8
0
6
CONTINUOUS
10
27.331655
20
-68.651960
30
0.0
11
25.439695
21
-70.978570
31
0.0
0
LINE
8
0
6
CONTINUOUS
10
28.800005
20
-67.355390
30
0.0
11
27.331655
21
-68.651960
31
0.0
0
LINE
8
0
6
CONTINUOUS
10
22.971255
20
-75.100990
30
0.0
11
22.271545
21
-76.654860
31
0.0
0
LINE
8
0
6
CONTINUOUS
10
25.189795
20
-96.500510
30
0.0
11
26.219105
21
-97.612100
31
0.0
0
LINE
8
0
6
CONTINUOUS
10
22.889995
20
-92.704600
30
0.0
11
23.497085
21
-93.635550
31
0.0
0
LINE
8
0
6
CONTINUOUS
10
36.666655
20
-63.103890
30
0.0
11
32.932115
21
-64.695170
31
0.0
0
LINE
8
0
6
CONTINUOUS
10
37.567215
20
-62.945160
30
0.0
11
36.666655
21
-63.103890
31
0.0
0
LINE
8
0
6
CONTINUOUS
10
31.497485
20
-65.357190
30
0.0
11
28.800005
21
-67.355390
31
0.0
0
LINE
8
0
6
CONTINUOUS
10
32.932115
20
-64.695170
30
0.0
11
31.497485
21
-65.357190
31
0.0
0
LINE
8
0
6
CONTINUOUS
10
42.589405
20
-62.272160
30
0.0
11
37.567215
21
-62.945160
31
0.0
0
LINE
8
0
6
CONTINUOUS
10
24.263975
20
-72.530270
30
0.0
11
22.971255
21
-75.100990
31
0.0
0
LINE
8
0
6
CONTINUOUS
10
25.439695
20
-70.978570
30
0.0
11
24.263975
21
-72.530270
31
0.0
0
LINE
8
0
6
CONTINUOUS
10
17.473615
20
-84.905980
30
0.0
11
17.473615
21
-95.874750
31
0.0
0
LINE
8
0
6
CONTINUOUS
10
17.473615
20
-72.643220
30
0.0
11
17.473615
21
-84.905980
31
0.0
0
LINE
8
0
6
CONTINUOUS
10
17.473615
20
-42.375590
30
0.0
11
17.473615
21
-43.369870
31
0.0
0
LINE
8
0
6
CONTINUOUS
10
18.103325
20
-42.375590
30
0.0
11
17.473615
21
-42.375590
31
0.0
0
LINE
8
0
6
CONTINUOUS
10
19.960875
20
-42.375590
30
0.0
11
18.103325
21
-42.375590
31
0.0
0
LINE
8
0
6
CONTINUOUS
10
31.692105
20
-42.375590
30
0.0
11
26.929995
21
-42.375590
31
0.0
0
LINE
8
0
6
CONTINUOUS
10
42.589405
20
-42.375590
30
0.0
11
37.000655
21
-42.375590
31
0.0
0
LINE
8
0
6
CONTINUOUS
10
37.000655
20
-42.375590
30
0.0
11
31.692105
21
-42.375590
31
0.0
0
LINE
8
0
6
CONTINUOUS
10
17.473615
20
-95.874750
30
0.0
11
17.473615
21
-122.880800
31
0.0
0
LINE
8
0
6
CONTINUOUS
10
56.345445
20
-67.325940
30
0.0
11
52.203985
21
-64.675460
31
0.0
0
LINE
8
0
6
CONTINUOUS
10
47.070015
20
-104.778170
30
0.0
11
51.603085
21
-103.218580
31
0.0
0
LINE
8
0
6
CONTINUOUS
10
42.589405
20
-105.211610
30
0.0
11
47.070015
21
-104.778170
31
0.0
0
LINE
8
0
6
CONTINUOUS
10
51.603085
20
-103.218580
30
0.0
11
55.594235
21
-100.885490
31
0.0
0
LINE
8
0
6
CONTINUOUS
10
32.974825
20
-64.675460
30
0.0
11
28.833365
21
-67.325940
31
0.0
0
LINE
8
0
6
CONTINUOUS
10
33.575715
20
-103.218580
30
0.0
11
38.108795
21
-104.778170
31
0.0
0
LINE
8
0
6
CONTINUOUS
10
38.108795
20
-104.778170
30
0.0
11
42.589405
21
-105.211610
31
0.0
0
LINE
8
0
6
CONTINUOUS
10
29.584565
20
-100.885490
30
0.0
11
33.575715
21
-103.218580
31
0.0
0
LINE
8
0
6
CONTINUOUS
10
55.185585
20
-68.710160
30
0.0
11
51.395955
21
-66.284850
31
0.0
0
LINE
8
0
6
CONTINUOUS
10
47.155325
20
-64.693530
30
0.0
11
42.589405
21
-64.186360
31
0.0
0
LINE
8
0
6
CONTINUOUS
10
54.499415
20
-99.439340
30
0.0
11
57.561215
21
-96.463090
31
0.0
0
LINE
8
0
6
CONTINUOUS
10
46.684895
20
-103.005190
30
0.0
11
50.851895
21
-101.571550
31
0.0
0
LINE
8
0
6
CONTINUOUS
10
60.543695
20
-75.807390
30
0.0
11
58.275525
21
-72.031210
31
0.0
0
LINE
8
0
6
CONTINUOUS
10
58.275525
20
-72.031210
30
0.0
11
55.185585
21
-68.710160
31
0.0
0
LINE
8
0
6
CONTINUOUS
10
61.863685
20
-80.145210
30
0.0
11
60.543695
21
-75.807390
31
0.0
0
LINE
8
0
6
CONTINUOUS
10
57.561215
20
-96.463090
30
0.0
11
60.069665
21
-92.805480
31
0.0
0
LINE
8
0
6
CONTINUOUS
10
60.069665
20
-92.805480
30
0.0
11
61.548045
21
-88.875440
31
0.0
0
LINE
8
0
6
CONTINUOUS
10
42.589405
20
-103.401380
30
0.0
11
46.684895
21
-103.005190
31
0.0
0
LINE
8
0
6
CONTINUOUS
10
62.237245
20
-84.440820
30
0.0
11
61.863685
21
-80.145210
31
0.0
0
LINE
8
0
6
CONTINUOUS
10
61.548045
20
-88.875440
30
0.0
11
62.237245
21
-84.440820
31
0.0
0
LINE
8
0
6
CONTINUOUS
10
51.395955
20
-66.284850
30
0.0
11
47.155325
21
-64.693530
31
0.0
0
LINE
8
0
6
CONTINUOUS
10
50.851895
20
-101.571550
30
0.0
11
54.499415
21
-99.439340
31
0.0
0
LINE
8
0
6
CONTINUOUS
10
33.782855
20
-66.284850
30
0.0
11
29.993215
21
-68.710160
31
0.0
0
LINE
8
0
6
CONTINUOUS
10
42.589405
20
-64.186360
30
0.0
11
38.023485
21
-64.693530
31
0.0
0
LINE
8
0
6
CONTINUOUS
10
27.617585
20
-96.463090
30
0.0
11
30.679395
21
-99.439340
31
0.0
0
LINE
8
0
6
CONTINUOUS
10
34.326905
20
-101.571550
30
0.0
11
38.493905
21
-103.005190
31
0.0
0
LINE
8
0
6
CONTINUOUS
10
26.903275
20
-72.031210
30
0.0
11
24.635115
21
-75.807390
31
0.0
0
LINE
8
0
6
CONTINUOUS
10
29.993215
20
-68.710160
30
0.0
11
26.903275
21
-72.031210
31
0.0
0
LINE
8
0
6
CONTINUOUS
10
24.635115
20
-75.807390
30
0.0
11
23.315125
21
-80.145210
31
0.0
0
LINE
8
0
6
CONTINUOUS
10
25.109145
20
-92.805480
30
0.0
11
27.617585
21
-96.463090
31
0.0
0
LINE
8
0
6
CONTINUOUS
10
23.630755
20
-88.875440
30
0.0
11
25.109145
21
-92.805480
31
0.0
0
LINE
8
0
6
CONTINUOUS
10
38.493905
20
-103.005190
30
0.0
11
42.589405
21
-103.401380
31
0.0
0
LINE
8
0
6
CONTINUOUS
10
23.315125
20
-80.145210
30
0.0
11
22.941555
21
-84.440820
31
0.0
0
LINE
8
0
6
CONTINUOUS
10
22.941555
20
-84.440820
30
0.0
11
23.630755
21
-88.875440
31
0.0
0
LINE
8
0
6
CONTINUOUS
10
38.023485
20
-64.693530
30
0.0
11
33.782855
21
-66.284850
31
0.0
0
LINE
8
0
6
CONTINUOUS
10
30.679395
20
-99.439340
30
0.0
11
34.326905
21
-101.571550
31
0.0
0
LINE
8
0
6
CONTINUOUS
10
51.571365
20
-65.934460
30
0.0
11
55.437245
21
-68.408570
31
0.0
0
LINE
8
0
6
CONTINUOUS
10
42.589405
20
-63.794290
30
0.0
11
47.246685
21
-64.311600
31
0.0
0
LINE
8
0
6
CONTINUOUS
10
57.860645
20
-96.715470
30
0.0
11
54.737015
21
-99.751820
31
0.0
0
LINE
8
0
6
CONTINUOUS
10
51.015205
20
-101.927470
30
0.0
11
46.768195
21
-103.388640
31
0.0
0
LINE
8
0
6
CONTINUOUS
10
58.588585
20
-71.795620
30
0.0
11
60.902495
21
-75.647950
31
0.0
0
LINE
8
0
6
CONTINUOUS
10
55.437245
20
-68.408570
30
0.0
11
58.588585
21
-71.795620
31
0.0
0
LINE
8
0
6
CONTINUOUS
10
60.902495
20
-75.647950
30
0.0
11
62.248365
21
-80.070800
31
0.0
0
LINE
8
0
6
CONTINUOUS
10
60.417755
20
-92.986910
30
0.0
11
57.860645
21
-96.715470
31
0.0
0
LINE
8
0
6
CONTINUOUS
10
61.926925
20
-88.975010
30
0.0
11
60.417755
21
-92.986910
31
0.0
0
LINE
8
0
6
CONTINUOUS
10
46.768195
20
-103.388640
30
0.0
11
42.589405
21
-103.792880
31
0.0
0
LINE
8
0
6
CONTINUOUS
10
62.248365
20
-80.070800
30
0.0
11
62.629545
21
-84.454050
31
0.0
0
LINE
8
0
6
CONTINUOUS
10
62.629545
20
-84.454050
30
0.0
11
61.926925
21
-88.975010
31
0.0
0
LINE
8
0
6
CONTINUOUS
10
47.246685
20
-64.311600
30
0.0
11
51.571365
21
-65.934460
31
0.0
0
LINE
8
0
6
CONTINUOUS
10
54.737015
20
-99.751820
30
0.0
11
51.015205
21
-101.927470
31
0.0
0
LINE
8
0
6
CONTINUOUS
10
29.741565
20
-68.408570
30
0.0
11
33.607445
21
-65.934460
31
0.0
0
LINE
8
0
6
CONTINUOUS
10
37.932125
20
-64.311600
30
0.0
11
42.589405
21
-63.794290
31
0.0
0
LINE
8
0
6
CONTINUOUS
10
30.441785
20
-99.751820
30
0.0
11
27.318165
21
-96.715470
31
0.0
0
LINE
8
0
6
CONTINUOUS
10
38.410615
20
-103.388640
30
0.0
11
34.163605
21
-101.927470
31
0.0
0
LINE
8
0
6
CONTINUOUS
10
24.276305
20
-75.647950
30
0.0
11
26.590215
21
-71.795620
31
0.0
0
LINE
8
0
6
CONTINUOUS
10
26.590215
20
-71.795620
30
0.0
11
29.741565
21
-68.408570
31
0.0
0
LINE
8
0
6
CONTINUOUS
10
22.930445
20
-80.070800
30
0.0
11
24.276305
21
-75.647950
31
0.0
0
LINE
8
0
6
CONTINUOUS
10
27.318165
20
-96.715470
30
0.0
11
24.761055
21
-92.986910
31
0.0
0
LINE
8
0
6
CONTINUOUS
10
24.761055
20
-92.986910
30
0.0
11
23.251875
21
-88.975010
31
0.0
0
LINE
8
0
6
CONTINUOUS
10
42.589405
20
-103.792880
30
0.0
11
38.410615
21
-103.388640
31
0.0
0
LINE
8
0
6
CONTINUOUS
10
22.549255
20
-84.454050
30
0.0
11
22.930445
21
-80.070800
31
0.0
0
LINE
8
0
6
CONTINUOUS
10
23.251875
20
-88.975010
30
0.0
11
22.549255
21
-84.454050
31
0.0
0
LINE
8
0
6
CONTINUOUS
10
33.607445
20
-65.934460
30
0.0
11
37.932125
21
-64.311600
31
0.0
0
LINE
8
0
6
CONTINUOUS
10
34.163605
20
-101.927470
30
0.0
11
30.441785
21
-99.751820
31
0.0
0
LINE
8
0
6
CONTINUOUS
10
58.941525
20
-97.631730
30
0.0
11
55.594235
21
-100.885490
31
0.0
0
LINE
8
0
6
CONTINUOUS
10
56.345445
20
-67.325940
30
0.0
11
59.718135
21
-70.950900
31
0.0
0
LINE
8
0
6
CONTINUOUS
10
62.197495
20
-75.078680
30
0.0
11
63.636325
21
-79.807010
31
0.0
0
LINE
8
0
6
CONTINUOUS
10
61.673035
20
-93.648850
30
0.0
11
58.941525
21
-97.631730
31
0.0
0
LINE
8
0
6
CONTINUOUS
10
63.294395
20
-89.338750
30
0.0
11
61.673035
21
-93.648850
31
0.0
0
LINE
8
0
6
CONTINUOUS
10
63.636325
20
-79.807010
30
0.0
11
64.045145
21
-84.508080
31
0.0
0
LINE
8
0
6
CONTINUOUS
10
64.045145
20
-84.508080
30
0.0
11
63.294395
21
-89.338750
31
0.0
0
LINE
8
0
6
CONTINUOUS
10
47.576535
20
-62.938980
30
0.0
11
52.203985
21
-64.675460
31
0.0
0
LINE
8
0
6
CONTINUOUS
10
52.203985
20
-64.675460
30
0.0
11
52.246695
21
-64.695170
31
0.0
0
LINE
8
0
6
CONTINUOUS
10
42.589405
20
-62.385030
30
0.0
11
47.576535
21
-62.938980
31
0.0
0
LINE
8
0
6
CONTINUOUS
10
59.718135
20
-70.950900
30
0.0
11
62.197495
21
-75.078680
31
0.0
0
LINE
8
0
6
CONTINUOUS
10
29.584565
20
-100.885490
30
0.0
11
26.237285
21
-97.631730
31
0.0
0
LINE
8
0
6
CONTINUOUS
10
25.460665
20
-70.950900
30
0.0
11
28.833365
21
-67.325940
31
0.0
0
LINE
8
0
6
CONTINUOUS
10
21.542485
20
-79.807010
30
0.0
11
22.981305
21
-75.078680
31
0.0
0
LINE
8
0
6
CONTINUOUS
10
26.237285
20
-97.631730
30
0.0
11
23.505765
21
-93.648850
31
0.0
0
LINE
8
0
6
CONTINUOUS
10
23.505765
20
-93.648850
30
0.0
11
21.884405
21
-89.338750
31
0.0
0
LINE
8
0
6
CONTINUOUS
10
21.133655
20
-84.508080
30
0.0
11
21.542485
21
-79.807010
31
0.0
0
LINE
8
0
6
CONTINUOUS
10
21.884405
20
-89.338750
30
0.0
11
21.133655
21
-84.508080
31
0.0
0
LINE
8
0
6
CONTINUOUS
10
32.932115
20
-64.695170
30
0.0
11
32.974825
21
-64.675460
31
0.0
0
LINE
8
0
6
CONTINUOUS
10
32.974825
20
-64.675460
30
0.0
11
37.602265
21
-62.938980
31
0.0
0
LINE
8
0
6
CONTINUOUS
10
37.602265
20
-62.938980
30
0.0
11
42.589405
21
-62.385030
31
0.0
0
LINE
8
0
6
CONTINUOUS
10
22.981305
20
-75.078680
30
0.0
11
25.460665
21
-70.950900
31
0.0
0
LINE
8
0
6
CONTINUOUS
10
52.032345
20
-76.096360
30
0.0
11
50.167665
21
-74.103930
31
0.0
0
LINE
8
0
6
CONTINUOUS
10
31.185385
20
-86.194770
30
0.0
11
32.052725
21
-88.486980
31
0.0
0
LINE
8
0
6
CONTINUOUS
10
35.418015
20
-92.480670
30
0.0
11
37.587375
21
-93.741390
31
0.0
0
LINE
8
0
6
CONTINUOUS
10
40.151275
20
-94.618320
30
0.0
11
42.589405
21
-94.852800
31
0.0
0
LINE
8
0
6
CONTINUOUS
10
35.011145
20
-74.103930
30
0.0
11
33.146465
21
-76.096360
31
0.0
0
LINE
8
0
6
CONTINUOUS
10
33.146465
20
-76.096360
30
0.0
11
31.789425
21
-78.342410
31
0.0
0
LINE
8
0
6
CONTINUOUS
10
51.591405
20
-90.711620
30
0.0
11
53.126075
21
-88.486980
31
0.0
0
LINE
8
0
6
CONTINUOUS
10
45.027535
20
-94.618320
30
0.0
11
47.591425
21
-93.741390
31
0.0
0
LINE
8
0
6
CONTINUOUS
10
32.052725
20
-88.486980
30
0.0
11
33.587405
21
-90.711620
31
0.0
0
LINE
8
0
6
CONTINUOUS
10
53.993425
20
-86.194770
30
0.0
11
54.414235
21
-83.502910
31
0.0
0
LINE
8
0
6
CONTINUOUS
10
31.789425
20
-78.342410
30
0.0
11
30.986535
21
-80.965490
31
0.0
0
LINE
8
0
6
CONTINUOUS
10
42.589405
20
-71.399960
30
0.0
11
39.844965
21
-71.703020
31
0.0
0
LINE
8
0
6
CONTINUOUS
10
54.192275
20
-80.965490
30
0.0
11
53.389375
21
-78.342410
31
0.0
0
LINE
8
0
6
CONTINUOUS
10
47.591425
20
-93.741390
30
0.0
11
49.760795
21
-92.480670
31
0.0
0
LINE
8
0
6
CONTINUOUS
10
50.167665
20
-74.103930
30
0.0
11
47.896965
21
-72.659220
31
0.0
0
LINE
8
0
6
CONTINUOUS
10
53.126075
20
-88.486980
30
0.0
11
53.993425
21
-86.194770
31
0.0
0
LINE
8
0
6
CONTINUOUS
10
45.333845
20
-71.703020
30
0.0
11
42.589405
21
-71.399960
31
0.0
0
LINE
8
0
6
CONTINUOUS
10
47.896965
20
-72.659220
30
0.0
11
45.333845
21
-71.703020
31
0.0
0
LINE
8
0
6
CONTINUOUS
10
37.587375
20
-93.741390
30
0.0
11
40.151275
21
-94.618320
31
0.0
0
LINE
8
0
6
CONTINUOUS
10
37.281845
20
-72.659220
30
0.0
11
35.011145
21
-74.103930
31
0.0
0
LINE
8
0
6
CONTINUOUS
10
42.589405
20
-94.852800
30
0.0
11
45.027535
21
-94.618320
31
0.0
0
LINE
8
0
6
CONTINUOUS
10
33.587405
20
-90.711620
30
0.0
11
35.418015
21
-92.480670
31
0.0
0
LINE
8
0
6
CONTINUOUS
10
49.760795
20
-92.480670
30
0.0
11
51.591405
21
-90.711620
31
0.0
0
LINE
8
0
6
CONTINUOUS
10
54.414235
20
-83.502910
30
0.0
11
54.192275
21
-80.965490
31
0.0
0
LINE
8
0
6
CONTINUOUS
10
53.389375
20
-78.342410
30
0.0
11
52.032345
21
-76.096360
31
0.0
0
LINE
8
0
6
CONTINUOUS
10
39.844965
20
-71.703020
30
0.0
11
37.281845
21
-72.659220
31
0.0
0
LINE
8
0
6
CONTINUOUS
10
30.986535
20
-80.965490
30
0.0
11
30.764565
21
-83.502910
31
0.0
0
LINE
8
0
6
CONTINUOUS
10
30.764565
20
-83.502910
30
0.0
11
31.185385
21
-86.194770
31
0.0
0
LINE
8
0
6
CONTINUOUS
10
40.303105
20
-74.248990
30
0.0
11
38.140715
21
-74.972480
31
0.0
0
LINE
8
0
6
CONTINUOUS
10
51.984455
20
-79.462700
30
0.0
11
50.682845
21
-77.648080
31
0.0
0
LINE
8
0
6
CONTINUOUS
10
49.476625
20
-92.261680
30
0.0
11
51.123645
21
-90.516390
31
0.0
0
LINE
8
0
6
CONTINUOUS
10
40.210485
20
-94.432200
30
0.0
11
42.589405
21
-94.674510
31
0.0
0
LINE
8
0
6
CONTINUOUS
10
47.038095
20
-74.972480
30
0.0
11
44.875705
21
-74.248990
31
0.0
0
LINE
8
0
6
CONTINUOUS
10
49.000795
20
-76.082580
30
0.0
11
47.038095
21
-74.972480
31
0.0
0
LINE
8
0
6
CONTINUOUS
10
47.438175
20
-93.533440
30
0.0
11
49.476625
21
-92.261680
31
0.0
0
LINE
8
0
6
CONTINUOUS
10
42.589405
20
-74.021530
30
0.0
11
40.303105
21
-74.248990
31
0.0
0
LINE
8
0
6
CONTINUOUS
10
52.862435
20
-81.651890
30
0.0
11
51.984455
21
-79.462700
31
0.0
0
LINE
8
0
6
CONTINUOUS
10
32.121255
20
-86.257100
30
0.0
11
32.759015
21
-88.384240
31
0.0
0
LINE
8
0
6
CONTINUOUS
10
44.968325
20
-94.432200
30
0.0
11
47.438175
21
-93.533440
31
0.0
0
LINE
8
0
6
CONTINUOUS
10
35.702185
20
-92.261680
30
0.0
11
37.740635
21
-93.533440
31
0.0
0
LINE
8
0
6
CONTINUOUS
10
37.740635
20
-93.533440
30
0.0
11
40.210485
21
-94.432200
31
0.0
0
LINE
8
0
6
CONTINUOUS
10
52.419795
20
-88.384240
30
0.0
11
53.057555
21
-86.257100
31
0.0
0
LINE
8
0
6
CONTINUOUS
10
32.316375
20
-81.651890
30
0.0
11
31.936565
21
-83.844990
31
0.0
0
LINE
8
0
6
CONTINUOUS
10
34.495965
20
-77.648080
30
0.0
11
33.194355
21
-79.462700
31
0.0
0
LINE
8
0
6
CONTINUOUS
10
53.242245
20
-83.844990
30
0.0
11
52.862435
21
-81.651890
31
0.0
0
LINE
8
0
6
CONTINUOUS
10
32.759015
20
-88.384240
30
0.0
11
34.055165
21
-90.516390
31
0.0
0
LINE
8
0
6
CONTINUOUS
10
36.178015
20
-76.082580
30
0.0
11
34.495965
21
-77.648080
31
0.0
0
LINE
8
0
6
CONTINUOUS
10
34.055165
20
-90.516390
30
0.0
11
35.702185
21
-92.261680
31
0.0
0
LINE
8
0
6
CONTINUOUS
10
38.140715
20
-74.972480
30
0.0
11
36.178015
21
-76.082580
31
0.0
0
LINE
8
0
6
CONTINUOUS
10
31.936565
20
-83.844990
30
0.0
11
32.121255
21
-86.257100
31
0.0
0
LINE
8
0
6
CONTINUOUS
10
33.194355
20
-79.462700
30
0.0
11
32.316375
21
-81.651890
31
0.0
0
LINE
8
0
6
CONTINUOUS
10
53.057555
20
-86.257100
30
0.0
11
53.242245
21
-83.844990
31
0.0
0
LINE
8
0
6
CONTINUOUS
10
42.589405
20
-94.674510
30
0.0
11
44.968325
21
-94.432200
31
0.0
0
LINE
8
0
6
CONTINUOUS
10
44.875705
20
-74.248990
30
0.0
11
42.589405
21
-74.021530
31
0.0
0
LINE
8
0
6
CONTINUOUS
10
50.682845
20
-77.648080
30
0.0
11
49.000795
21
-76.082580
31
0.0
0
LINE
8
0
6
CONTINUOUS
10
51.123645
20
-90.516390
30
0.0
11
52.419795
21
-88.384240
31
0.0
0
LINE
8
0
6
CONTINUOUS
10
16.050255
20
0.311130
30
0.0
11
17.222925
21
-38.775850
31
0.0
0
LINE
8
0
6
CONTINUOUS
10
67.966445
20
-38.687040
30
0.0
11
69.210445
21
1.844170
31
0.0
0
LINE
8
0
6
CONTINUOUS
10
-8.197925
20
32.498140
30
0.0
11
1.418925
21
30.107770
31
0.0
0
LINE
8
0
6
CONTINUOUS
10
-8.307945
20
32.824590
30
0.0
11
1.159935
21
30.112370
31
0.0
0
LINE
8
0
6
CONTINUOUS
10
72.982985
20
104.825450
30
0.0
11
78.203115
21
101.967020
31
0.0
0
LINE
8
0
6
CONTINUOUS
10
77.370395
20
104.907730
30
0.0
11
73.120355
21
107.185530
31
0.0
0
LINE
8
0
6
CONTINUOUS
10
59.067045
20
-41.179760
30
0.0
11
63.145205
21
-41.179760
31
0.0
0
LINE
8
0
6
CONTINUOUS
10
82.489305
20
100.420010
30
0.0
11
85.838035
21
100.334220
31
0.0
0
LINE
8
0
6
CONTINUOUS
10
78.975895
20
105.280120
30
0.0
11
78.055095
21
104.492060
31
0.0
0
LINE
8
0
6
CONTINUOUS
10
66.164525
20
-41.179760
30
0.0
11
67.734025
21
-41.179760
31
0.0
0
LINE
8
0
6
CONTINUOUS
10
-80.806765
20
13.927880
30
0.0
11
-79.597465
21
13.447040
31
0.0
0
LINE
8
0
6
CONTINUOUS
10
-81.317545
20
15.531920
30
0.0
11
-80.806765
21
13.927880
31
0.0
0
LINE
8
0
6
CONTINUOUS
10
-81.213305
20
15.142910
30
0.0
11
-80.806765
21
13.927880
31
0.0
0
LINE
8
0
6
CONTINUOUS
10
17.295045
20
-41.179760
30
0.0
11
19.107665
21
-41.179760
31
0.0
0
LINE
8
0
6
CONTINUOUS
10
17.222925
20
-38.775850
30
0.0
11
17.295045
21
-41.179760
31
0.0
0
LINE
8
0
6
CONTINUOUS
10
78.575955
20
123.219580
30
0.0
11
77.675605
21
123.448820
31
0.0
0
LINE
8
0
6
CONTINUOUS
10
79.863445
20
121.739460
30
0.0
11
78.575955
21
123.219580
31
0.0
0
LINE
8
0
6
CONTINUOUS
10
76.677375
20
122.806220
30
0.0
11
78.169015
21
122.262220
31
0.0
0
LINE
8
0
6
CONTINUOUS
10
79.342635
20
122.309850
30
0.0
11
77.675605
21
123.448820
31
0.0
0
LINE
8
0
6
CONTINUOUS
10
-87.795595
20
44.521880
30
0.0
11
-88.256755
21
42.840910
31
0.0
0
LINE
8
0
6
CONTINUOUS
10
-87.626195
20
44.827830
30
0.0
11
-87.795595
21
44.521880
31
0.0
0
LINE
8
0
6
CONTINUOUS
10
-88.240795
20
42.248370
30
0.0
11
-86.291225
21
34.376440
31
0.0
0
LINE
8
0
6
CONTINUOUS
10
64.462525
20
111.140260
30
0.0
11
65.453335
21
110.236350
31
0.0
0
LINE
8
0
6
CONTINUOUS
10
-88.304075
20
42.523280
30
0.0
11
-86.480275
21
34.799480
31
0.0
0
LINE
8
0
6
CONTINUOUS
10
66.355545
20
112.016020
30
0.0
11
64.848595
21
112.374890
31
0.0
0
LINE
8
0
6
CONTINUOUS
10
61.578785
20
110.121050
30
0.0
11
63.046295
21
110.841320
31
0.0
0
LINE
8
0
6
CONTINUOUS
10
76.297765
20
123.692370
30
0.0
11
75.081885
21
123.566240
31
0.0
0
LINE
8
0
6
CONTINUOUS
10
63.029525
20
112.355890
30
0.0
11
61.178305
21
111.517750
31
0.0
0
LINE
8
0
6
CONTINUOUS
10
60.964265
20
111.284710
30
0.0
11
62.735095
21
111.947870
31
0.0
0
LINE
8
0
6
CONTINUOUS
10
79.548875
20
104.846350
30
0.0
11
78.479869
21
104.726227
31
0.0
0
LINE
8
0
6
CONTINUOUS
10
87.003405
20
100.755380
30
0.0
11
87.818105
21
101.940390
31
0.0
0
LINE
8
0
6
CONTINUOUS
10
-88.070045
20
40.732600
30
0.0
11
-86.572685
21
35.144420
31
0.0
0
LINE
8
0
6
CONTINUOUS
10
-86.572685
20
35.144420
30
0.0
11
-84.771955
21
28.423940
31
0.0
0
LINE
8
0
6
CONTINUOUS
10
79.936355
20
104.308310
30
0.0
11
76.415235
21
105.170600
31
0.0
0
LINE
8
0
6
CONTINUOUS
10
-84.771955
20
28.423940
30
0.0
11
-83.153885
21
22.385250
31
0.0
0
LINE
8
0
6
CONTINUOUS
10
-86.911795
20
45.678550
30
0.0
11
-87.836545
21
44.262310
31
0.0
0
LINE
8
0
6
CONTINUOUS
10
-86.920245
20
43.451740
30
0.0
11
-86.090385
21
44.491110
31
0.0
0
LINE
8
0
6
CONTINUOUS
10
-87.729835
20
44.617070
30
0.0
11
-87.836545
21
44.262310
31
0.0
0
LINE
8
0
6
CONTINUOUS
10
-86.618805
20
46.112190
30
0.0
11
-87.729835
21
44.617070
31
0.0
0
LINE
8
0
6
CONTINUOUS
10
-78.048285
20
13.877550
30
0.0
11
-76.499855
21
14.310080
31
0.0
0
LINE
8
0
6
CONTINUOUS
10
-84.978635
20
47.010320
30
0.0
11
-86.911795
21
45.678550
31
0.0
0
LINE
8
0
6
CONTINUOUS
10
-86.090385
20
44.491110
30
0.0
11
-84.662225
21
45.741420
31
0.0
0
LINE
8
0
6
CONTINUOUS
10
55.691165
20
105.278250
30
0.0
11
61.578785
21
110.121050
31
0.0
0
LINE
8
0
6
CONTINUOUS
10
88.304075
20
105.071940
30
0.0
11
87.137715
21
109.168600
31
0.0
0
LINE
8
0
6
CONTINUOUS
10
49.149835
20
100.037850
30
0.0
11
55.691165
21
105.278250
31
0.0
0
LINE
8
0
6
CONTINUOUS
10
48.717725
20
101.075070
30
0.0
11
41.063135
21
95.467560
31
0.0
0
LINE
8
0
6
CONTINUOUS
10
41.558705
20
94.361620
30
0.0
11
49.149835
21
100.037850
31
0.0
0
LINE
8
0
6
CONTINUOUS
10
79.863445
20
121.739460
30
0.0
11
79.342635
21
122.309850
31
0.0
0
LINE
8
0
6
CONTINUOUS
10
87.137715
20
109.168600
30
0.0
11
84.217785
21
115.031790
31
0.0
0
LINE
8
0
6
CONTINUOUS
10
87.818105
20
101.940390
30
0.0
11
88.304075
21
105.071940
31
0.0
0
LINE
8
0
6
CONTINUOUS
10
32.339005
20
89.784350
30
0.0
11
22.748815
21
84.237830
31
0.0
0
LINE
8
0
6
CONTINUOUS
10
23.100215
20
82.975610
30
0.0
11
32.823985
21
88.559450
31
0.0
0
LINE
8
0
6
CONTINUOUS
10
85.838035
20
100.334220
30
0.0
11
87.818105
21
101.940390
31
0.0
0
LINE
8
0
6
CONTINUOUS
10
78.203115
20
101.967020
30
0.0
11
82.489305
21
100.420010
31
0.0
0
LINE
8
0
6
CONTINUOUS
10
12.393705
20
79.009160
30
0.0
11
1.651845
21
74.307220
31
0.0
0
LINE
8
0
6
CONTINUOUS
10
1.862905
20
73.147190
30
0.0
11
12.694175
21
77.774760
31
0.0
0
LINE
8
0
6
CONTINUOUS
10
-20.630605
20
65.458230
30
0.0
11
-9.237245
21
69.128520
31
0.0
0
LINE
8
0
6
CONTINUOUS
10
-32.575665
20
61.900630
30
0.0
11
-20.630605
21
65.458230
31
0.0
0
LINE
8
0
6
CONTINUOUS
10
77.270525
20
123.764390
30
0.0
11
76.297765
21
123.692370
31
0.0
0
LINE
8
0
6
CONTINUOUS
10
78.575955
20
123.219580
30
0.0
11
77.270525
21
123.764390
31
0.0
0
LINE
8
0
6
CONTINUOUS
10
-79.881625
20
14.787850
30
0.0
11
-80.680955
21
17.805780
31
0.0
0
LINE
8
0
6
CONTINUOUS
10
-87.836545
20
44.262310
30
0.0
11
-88.240795
21
42.248370
31
0.0
0
LINE
8
0
6
CONTINUOUS
10
-86.910345
20
41.975910
30
0.0
11
-86.920245
21
43.451740
31
0.0
0
LINE
8
0
6
CONTINUOUS
10
63.046295
20
110.841320
30
0.0
11
64.462525
21
111.140260
31
0.0
0
LINE
8
0
6
CONTINUOUS
10
41.063135
20
95.467560
30
0.0
11
32.339005
21
89.784350
31
0.0
0
LINE
8
0
6
CONTINUOUS
10
32.823985
20
88.559450
30
0.0
11
41.558705
21
94.361620
31
0.0
0
LINE
8
0
6
CONTINUOUS
10
22.748815
20
84.237830
30
0.0
11
12.393705
21
79.009160
31
0.0
0
LINE
8
0
6
CONTINUOUS
10
12.694175
20
77.774760
30
0.0
11
23.100215
21
82.975610
31
0.0
0
LINE
8
0
6
CONTINUOUS
10
1.651845
20
74.307220
30
0.0
11
-9.447635
21
70.192180
31
0.0
0
LINE
8
0
6
CONTINUOUS
10
-9.237245
20
69.128520
30
0.0
11
1.862905
21
73.147190
31
0.0
0
LINE
8
0
6
CONTINUOUS
10
-45.220465
20
58.118790
30
0.0
11
-32.575665
21
61.900630
31
0.0
0
LINE
8
0
6
CONTINUOUS
10
-58.386495
20
54.069070
30
0.0
11
-45.220465
21
58.118790
31
0.0
0
LINE
8
0
6
CONTINUOUS
10
-71.615455
20
49.895680
30
0.0
11
-58.386495
21
54.069070
31
0.0
0
LINE
8
0
6
CONTINUOUS
10
-84.662225
20
45.741420
30
0.0
11
-71.615455
21
49.895680
31
0.0
0
LINE
8
0
6
CONTINUOUS
10
-86.587425
20
46.088710
30
0.0
11
-87.626195
21
44.827830
31
0.0
0
LINE
8
0
6
CONTINUOUS
10
-86.618805
20
46.112190
30
0.0
11
-86.911795
21
45.678550
31
0.0
0
LINE
8
0
6
CONTINUOUS
10
-84.706075
20
47.174160
30
0.0
11
-86.618805
21
46.112190
31
0.0
0
LINE
8
0
6
CONTINUOUS
10
73.968355
20
123.019990
30
0.0
11
66.311045
21
116.188020
31
0.0
0
LINE
8
0
6
CONTINUOUS
10
61.178305
20
111.517750
30
0.0
11
55.500545
21
106.622060
31
0.0
0
LINE
8
0
6
CONTINUOUS
10
55.190615
20
106.303970
30
0.0
11
60.964265
21
111.284710
31
0.0
0
LINE
8
0
6
CONTINUOUS
10
66.311045
20
116.188020
30
0.0
11
57.902915
21
108.673810
31
0.0
0
LINE
8
0
6
CONTINUOUS
10
55.500545
20
106.622060
30
0.0
11
48.717725
21
101.075070
31
0.0
0
LINE
8
0
6
CONTINUOUS
10
48.717725
20
101.075070
30
0.0
11
55.190615
21
106.303970
31
0.0
0
LINE
8
0
6
CONTINUOUS
10
75.081885
20
123.566240
30
0.0
11
73.968355
21
123.019990
31
0.0
0
LINE
8
0
6
CONTINUOUS
10
39.582165
20
94.416090
30
0.0
11
30.095885
21
88.429770
31
0.0
0
LINE
8
0
6
CONTINUOUS
10
78.169015
20
122.262220
30
0.0
11
82.959215
21
115.359810
31
0.0
0
LINE
8
0
6
CONTINUOUS
10
84.217785
20
115.031790
30
0.0
11
79.342635
21
122.309850
31
0.0
0
LINE
8
0
6
CONTINUOUS
10
30.095885
20
88.429770
30
0.0
11
19.767605
21
82.644630
31
0.0
0
LINE
8
0
6
CONTINUOUS
10
19.767605
20
82.644630
30
0.0
11
9.285195
21
77.573160
31
0.0
0
LINE
8
0
6
CONTINUOUS
10
9.285195
20
77.573160
30
0.0
11
-1.636915
21
73.016900
31
0.0
0
LINE
8
0
6
CONTINUOUS
10
-82.348735
20
19.454190
30
0.0
11
-82.084675
21
18.394910
31
0.0
0
LINE
8
0
6
CONTINUOUS
10
-1.636915
20
73.016900
30
0.0
11
-13.676555
21
68.893810
31
0.0
0
LINE
8
0
6
CONTINUOUS
10
-9.269355
20
70.312970
30
0.0
11
-20.786705
21
66.719640
31
0.0
0
LINE
8
0
6
CONTINUOUS
10
-20.909115
20
66.646530
30
0.0
11
-9.447635
21
70.192180
31
0.0
0
LINE
8
0
6
CONTINUOUS
10
-20.786705
20
66.719640
30
0.0
11
-32.725435
21
63.068970
31
0.0
0
LINE
8
0
6
CONTINUOUS
10
-32.833495
20
63.003070
30
0.0
11
-20.909115
21
66.646530
31
0.0
0
LINE
8
0
6
CONTINUOUS
10
75.416455
20
123.016650
30
0.0
11
76.677375
21
122.806220
31
0.0
0
LINE
8
0
6
CONTINUOUS
10
77.675605
20
123.448820
30
0.0
11
76.297765
21
123.692370
31
0.0
0
LINE
8
0
6
CONTINUOUS
10
-84.741094
20
47.150415
30
0.0
11
-84.880605
21
47.107610
31
0.0
0
LINE
8
0
6
CONTINUOUS
10
-82.243335
20
18.987070
30
0.0
11
-81.317545
21
15.531920
31
0.0
0
LINE
8
0
6
CONTINUOUS
10
-81.317545
20
15.531920
30
0.0
11
-81.899735
21
18.075700
31
0.0
0
LINE
8
0
6
CONTINUOUS
10
-84.130665
20
26.030650
30
0.0
11
-82.243335
21
18.987070
31
0.0
0
LINE
8
0
6
CONTINUOUS
10
-81.899735
20
18.075700
30
0.0
11
-83.887045
21
25.452930
31
0.0
0
LINE
8
0
6
CONTINUOUS
10
-86.480275
20
34.799480
30
0.0
11
-84.130665
21
26.030650
31
0.0
0
LINE
8
0
6
CONTINUOUS
10
-83.887045
20
25.452930
30
0.0
11
-86.291225
21
34.376440
31
0.0
0
LINE
8
0
6
CONTINUOUS
10
65.453335
20
110.236350
30
0.0
11
72.982985
21
104.825450
31
0.0
0
LINE
8
0
6
CONTINUOUS
10
-88.304075
20
42.523280
30
0.0
11
-88.240795
21
42.248370
31
0.0
0
LINE
8
0
6
CONTINUOUS
10
-87.729835
20
44.617070
30
0.0
11
-88.304075
21
42.523280
31
0.0
0
LINE
8
0
6
CONTINUOUS
10
64.848595
20
112.374890
30
0.0
11
63.029525
21
112.355890
31
0.0
0
LINE
8
0
6
CONTINUOUS
10
62.735095
20
111.947870
30
0.0
11
64.639195
21
111.958130
31
0.0
0
LINE
8
0
6
CONTINUOUS
10
1.960905
20
74.409230
30
0.0
11
-9.269355
21
70.312970
31
0.0
0
LINE
8
0
6
CONTINUOUS
10
-32.725435
20
63.068970
30
0.0
11
-45.364985
21
59.204020
31
0.0
0
LINE
8
0
6
CONTINUOUS
10
-45.460195
20
59.141400
30
0.0
11
-32.833495
21
63.003070
31
0.0
0
LINE
8
0
6
CONTINUOUS
10
-45.364985
20
59.204020
30
0.0
11
-58.545975
21
55.173500
31
0.0
0
LINE
8
0
6
CONTINUOUS
10
-58.636465
20
55.110730
30
0.0
11
-45.460195
21
59.141400
31
0.0
0
LINE
8
0
6
CONTINUOUS
10
-58.545975
20
55.173500
30
0.0
11
-71.772475
21
51.129050
31
0.0
0
LINE
8
0
6
CONTINUOUS
10
-71.888125
20
51.057960
30
0.0
11
-58.636465
21
55.110730
31
0.0
0
LINE
8
0
6
CONTINUOUS
10
-84.706075
20
47.174160
30
0.0
11
-84.978635
21
47.010320
31
0.0
0
LINE
8
0
6
CONTINUOUS
10
-71.772475
20
51.129050
30
0.0
11
-84.706075
21
47.174160
31
0.0
0
LINE
8
0
6
CONTINUOUS
10
-84.978635
20
47.010320
30
0.0
11
-71.888125
21
51.057960
31
0.0
0
LINE
8
0
6
CONTINUOUS
10
-88.277665
20
42.531730
30
0.0
11
-88.070045
21
40.732600
31
0.0
0
LINE
8
0
6
CONTINUOUS
10
-88.256755
20
42.840910
30
0.0
11
-88.277665
21
42.531730
31
0.0
0
LINE
8
0
6
CONTINUOUS
10
73.120355
20
107.185530
30
0.0
11
66.355545
21
112.016020
31
0.0
0
LINE
8
0
6
CONTINUOUS
10
66.391925
20
111.415190
30
0.0
11
73.386565
21
106.293020
31
0.0
0
LINE
8
0
6
CONTINUOUS
10
-76.499855
20
14.310080
30
0.0
11
-63.294655
21
18.137270
31
0.0
0
LINE
8
0
6
CONTINUOUS
10
86.184335
20
99.571830
30
0.0
11
87.003405
21
100.755380
31
0.0
0
LINE
8
0
6
CONTINUOUS
10
28.752535
20
-41.179760
30
0.0
11
36.900135
21
-41.179760
31
0.0
0
LINE
8
0
6
CONTINUOUS
10
53.943605
20
-41.179760
30
0.0
11
59.067045
21
-41.179760
31
0.0
0
LINE
8
0
6
CONTINUOUS
10
19.107665
20
-41.179760
30
0.0
11
22.257135
21
-41.179760
31
0.0
0
LINE
8
0
6
CONTINUOUS
10
63.145205
20
-41.179760
30
0.0
11
66.164525
21
-41.179760
31
0.0
0
LINE
8
0
6
CONTINUOUS
10
36.900135
20
-41.179760
30
0.0
11
45.660555
21
-41.179760
31
0.0
0
LINE
8
0
6
CONTINUOUS
10
45.660555
20
-41.179760
30
0.0
11
53.943605
21
-41.179760
31
0.0
0
LINE
8
0
6
CONTINUOUS
10
67.889935
20
-41.179760
30
0.0
11
67.966445
21
-38.687040
31
0.0
0
LINE
8
0
6
CONTINUOUS
10
67.734025
20
-41.179760
30
0.0
11
67.889935
21
-41.179760
31
0.0
0
LINE
8
0
6
CONTINUOUS
10
22.257135
20
-41.179760
30
0.0
11
28.752535
21
-41.179760
31
0.0
0
LINE
8
0
6
CONTINUOUS
10
74.751295
20
76.413280
30
0.0
11
77.969565
21
86.525930
31
0.0
0
LINE
8
0
6
CONTINUOUS
10
72.254495
20
64.648450
30
0.0
11
74.751295
21
76.413280
31
0.0
0
LINE
8
0
6
CONTINUOUS
10
71.058665
20
51.891430
30
0.0
11
72.254495
21
64.648450
31
0.0
0
LINE
8
0
6
CONTINUOUS
10
70.548845
20
38.963920
30
0.0
11
71.058665
21
51.891430
31
0.0
0
LINE
8
0
6
CONTINUOUS
10
70.094905
20
26.320680
30
0.0
11
70.548845
21
38.963920
31
0.0
0
LINE
8
0
6
CONTINUOUS
10
69.652965
20
13.985170
30
0.0
11
70.094905
21
26.320680
31
0.0
0
LINE
8
0
6
CONTINUOUS
10
69.210445
20
1.844170
30
0.0
11
69.652965
21
13.985170
31
0.0
0
LINE
8
0
6
CONTINUOUS
10
77.385975
20
85.492530
30
0.0
11
82.203615
21
94.023430
31
0.0
0
LINE
8
0
6
CONTINUOUS
10
82.203615
20
94.023430
30
0.0
11
86.184335
21
99.571830
31
0.0
0
LINE
8
0
6
CONTINUOUS
10
15.644915
20
9.395650
30
0.0
11
16.050255
21
0.311130
31
0.0
0
LINE
8
0
6
CONTINUOUS
10
8.533905
20
24.490410
30
0.0
11
13.232475
21
17.743560
31
0.0
0
LINE
8
0
6
CONTINUOUS
10
-19.424865
20
31.115790
30
0.0
11
-8.197925
21
32.498140
31
0.0
0
LINE
8
0
6
CONTINUOUS
10
13.232475
20
17.743560
30
0.0
11
15.644915
21
9.395650
31
0.0
0
LINE
8
0
6
CONTINUOUS
10
1.159935
20
30.112370
30
0.0
11
8.533905
21
24.490410
31
0.0
0
LINE
8
0
6
CONTINUOUS
10
-47.145455
20
22.856520
30
0.0
11
-32.394465
21
27.238290
31
0.0
0
LINE
8
0
6
CONTINUOUS
10
-32.394465
20
27.238290
30
0.0
11
-19.511635
21
31.156060
31
0.0
0
LINE
8
0
6
CONTINUOUS
10
-63.294655
20
18.137270
30
0.0
11
-47.145455
21
22.856520
31
0.0
0
LINE
8
0
6
CONTINUOUS
10
-79.597465
20
13.447040
30
0.0
11
-78.048285
21
13.877550
31
0.0
0
LINE
8
0
6
CONTINUOUS
10
-79.881625
20
14.787850
30
0.0
11
-79.597465
21
13.447040
31
0.0
0
LINE
8
0
6
CONTINUOUS
10
-85.215055
20
34.354510
30
0.0
11
-82.725045
21
25.387070
31
0.0
0
LINE
8
0
6
CONTINUOUS
10
42.589395
20
-90.668508
30
0.0
11
43.297731
21
-90.527500
31
0.0
0
LINE
8
0
6
CONTINUOUS
10
43.297731
20
-90.527500
30
0.0
11
43.805225
21
-90.426630
31
0.0
0
LINE
8
0
6
CONTINUOUS
10
41.134766
20
-90.478275
30
0.0
11
41.862103
21
-90.622844
31
0.0
0
LINE
8
0
6
CONTINUOUS
10
41.862103
20
-90.622844
30
0.0
11
42.340625
21
-90.718106
31
0.0
0
LINE
8
0
6
CONTINUOUS
10
45.503360
20
-88.913523
30
0.0
11
45.876495
21
-88.355189
31
0.0
0
LINE
8
0
6
CONTINUOUS
10
45.116112
20
-89.493188
30
0.0
11
45.503360
21
-88.913523
31
0.0
0
LINE
8
0
6
CONTINUOUS
10
45.046865
20
-89.596879
30
0.0
11
45.116112
21
-89.493188
31
0.0
0
LINE
8
0
6
CONTINUOUS
10
46.017084
20
-87.648284
30
0.0
11
46.152725
21
-86.966480
31
0.0
0
LINE
8
0
6
CONTINUOUS
10
45.881483
20
-88.330104
30
0.0
11
46.017084
21
-87.648284
31
0.0
0
LINE
8
0
6
CONTINUOUS
10
46.152725
20
-86.966480
30
0.0
11
46.167825
21
-86.890603
31
0.0
0
LINE
8
0
6
CONTINUOUS
10
38.682854
20
-87.743535
30
0.0
11
38.528214
21
-86.966480
31
0.0
0
LINE
8
0
6
CONTINUOUS
10
38.528214
20
-86.966480
30
0.0
11
38.513405
21
-86.892134
31
0.0
0
LINE
8
0
6
CONTINUOUS
10
39.331048
20
-89.143637
30
0.0
11
38.897790
21
-88.495593
31
0.0
0
LINE
8
0
6
CONTINUOUS
10
38.897790
20
-88.495593
30
0.0
11
38.804735
21
-88.356560
31
0.0
0
LINE
8
0
6
CONTINUOUS
10
39.634375
20
-89.597849
30
0.0
11
39.828585
21
-89.727290
31
0.0
0
LINE
8
0
6
CONTINUOUS
10
44.562965
20
-89.920123
30
0.0
11
45.046865
21
-89.596879
31
0.0
0
LINE
8
0
6
CONTINUOUS
10
43.975482
20
-90.312776
30
0.0
11
44.562965
21
-89.920123
31
0.0
0
ENDSEC
0
EOF
