999
Erzeugt mit innoplus bad 
0
SECTION
2
HEADER
9
$ACADVER
1
AC1009
9
$DWGCODEPAGE
3
ISO8859-1
0
ENDSEC
0
SECTION
2
TABLES
0
TABLE
2
LAYER
70
1
0
LAYER
2
0
70
0
62
7
6
CONTINUOUS
0
ENDTAB
0
ENDSEC
0
SECTION
2
ENTITIES
0
LINE
8
0
6
CONTINUOUS
10
-44.874255
20
48.178215
30
0.0
11
-45.503965
21
42.589415
31
0.0
0
LINE
8
0
6
CONTINUOUS
10
-43.016705
20
53.486765
30
0.0
11
-44.874255
21
48.178215
31
0.0
0
LINE
8
0
6
CONTINUOUS
10
-40.024475
20
58.248865
30
0.0
11
-43.016705
21
53.486765
31
0.0
0
LINE
8
0
6
CONTINUOUS
10
-36.047595
20
62.225735
30
0.0
11
-40.024475
21
58.248865
31
0.0
0
LINE
8
0
6
CONTINUOUS
10
-31.285485
20
65.217965
30
0.0
11
-36.047595
21
62.225735
31
0.0
0
LINE
8
0
6
CONTINUOUS
10
-25.976935
20
67.075495
30
0.0
11
-31.285485
21
65.217965
31
0.0
0
LINE
8
0
6
CONTINUOUS
10
-20.388145
20
67.705195
30
0.0
11
-25.976935
21
67.075495
31
0.0
0
LINE
8
0
6
CONTINUOUS
10
-14.799355
20
67.075475
30
0.0
11
-20.388145
21
67.705195
31
0.0
0
LINE
8
0
6
CONTINUOUS
10
-9.490815
20
65.217925
30
0.0
11
-14.799355
21
67.075475
31
0.0
0
LINE
8
0
6
CONTINUOUS
10
-4.728715
20
62.225685
30
0.0
11
-9.490815
21
65.217925
31
0.0
0
LINE
8
0
6
CONTINUOUS
10
-0.751845
20
58.248805
30
0.0
11
-4.728715
21
62.225685
31
0.0
0
LINE
8
0
6
CONTINUOUS
10
4.727605
20
42.589385
30
0.0
11
4.097905
21
48.178145
31
0.0
0
LINE
8
0
6
CONTINUOUS
10
-9.967385
20
55.656625
30
0.0
11
-13.136395
21
57.647845
31
0.0
0
LINE
8
0
6
CONTINUOUS
10
-30.808945
20
55.656655
30
0.0
11
-33.455405
21
53.010195
31
0.0
0
LINE
8
0
6
CONTINUOUS
10
-27.639935
20
57.647865
30
0.0
11
-30.808945
21
55.656655
31
0.0
0
LINE
8
0
6
CONTINUOUS
10
-7.320925
20
53.010155
30
0.0
11
-9.967385
21
55.656625
31
0.0
0
LINE
8
0
6
CONTINUOUS
10
-24.107295
20
58.883985
30
0.0
11
-27.639935
21
57.647865
31
0.0
0
LINE
8
0
6
CONTINUOUS
10
-33.455405
20
53.010195
30
0.0
11
-35.446625
21
49.841195
31
0.0
0
LINE
8
0
6
CONTINUOUS
10
-13.136395
20
57.647845
30
0.0
11
-16.669025
21
58.883975
31
0.0
0
LINE
8
0
6
CONTINUOUS
10
-16.669025
20
58.883975
30
0.0
11
-20.388155
21
59.303025
31
0.0
0
LINE
8
0
6
CONTINUOUS
10
-3.674565
20
42.589395
30
0.0
11
-4.093595
21
46.308495
31
0.0
0
LINE
8
0
6
CONTINUOUS
10
-35.446625
20
49.841195
30
0.0
11
-36.682755
21
46.308555
31
0.0
0
LINE
8
0
6
CONTINUOUS
10
-20.388155
20
59.303025
30
0.0
11
-24.107295
21
58.883985
31
0.0
0
LINE
8
0
6
CONTINUOUS
10
-4.093595
20
46.308495
30
0.0
11
-5.329715
21
49.841145
31
0.0
0
LINE
8
0
6
CONTINUOUS
10
-5.329715
20
49.841145
30
0.0
11
-7.320925
21
53.010155
31
0.0
0
LINE
8
0
6
CONTINUOUS
10
-36.682755
20
46.308555
30
0.0
11
-37.101805
21
42.589415
31
0.0
0
LINE
8
0
6
CONTINUOUS
10
-30.360365
20
44.865505
30
0.0
11
-30.616815
21
42.589405
31
0.0
0
LINE
8
0
6
CONTINUOUS
10
-29.603855
20
47.027455
30
0.0
11
-30.360365
21
44.865505
31
0.0
0
LINE
8
0
6
CONTINUOUS
10
-28.385245
20
48.966865
30
0.0
11
-29.603855
21
47.027455
31
0.0
0
LINE
8
0
6
CONTINUOUS
10
-26.765625
20
50.586485
30
0.0
11
-28.385245
21
48.966865
31
0.0
0
LINE
8
0
6
CONTINUOUS
10
-24.826205
20
51.805095
30
0.0
11
-26.765625
21
50.586485
31
0.0
0
LINE
8
0
6
CONTINUOUS
10
-22.664255
20
52.561585
30
0.0
11
-24.826205
21
51.805095
31
0.0
0
LINE
8
0
6
CONTINUOUS
10
-20.388165
20
52.818035
30
0.0
11
-22.664255
21
52.561585
31
0.0
0
LINE
8
0
6
CONTINUOUS
10
-18.112085
20
52.561585
30
0.0
11
-20.388165
21
52.818035
31
0.0
0
LINE
8
0
6
CONTINUOUS
10
-15.950135
20
51.805075
30
0.0
11
-18.112085
21
52.561585
31
0.0
0
LINE
8
0
6
CONTINUOUS
10
-14.010715
20
50.586465
30
0.0
11
-15.950135
21
51.805075
31
0.0
0
LINE
8
0
6
CONTINUOUS
10
-12.391105
20
48.966835
30
0.0
11
-14.010715
21
50.586465
31
0.0
0
LINE
8
0
6
CONTINUOUS
10
-11.172495
20
47.027425
30
0.0
11
-12.391105
21
48.966835
31
0.0
0
LINE
8
0
6
CONTINUOUS
10
-10.415995
20
44.865465
30
0.0
11
-11.172495
21
47.027425
31
0.0
0
LINE
8
0
6
CONTINUOUS
10
-10.159545
20
42.589395
30
0.0
11
-10.415995
21
44.865465
31
0.0
0
LINE
8
0
6
CONTINUOUS
10
-32.644805
20
42.589415
30
0.0
11
-32.337515
21
45.316775
31
0.0
0
LINE
8
0
6
CONTINUOUS
10
-32.337515
20
45.316775
30
0.0
11
-31.431015
21
47.907375
31
0.0
0
LINE
8
0
6
CONTINUOUS
10
-31.431015
20
47.907375
30
0.0
11
-29.970795
21
50.231305
31
0.0
0
LINE
8
0
6
CONTINUOUS
10
-29.970795
20
50.231305
30
0.0
11
-28.030055
21
52.172035
31
0.0
0
LINE
8
0
6
CONTINUOUS
10
-28.030055
20
52.172035
30
0.0
11
-25.706125
21
53.632255
31
0.0
0
LINE
8
0
6
CONTINUOUS
10
-25.706125
20
53.632255
30
0.0
11
-23.115525
21
54.538735
31
0.0
0
LINE
8
0
6
CONTINUOUS
10
-23.115525
20
54.538735
30
0.0
11
-20.388165
21
54.846035
31
0.0
0
LINE
8
0
6
CONTINUOUS
10
-20.388165
20
54.846035
30
0.0
11
-17.660805
21
54.538735
31
0.0
0
LINE
8
0
6
CONTINUOUS
10
-17.660805
20
54.538735
30
0.0
11
-15.070215
21
53.632235
31
0.0
0
LINE
8
0
6
CONTINUOUS
10
-15.070215
20
53.632235
30
0.0
11
-12.746285
21
52.172015
31
0.0
0
LINE
8
0
6
CONTINUOUS
10
-12.746285
20
52.172015
30
0.0
11
-10.805555
21
50.231275
31
0.0
0
LINE
8
0
6
CONTINUOUS
10
-10.805555
20
50.231275
30
0.0
11
-9.345335
21
47.907335
31
0.0
0
LINE
8
0
6
CONTINUOUS
10
-9.345335
20
47.907335
30
0.0
11
-8.438845
21
45.316735
31
0.0
0
LINE
8
0
6
CONTINUOUS
10
-8.438845
20
45.316735
30
0.0
11
-8.131555
21
42.589395
31
0.0
0
LINE
8
0
6
CONTINUOUS
10
19.328375
20
64.048975
30
0.0
11
-5.545445
21
64.386725
31
0.0
0
LINE
8
0
6
CONTINUOUS
10
7.258235
20
53.066295
30
0.0
11
9.210415
21
48.112615
31
0.0
0
LINE
8
0
6
CONTINUOUS
10
-10.236765
20
65.526775
30
0.0
11
-12.126485
21
66.135755
31
0.0
0
LINE
8
0
6
CONTINUOUS
10
9.210415
20
48.112615
30
0.0
11
9.948535
21
42.589385
31
0.0
0
LINE
8
0
6
CONTINUOUS
10
-7.918675
20
64.848035
30
0.0
11
-10.236765
21
65.526775
31
0.0
0
LINE
8
0
6
CONTINUOUS
10
-3.263555
20
61.045245
30
0.0
11
-4.728715
21
62.225685
31
0.0
0
LINE
8
0
6
CONTINUOUS
10
6.658305
20
47.881175
30
0.0
11
4.916135
21
52.737295
31
0.0
0
LINE
8
0
6
CONTINUOUS
10
3.160015
20
52.855885
30
0.0
11
4.831195
21
47.894615
31
0.0
0
LINE
8
0
6
CONTINUOUS
10
7.271005
20
42.589385
30
0.0
11
6.658305
21
47.881175
31
0.0
0
LINE
8
0
6
CONTINUOUS
10
4.831195
20
47.894615
30
0.0
11
5.390295
21
42.589385
31
0.0
0
LINE
8
0
6
CONTINUOUS
10
-5.545445
20
64.386725
30
0.0
11
-7.918675
21
64.848035
31
0.0
0
LINE
8
0
6
CONTINUOUS
10
-0.751845
20
58.248805
30
0.0
11
2.240375
21
53.486685
31
0.0
0
LINE
8
0
6
CONTINUOUS
10
2.240375
20
53.486685
30
0.0
11
4.097905
21
48.178145
31
0.0
0
LINE
8
0
6
CONTINUOUS
10
-45.503965
20
42.589415
30
0.0
11
-44.874265
21
37.000615
31
0.0
0
LINE
8
0
6
CONTINUOUS
10
-44.874265
20
37.000615
30
0.0
11
-43.016725
21
31.692075
31
0.0
0
LINE
8
0
6
CONTINUOUS
10
-43.016725
20
31.692075
30
0.0
11
-40.024495
21
26.929965
31
0.0
0
LINE
8
0
6
CONTINUOUS
10
-40.024495
20
26.929965
30
0.0
11
-36.047615
21
22.953085
31
0.0
0
LINE
8
0
6
CONTINUOUS
10
-36.047615
20
22.953085
30
0.0
11
-31.285515
21
19.960855
31
0.0
0
LINE
8
0
6
CONTINUOUS
10
-31.285515
20
19.960855
30
0.0
11
-25.976965
21
18.103315
31
0.0
0
LINE
8
0
6
CONTINUOUS
10
-25.976965
20
18.103315
30
0.0
11
-20.388175
21
17.473615
31
0.0
0
LINE
8
0
6
CONTINUOUS
10
-20.388175
20
17.473615
30
0.0
11
-14.799385
21
18.103325
31
0.0
0
LINE
8
0
6
CONTINUOUS
10
-14.799385
20
18.103325
30
0.0
11
-9.490845
21
19.960865
31
0.0
0
LINE
8
0
6
CONTINUOUS
10
-9.490845
20
19.960865
30
0.0
11
-4.728735
21
22.953095
31
0.0
0
LINE
8
0
6
CONTINUOUS
10
-4.728735
20
22.953095
30
0.0
11
-0.751865
21
26.929975
31
0.0
0
LINE
8
0
6
CONTINUOUS
10
-0.751865
20
26.929975
30
0.0
11
2.240365
21
31.692085
31
0.0
0
LINE
8
0
6
CONTINUOUS
10
2.240365
20
31.692085
30
0.0
11
4.097905
21
37.000635
31
0.0
0
LINE
8
0
6
CONTINUOUS
10
4.097905
20
37.000635
30
0.0
11
4.727605
21
42.589385
31
0.0
0
LINE
8
0
6
CONTINUOUS
10
-13.136405
20
27.530955
30
0.0
11
-9.967405
21
29.522175
31
0.0
0
LINE
8
0
6
CONTINUOUS
10
-33.455425
20
32.168625
30
0.0
11
-30.808955
21
29.522165
31
0.0
0
LINE
8
0
6
CONTINUOUS
10
-30.808955
20
29.522165
30
0.0
11
-27.639955
21
27.530945
31
0.0
0
LINE
8
0
6
CONTINUOUS
10
-9.967405
20
29.522175
30
0.0
11
-7.320945
21
32.168635
31
0.0
0
LINE
8
0
6
CONTINUOUS
10
-27.639955
20
27.530945
30
0.0
11
-24.107315
21
26.294825
31
0.0
0
LINE
8
0
6
CONTINUOUS
10
-35.446635
20
35.337635
30
0.0
11
-33.455425
21
32.168625
31
0.0
0
LINE
8
0
6
CONTINUOUS
10
-16.669045
20
26.294825
30
0.0
11
-13.136405
21
27.530955
31
0.0
0
LINE
8
0
6
CONTINUOUS
10
-20.388175
20
25.875775
30
0.0
11
-16.669045
21
26.294825
31
0.0
0
LINE
8
0
6
CONTINUOUS
10
-4.093605
20
38.870285
30
0.0
11
-3.674565
21
42.589395
31
0.0
0
LINE
8
0
6
CONTINUOUS
10
-36.682755
20
38.870275
30
0.0
11
-35.446635
21
35.337635
31
0.0
0
LINE
8
0
6
CONTINUOUS
10
-24.107315
20
26.294825
30
0.0
11
-20.388175
21
25.875775
31
0.0
0
LINE
8
0
6
CONTINUOUS
10
-5.329725
20
35.337645
30
0.0
11
-4.093605
21
38.870285
31
0.0
0
LINE
8
0
6
CONTINUOUS
10
-7.320945
20
32.168635
30
0.0
11
-5.329725
21
35.337645
31
0.0
0
LINE
8
0
6
CONTINUOUS
10
-37.101805
20
42.589415
30
0.0
11
-36.682755
21
38.870275
31
0.0
0
LINE
8
0
6
CONTINUOUS
10
-30.616815
20
42.589405
30
0.0
11
-30.360365
21
40.313315
31
0.0
0
LINE
8
0
6
CONTINUOUS
10
-30.360365
20
40.313315
30
0.0
11
-29.603865
21
38.151365
31
0.0
0
LINE
8
0
6
CONTINUOUS
10
-29.603865
20
38.151365
30
0.0
11
-28.385255
21
36.211955
31
0.0
0
LINE
8
0
6
CONTINUOUS
10
-28.385255
20
36.211955
30
0.0
11
-26.765635
21
34.592335
31
0.0
0
LINE
8
0
6
CONTINUOUS
10
-26.765635
20
34.592335
30
0.0
11
-24.826225
21
33.373725
31
0.0
0
LINE
8
0
6
CONTINUOUS
10
-24.826225
20
33.373725
30
0.0
11
-22.664265
21
32.617225
31
0.0
0
LINE
8
0
6
CONTINUOUS
10
-22.664265
20
32.617225
30
0.0
11
-20.388175
21
32.360765
31
0.0
0
LINE
8
0
6
CONTINUOUS
10
-20.388175
20
32.360765
30
0.0
11
-18.112095
21
32.617225
31
0.0
0
LINE
8
0
6
CONTINUOUS
10
-18.112095
20
32.617225
30
0.0
11
-15.950145
21
33.373725
31
0.0
0
LINE
8
0
6
CONTINUOUS
10
-15.950145
20
33.373725
30
0.0
11
-14.010725
21
34.592335
31
0.0
0
LINE
8
0
6
CONTINUOUS
10
-14.010725
20
34.592335
30
0.0
11
-12.391115
21
36.211955
31
0.0
0
LINE
8
0
6
CONTINUOUS
10
-12.391115
20
36.211955
30
0.0
11
-11.172495
21
38.151375
31
0.0
0
LINE
8
0
6
CONTINUOUS
10
-11.172495
20
38.151375
30
0.0
11
-10.415995
21
40.313335
31
0.0
0
LINE
8
0
6
CONTINUOUS
10
-10.415995
20
40.313335
30
0.0
11
-10.159545
21
42.589395
31
0.0
0
LINE
8
0
6
CONTINUOUS
10
-32.337515
20
39.862045
30
0.0
11
-32.644805
21
42.589415
31
0.0
0
LINE
8
0
6
CONTINUOUS
10
-31.431025
20
37.271455
30
0.0
11
-32.337515
21
39.862045
31
0.0
0
LINE
8
0
6
CONTINUOUS
10
-29.970805
20
34.947515
30
0.0
11
-31.431025
21
37.271455
31
0.0
0
LINE
8
0
6
CONTINUOUS
10
-28.030065
20
33.006785
30
0.0
11
-29.970805
21
34.947515
31
0.0
0
LINE
8
0
6
CONTINUOUS
10
-25.706135
20
31.546555
30
0.0
11
-28.030065
21
33.006785
31
0.0
0
LINE
8
0
6
CONTINUOUS
10
-23.115535
20
30.640075
30
0.0
11
-25.706135
21
31.546555
31
0.0
0
LINE
8
0
6
CONTINUOUS
10
-20.388175
20
30.332775
30
0.0
11
-23.115535
21
30.640075
31
0.0
0
LINE
8
0
6
CONTINUOUS
10
-17.660825
20
30.640075
30
0.0
11
-20.388175
21
30.332775
31
0.0
0
LINE
8
0
6
CONTINUOUS
10
-15.070225
20
31.546565
30
0.0
11
-17.660825
21
30.640075
31
0.0
0
LINE
8
0
6
CONTINUOUS
10
-12.746295
20
33.006785
30
0.0
11
-15.070225
21
31.546565
31
0.0
0
LINE
8
0
6
CONTINUOUS
10
-10.805565
20
34.947525
30
0.0
11
-12.746295
21
33.006785
31
0.0
0
LINE
8
0
6
CONTINUOUS
10
-9.345335
20
37.271455
30
0.0
11
-10.805565
21
34.947525
31
0.0
0
LINE
8
0
6
CONTINUOUS
10
-8.438845
20
39.862065
30
0.0
11
-9.345335
21
37.271455
31
0.0
0
LINE
8
0
6
CONTINUOUS
10
-8.131555
20
42.589395
30
0.0
11
-8.438845
21
39.862065
31
0.0
0
LINE
8
0
6
CONTINUOUS
10
-5.545475
20
20.792065
30
0.0
11
19.328345
21
21.129785
31
0.0
0
LINE
8
0
6
CONTINUOUS
10
9.210405
20
37.066155
30
0.0
11
7.258215
21
32.112475
31
0.0
0
LINE
8
0
6
CONTINUOUS
10
-12.126515
20
19.043045
30
0.0
11
-10.236795
21
19.652015
31
0.0
0
LINE
8
0
6
CONTINUOUS
10
9.948535
20
42.589385
30
0.0
11
9.210405
21
37.066155
31
0.0
0
LINE
8
0
6
CONTINUOUS
10
-10.236795
20
19.652015
30
0.0
11
-7.918705
21
20.330755
31
0.0
0
LINE
8
0
6
CONTINUOUS
10
-4.728735
20
22.953095
30
0.0
11
-3.263575
21
24.133545
31
0.0
0
LINE
8
0
6
CONTINUOUS
10
4.831185
20
37.284165
30
0.0
11
3.159995
21
32.322895
31
0.0
0
LINE
8
0
6
CONTINUOUS
10
4.916125
20
32.441475
30
0.0
11
6.658295
21
37.297595
31
0.0
0
LINE
8
0
6
CONTINUOUS
10
5.390295
20
42.589385
30
0.0
11
4.831185
21
37.284165
31
0.0
0
LINE
8
0
6
CONTINUOUS
10
6.658295
20
37.297595
30
0.0
11
7.271005
21
42.589385
31
0.0
0
LINE
8
0
6
CONTINUOUS
10
-7.918705
20
20.330755
30
0.0
11
-5.545475
21
20.792065
31
0.0
0
LINE
8
0
6
CONTINUOUS
10
19.611825
20
56.345415
30
0.0
11
19.611825
21
59.718115
31
0.0
0
LINE
8
0
6
CONTINUOUS
10
19.611825
20
62.197475
30
0.0
11
19.611825
21
63.636295
31
0.0
0
LINE
8
0
6
CONTINUOUS
10
19.611825
20
63.636295
30
0.0
11
19.611825
21
64.045125
31
0.0
0
LINE
8
0
6
CONTINUOUS
10
19.611825
20
64.045125
30
0.0
11
19.328375
21
64.048975
31
0.0
0
LINE
8
0
6
CONTINUOUS
10
19.611815
20
47.576515
30
0.0
11
19.611815
21
52.203955
31
0.0
0
LINE
8
0
6
CONTINUOUS
10
19.611815
20
42.589375
30
0.0
11
19.611815
21
47.576515
31
0.0
0
LINE
8
0
6
CONTINUOUS
10
19.611825
20
59.718115
30
0.0
11
19.611825
21
62.197475
31
0.0
0
LINE
8
0
6
CONTINUOUS
10
19.611805
20
25.460645
30
0.0
11
19.611805
21
28.833335
31
0.0
0
LINE
8
0
6
CONTINUOUS
10
19.611805
20
21.542455
30
0.0
11
19.611805
21
22.981285
31
0.0
0
LINE
8
0
6
CONTINUOUS
10
19.328345
20
21.129785
30
0.0
11
19.611805
21
21.133635
31
0.0
0
LINE
8
0
6
CONTINUOUS
10
19.611805
20
21.133635
30
0.0
11
19.611805
21
21.542455
31
0.0
0
LINE
8
0
6
CONTINUOUS
10
19.611805
20
32.974795
30
0.0
11
19.611815
21
37.602245
31
0.0
0
LINE
8
0
6
CONTINUOUS
10
19.611805
20
28.833335
30
0.0
11
19.611805
21
32.974795
31
0.0
0
LINE
8
0
6
CONTINUOUS
10
19.611815
20
37.602245
30
0.0
11
19.611815
21
42.589375
31
0.0
0
LINE
8
0
6
CONTINUOUS
10
19.611805
20
22.981285
30
0.0
11
19.611805
21
25.460645
31
0.0
0
LINE
8
0
6
CONTINUOUS
10
19.611825
20
56.345415
30
0.0
11
19.611815
21
52.203955
31
0.0
0
LINE
8
0
6
CONTINUOUS
10
54.496045
20
62.197475
30
0.0
11
54.496045
21
63.636295
31
0.0
0
LINE
8
0
6
CONTINUOUS
10
54.496015
20
22.981275
30
0.0
11
54.496015
21
25.460635
31
0.0
0
LINE
8
0
6
CONTINUOUS
10
54.496015
20
28.833335
30
0.0
11
54.496025
21
32.974795
31
0.0
0
LINE
8
0
6
CONTINUOUS
10
54.496015
20
25.460635
30
0.0
11
54.496015
21
28.833335
31
0.0
0
LINE
8
0
6
CONTINUOUS
10
54.496015
20
21.542455
30
0.0
11
54.496015
21
22.981275
31
0.0
0
LINE
8
0
6
CONTINUOUS
10
54.496035
20
56.345415
30
0.0
11
54.496035
21
59.718115
31
0.0
0
LINE
8
0
6
CONTINUOUS
10
54.496035
20
52.203955
30
0.0
11
54.496035
21
56.345415
31
0.0
0
LINE
8
0
6
CONTINUOUS
10
54.496015
20
21.133635
30
0.0
11
54.496015
21
21.542455
31
0.0
0
LINE
8
0
6
CONTINUOUS
10
53.895695
20
21.133635
30
0.0
11
54.496015
21
21.133635
31
0.0
0
LINE
8
0
6
CONTINUOUS
10
54.496045
20
64.045125
30
0.0
11
53.895725
21
64.045125
31
0.0
0
LINE
8
0
6
CONTINUOUS
10
54.496045
20
63.636295
30
0.0
11
54.496045
21
64.045125
31
0.0
0
LINE
8
0
6
CONTINUOUS
10
20.247045
20
56.345415
30
0.0
11
20.247045
21
52.203955
31
0.0
0
LINE
8
0
6
CONTINUOUS
10
20.246995
20
47.578035
30
0.0
11
20.247055
21
42.592105
31
0.0
0
LINE
8
0
6
CONTINUOUS
10
20.247055
20
62.197475
30
0.0
11
20.247045
21
59.718115
31
0.0
0
LINE
8
0
6
CONTINUOUS
10
20.247045
20
59.718115
30
0.0
11
20.247045
21
56.345415
31
0.0
0
LINE
8
0
6
CONTINUOUS
10
20.247055
20
63.636295
30
0.0
11
20.247055
21
62.197475
31
0.0
0
LINE
8
0
6
CONTINUOUS
10
20.247055
20
64.045125
30
0.0
11
20.247055
21
63.636295
31
0.0
0
LINE
8
0
6
CONTINUOUS
10
20.497045
20
64.045125
30
0.0
11
20.247055
21
64.045125
31
0.0
0
LINE
8
0
6
CONTINUOUS
10
20.247045
20
52.203955
30
0.0
11
20.246995
21
47.578035
31
0.0
0
LINE
8
0
6
CONTINUOUS
10
20.247055
20
42.592105
30
0.0
11
20.246925
21
37.597955
31
0.0
0
LINE
8
0
6
CONTINUOUS
10
20.247025
20
28.833335
30
0.0
11
20.247035
21
32.974795
31
0.0
0
LINE
8
0
6
CONTINUOUS
10
20.247025
20
25.460645
30
0.0
11
20.247025
21
22.981275
31
0.0
0
LINE
8
0
6
CONTINUOUS
10
20.247025
20
28.833335
30
0.0
11
20.247025
21
25.460645
31
0.0
0
LINE
8
0
6
CONTINUOUS
10
20.247025
20
22.981275
30
0.0
11
20.247025
21
21.542455
31
0.0
0
LINE
8
0
6
CONTINUOUS
10
20.247025
20
21.133635
30
0.0
11
20.497025
21
21.133635
31
0.0
0
LINE
8
0
6
CONTINUOUS
10
20.247025
20
21.542455
30
0.0
11
20.247025
21
21.133635
31
0.0
0
LINE
8
0
6
CONTINUOUS
10
20.246925
20
37.597955
30
0.0
11
20.247035
21
32.974795
31
0.0
0
LINE
8
0
6
CONTINUOUS
10
20.324405
20
63.752475
30
0.0
11
19.479965
21
63.752475
31
0.0
0
LINE
8
0
6
CONTINUOUS
10
19.479935
20
21.426275
30
0.0
11
20.324375
21
21.426275
31
0.0
0
LINE
8
0
6
CONTINUOUS
10
44.757975
20
64.045125
30
0.0
11
20.497045
21
64.045125
31
0.0
0
LINE
8
0
6
CONTINUOUS
10
20.497025
20
21.133635
30
0.0
11
44.757955
21
21.133635
31
0.0
0
LINE
8
0
6
CONTINUOUS
10
46.771685
20
64.045125
30
0.0
11
44.757975
21
64.045125
31
0.0
0
LINE
8
0
6
CONTINUOUS
10
44.757955
20
21.133635
30
0.0
11
46.771645
21
21.133635
31
0.0
0
LINE
8
0
6
CONTINUOUS
10
46.771645
20
21.133635
30
0.0
11
49.332945
21
21.133635
31
0.0
0
LINE
8
0
6
CONTINUOUS
10
49.332945
20
21.133635
30
0.0
11
51.894245
21
21.133635
31
0.0
0
LINE
8
0
6
CONTINUOUS
10
51.894245
20
21.133635
30
0.0
11
53.895695
21
21.133635
31
0.0
0
LINE
8
0
6
CONTINUOUS
10
49.332975
20
64.045125
30
0.0
11
46.771685
21
64.045125
31
0.0
0
LINE
8
0
6
CONTINUOUS
10
51.894275
20
64.045125
30
0.0
11
49.332975
21
64.045125
31
0.0
0
LINE
8
0
6
CONTINUOUS
10
53.895725
20
64.045125
30
0.0
11
51.894275
21
64.045125
31
0.0
0
LINE
8
0
6
CONTINUOUS
10
51.261615
20
45.972995
30
0.0
11
51.207955
21
45.836995
31
0.0
0
LINE
8
0
6
CONTINUOUS
10
52.626715
20
44.613935
30
0.0
11
52.580555
21
44.464395
31
0.0
0
LINE
8
0
6
CONTINUOUS
10
53.173485
20
42.589395
30
0.0
11
53.082955
21
42.589395
31
0.0
0
LINE
8
0
6
CONTINUOUS
10
45.489125
20
42.589395
30
0.0
11
45.582955
21
42.589395
31
0.0
0
LINE
8
0
6
CONTINUOUS
10
46.034205
20
44.609175
30
0.0
11
46.085365
21
44.464395
31
0.0
0
LINE
8
0
6
CONTINUOUS
10
47.404305
20
45.972995
30
0.0
11
47.457955
21
45.836995
31
0.0
0
LINE
8
0
6
CONTINUOUS
10
49.332955
20
46.339395
30
0.0
11
49.332955
21
46.481765
31
0.0
0
LINE
8
0
6
CONTINUOUS
10
52.626715
20
40.564855
30
0.0
11
52.580555
21
40.714395
31
0.0
0
LINE
8
0
6
CONTINUOUS
10
51.261605
20
39.205795
30
0.0
11
51.207955
21
39.341805
31
0.0
0
LINE
8
0
6
CONTINUOUS
10
46.085365
20
40.714395
30
0.0
11
46.034205
21
40.569605
31
0.0
0
LINE
8
0
6
CONTINUOUS
10
49.332955
20
38.697025
30
0.0
11
49.332955
21
38.839395
31
0.0
0
LINE
8
0
6
CONTINUOUS
10
47.457955
20
39.341805
30
0.0
11
47.404295
21
39.205795
31
0.0
0
LINE
8
0
6
CONTINUOUS
10
54.495605
20
47.590075
30
0.0
11
54.495735
21
42.587735
31
0.0
0
LINE
8
0
6
CONTINUOUS
10
54.496045
20
62.197475
30
0.0
11
54.496035
21
59.718115
31
0.0
0
LINE
8
0
6
CONTINUOUS
10
54.496035
20
52.203955
30
0.0
11
54.495605
21
47.590075
31
0.0
0
LINE
8
0
6
CONTINUOUS
10
54.495735
20
42.587735
30
0.0
11
54.495725
21
37.589975
31
0.0
0
LINE
8
0
6
CONTINUOUS
10
54.495725
20
37.589975
30
0.0
11
54.496025
21
32.974795
31
0.0
0
LINE
8
0
6
CONTINUOUS
10
49.333435
20
46.810225
30
0.0
11
51.391655
21
46.285345
31
0.0
0
LINE
8
0
6
CONTINUOUS
10
51.261615
20
45.972995
30
0.0
11
52.626715
21
44.613935
31
0.0
0
LINE
8
0
6
CONTINUOUS
10
51.391655
20
46.285345
30
0.0
11
52.738385
21
44.968345
31
0.0
0
LINE
8
0
6
CONTINUOUS
10
53.391785
20
42.587885
30
0.0
11
52.626715
21
44.613935
31
0.0
0
LINE
8
0
6
CONTINUOUS
10
52.626715
20
44.613935
30
0.0
11
53.173485
21
42.589395
31
0.0
0
LINE
8
0
6
CONTINUOUS
10
52.738385
20
44.968345
30
0.0
11
53.391785
21
42.587885
31
0.0
0
LINE
8
0
6
CONTINUOUS
10
52.738385
20
40.212095
30
0.0
11
53.173485
21
42.589395
31
0.0
0
LINE
8
0
6
CONTINUOUS
10
45.262385
20
42.588925
30
0.0
11
46.034205
21
40.569605
31
0.0
0
LINE
8
0
6
CONTINUOUS
10
46.034205
20
40.569605
30
0.0
11
45.489125
21
42.589395
31
0.0
0
LINE
8
0
6
CONTINUOUS
10
45.910935
20
40.230085
30
0.0
11
45.262385
21
42.588925
31
0.0
0
LINE
8
0
6
CONTINUOUS
10
45.910985
20
44.949565
30
0.0
11
45.489125
21
42.589395
31
0.0
0
LINE
8
0
6
CONTINUOUS
10
45.910985
20
44.949565
30
0.0
11
46.034205
21
44.609175
31
0.0
0
LINE
8
0
6
CONTINUOUS
10
45.910985
20
44.949565
30
0.0
11
47.275305
21
46.283895
31
0.0
0
LINE
8
0
6
CONTINUOUS
10
47.275305
20
46.283895
30
0.0
11
47.404305
21
45.972995
31
0.0
0
LINE
8
0
6
CONTINUOUS
10
47.275305
20
46.283895
30
0.0
11
49.333435
21
46.810225
31
0.0
0
LINE
8
0
6
CONTINUOUS
10
52.738385
20
40.212095
30
0.0
11
52.626715
21
40.564855
31
0.0
0
LINE
8
0
6
CONTINUOUS
10
52.738385
20
40.212095
30
0.0
11
51.391535
21
38.893295
31
0.0
0
LINE
8
0
6
CONTINUOUS
10
51.391535
20
38.893295
30
0.0
11
51.261605
21
39.205795
31
0.0
0
LINE
8
0
6
CONTINUOUS
10
51.391535
20
38.893295
30
0.0
11
49.333305
21
38.367875
31
0.0
0
LINE
8
0
6
CONTINUOUS
10
47.404295
20
39.205795
30
0.0
11
46.034205
21
40.569605
31
0.0
0
LINE
8
0
6
CONTINUOUS
10
47.275165
20
38.894255
30
0.0
11
45.910935
21
40.230085
31
0.0
0
LINE
8
0
6
CONTINUOUS
10
49.333305
20
38.367875
30
0.0
11
49.332955
21
38.697025
31
0.0
0
LINE
8
0
6
CONTINUOUS
10
49.333305
20
38.367875
30
0.0
11
47.275165
21
38.894255
31
0.0
0
LINE
8
0
6
CONTINUOUS
10
51.207955
20
45.836995
30
0.0
11
49.332955
21
46.339395
31
0.0
0
LINE
8
0
6
CONTINUOUS
10
52.580555
20
44.464395
30
0.0
11
51.207955
21
45.836995
31
0.0
0
LINE
8
0
6
CONTINUOUS
10
53.082955
20
42.589395
30
0.0
11
52.580555
21
44.464395
31
0.0
0
LINE
8
0
6
CONTINUOUS
10
52.580555
20
40.714395
30
0.0
11
53.082955
21
42.589395
31
0.0
0
LINE
8
0
6
CONTINUOUS
10
51.207955
20
39.341805
30
0.0
11
52.580555
21
40.714395
31
0.0
0
LINE
8
0
6
CONTINUOUS
10
49.332955
20
38.839395
30
0.0
11
51.207955
21
39.341805
31
0.0
0
LINE
8
0
6
CONTINUOUS
10
47.457955
20
39.341805
30
0.0
11
49.332955
21
38.839395
31
0.0
0
LINE
8
0
6
CONTINUOUS
10
46.085355
20
40.714395
30
0.0
11
47.457955
21
39.341805
31
0.0
0
LINE
8
0
6
CONTINUOUS
10
45.582955
20
42.589395
30
0.0
11
46.085355
21
40.714395
31
0.0
0
LINE
8
0
6
CONTINUOUS
10
46.085355
20
44.464405
30
0.0
11
45.582955
21
42.589395
31
0.0
0
LINE
8
0
6
CONTINUOUS
10
47.457955
20
45.836995
30
0.0
11
46.085355
21
44.464405
31
0.0
0
LINE
8
0
6
CONTINUOUS
10
49.332955
20
46.339395
30
0.0
11
47.457955
21
45.836995
31
0.0
0
LINE
8
0
6
CONTINUOUS
10
-19.688105
20
60.478135
30
0.0
11
-14.977935
21
59.685425
31
0.0
0
LINE
8
0
6
CONTINUOUS
10
-2.529735
20
42.007175
30
0.0
11
-3.219335
21
37.553845
31
0.0
0
LINE
8
0
6
CONTINUOUS
10
-2.937755
20
46.530405
30
0.0
11
-2.529735
21
42.007175
31
0.0
0
LINE
8
0
6
CONTINUOUS
10
-15.391225
20
25.420705
30
0.0
11
-19.825285
21
24.705825
31
0.0
0
LINE
8
0
6
CONTINUOUS
10
-4.954155
20
33.409775
30
0.0
11
-7.740485
21
29.884245
31
0.0
0
LINE
8
0
6
CONTINUOUS
10
-24.348755
20
25.074445
30
0.0
11
-28.681555
21
26.707055
31
0.0
0
LINE
8
0
6
CONTINUOUS
10
-4.466245
20
50.853155
30
0.0
11
-2.937755
21
46.530405
31
0.0
0
LINE
8
0
6
CONTINUOUS
10
-11.289635
20
27.185605
30
0.0
11
-15.391225
21
25.420705
31
0.0
0
LINE
8
0
6
CONTINUOUS
10
-37.568885
20
37.385845
30
0.0
11
-38.267785
21
42.172905
31
0.0
0
LINE
8
0
6
CONTINUOUS
10
-32.473825
20
29.407125
30
0.0
11
-35.504505
21
33.026605
31
0.0
0
LINE
8
0
6
CONTINUOUS
10
-3.219335
20
37.553845
30
0.0
11
-4.954155
21
33.409775
31
0.0
0
LINE
8
0
6
CONTINUOUS
10
-19.825285
20
24.705825
30
0.0
11
-24.348755
21
25.074445
31
0.0
0
LINE
8
0
6
CONTINUOUS
10
-10.737665
20
57.649935
30
0.0
11
-7.163245
21
54.656305
31
0.0
0
LINE
8
0
6
CONTINUOUS
10
-20.809425
20
-63.390095
30
0.0
11
-20.264175
21
-50.186035
31
0.0
0
LINE
8
0
6
CONTINUOUS
10
-25.290385
20
-63.587455
30
0.0
11
-25.209755
21
-50.074655
31
0.0
0
LINE
8
0
6
CONTINUOUS
10
15.186525
20
72.982985
30
0.0
11
11.274665
21
78.203115
31
0.0
0
LINE
8
0
6
CONTINUOUS
10
-3.298305
20
32.881565
30
0.0
11
-1.368895
21
37.708995
31
0.0
0
LINE
8
0
6
CONTINUOUS
10
6.074665
20
82.489305
30
0.0
11
-0.298225
21
85.838035
31
0.0
0
LINE
8
0
6
CONTINUOUS
10
-21.805305
20
-81.213305
30
0.0
11
-18.013365
21
-81.574325
31
0.0
0
LINE
8
0
6
CONTINUOUS
10
-11.536595
20
24.780125
30
0.0
11
-9.821685
21
26.051495
31
0.0
0
LINE
8
0
6
CONTINUOUS
10
-21.929165
20
-81.117615
30
0.0
11
-18.402705
21
-81.306425
31
0.0
0
LINE
8
0
6
CONTINUOUS
10
-30.569545
20
-82.855005
30
0.0
11
-31.461555
21
-83.153885
31
0.0
0
LINE
8
0
6
CONTINUOUS
10
-31.461555
20
-83.153885
30
0.0
11
-28.639075
21
-82.348735
31
0.0
0
LINE
8
0
6
CONTINUOUS
10
-30.569545
20
-82.855005
30
0.0
11
-28.133205
21
-82.039105
31
0.0
0
LINE
8
0
6
CONTINUOUS
10
-9.821685
20
26.051495
30
0.0
11
-6.263515
21
28.956395
31
0.0
0
LINE
8
0
6
CONTINUOUS
10
-39.923025
20
-88.256755
30
0.0
11
-38.846415
21
-87.696595
31
0.0
0
LINE
8
0
6
CONTINUOUS
10
-28.109945
20
79.863445
30
0.0
11
-28.739485
21
78.575955
31
0.0
0
LINE
8
0
6
CONTINUOUS
10
-42.618235
20
-87.120905
30
0.0
11
-41.202065
21
-88.277665
31
0.0
0
LINE
8
0
6
CONTINUOUS
10
-26.136595
20
76.677375
30
0.0
11
-25.270135
21
78.169015
31
0.0
0
LINE
8
0
6
CONTINUOUS
10
-26.635105
20
79.342635
30
0.0
11
-27.670375
21
77.675605
31
0.0
0
LINE
8
0
6
CONTINUOUS
10
-41.202065
20
-88.277665
30
0.0
11
-39.923025
21
-88.256755
31
0.0
0
LINE
8
0
6
CONTINUOUS
10
-41.766995
20
-87.795595
30
0.0
11
-41.202065
21
-88.277665
31
0.0
0
LINE
8
0
6
CONTINUOUS
10
-39.508535
20
-87.169985
30
0.0
11
-38.846415
21
-87.696595
31
0.0
0
LINE
8
0
6
CONTINUOUS
10
-28.779605
20
79.255665
30
0.0
11
-29.724555
21
78.227595
31
0.0
0
LINE
8
0
6
CONTINUOUS
10
-39.825255
20
66.805855
30
0.0
11
-44.442095
21
60.473555
31
0.0
0
LINE
8
0
6
CONTINUOUS
10
-34.031025
20
73.617875
30
0.0
11
-39.825255
21
66.805855
31
0.0
0
LINE
8
0
6
CONTINUOUS
10
-29.724555
20
78.227595
30
0.0
11
-34.031025
21
73.617875
31
0.0
0
LINE
8
0
6
CONTINUOUS
10
-49.325565
20
51.284465
30
0.0
11
-39.825255
21
66.805855
31
0.0
0
LINE
8
0
6
CONTINUOUS
10
-45.069995
20
58.545625
30
0.0
11
-49.325565
21
51.284465
31
0.0
0
LINE
8
0
6
CONTINUOUS
10
-39.825255
20
66.805855
30
0.0
11
-45.069995
21
58.545625
31
0.0
0
LINE
8
0
6
CONTINUOUS
10
17.678405
20
64.462525
30
0.0
11
17.665575
21
65.453335
31
0.0
0
LINE
8
0
6
CONTINUOUS
10
15.267875
20
66.355545
30
0.0
11
15.608175
21
64.848595
31
0.0
0
LINE
8
0
6
CONTINUOUS
10
-8.104575
20
-86.058425
30
0.0
11
-6.304135
21
-87.356475
31
0.0
0
LINE
8
0
6
CONTINUOUS
10
-5.549495
20
28.782035
30
0.0
11
-4.198315
21
30.988435
31
0.0
0
LINE
8
0
6
CONTINUOUS
10
-3.298305
20
32.881565
30
0.0
11
-7.723475
21
27.231085
31
0.0
0
LINE
8
0
6
CONTINUOUS
10
-4.198315
20
30.988435
30
0.0
11
-3.298305
21
32.881565
31
0.0
0
LINE
8
0
6
CONTINUOUS
10
-38.267785
20
42.172905
30
0.0
11
-37.754585
21
47.015235
31
0.0
0
LINE
8
0
6
CONTINUOUS
10
-1.521745
20
35.943705
30
0.0
11
-5.549495
21
28.782035
31
0.0
0
LINE
8
0
6
CONTINUOUS
10
-1.988915
20
33.951625
30
0.0
11
-1.521745
21
35.943705
31
0.0
0
LINE
8
0
6
CONTINUOUS
10
-0.395425
20
41.799435
30
0.0
11
-1.988915
21
33.951625
31
0.0
0
LINE
8
0
6
CONTINUOUS
10
-1.368895
20
37.708995
30
0.0
11
-4.198315
21
30.988435
31
0.0
0
LINE
8
0
6
CONTINUOUS
10
-4.198315
20
30.988435
30
0.0
11
-1.521745
21
35.943705
31
0.0
0
LINE
8
0
6
CONTINUOUS
10
-6.263515
20
28.956395
30
0.0
11
-11.536595
21
24.780125
31
0.0
0
LINE
8
0
6
CONTINUOUS
10
-7.723475
20
27.231085
30
0.0
11
-6.263515
21
28.956395
31
0.0
0
LINE
8
0
6
CONTINUOUS
10
-1.521745
20
35.943705
30
0.0
11
-0.395425
21
41.799435
31
0.0
0
LINE
8
0
6
CONTINUOUS
10
17.182275
20
61.578785
30
0.0
11
17.535825
21
63.046295
31
0.0
0
LINE
8
0
6
CONTINUOUS
10
16.317695
20
60.964265
30
0.0
11
16.693135
21
62.735095
31
0.0
0
LINE
8
0
6
CONTINUOUS
10
-23.334965
20
84.693155
30
0.0
11
-28.779605
21
79.255665
31
0.0
0
LINE
8
0
6
CONTINUOUS
10
-30.571535
20
76.370055
30
0.0
11
-29.553745
21
77.270525
31
0.0
0
LINE
8
0
6
CONTINUOUS
10
-28.639075
20
-82.348735
30
0.0
11
-25.736165
21
-81.597535
31
0.0
0
LINE
8
0
6
CONTINUOUS
10
-35.120385
20
-84.771955
30
0.0
11
-30.569545
21
-82.855005
31
0.0
0
LINE
8
0
6
CONTINUOUS
10
-33.963545
20
-84.191365
30
0.0
11
-35.120385
21
-84.771955
31
0.0
0
LINE
8
0
6
CONTINUOUS
10
-25.736165
20
-81.597535
30
0.0
11
-21.805305
21
-81.213305
31
0.0
0
LINE
8
0
6
CONTINUOUS
10
-14.774605
20
-82.243335
30
0.0
11
-15.573205
21
-82.055885
31
0.0
0
LINE
8
0
6
CONTINUOUS
10
-18.013365
20
-81.574325
30
0.0
11
-14.774605
21
-82.243335
31
0.0
0
LINE
8
0
6
CONTINUOUS
10
-6.304135
20
-87.356475
30
0.0
11
-4.942545
21
-88.304075
31
0.0
0
LINE
8
0
6
CONTINUOUS
10
-38.229805
20
-87.261985
30
0.0
11
-39.923025
21
-88.256755
31
0.0
0
LINE
8
0
6
CONTINUOUS
10
-39.433675
20
-88.070045
30
0.0
11
-38.229805
21
-87.261985
31
0.0
0
LINE
8
0
6
CONTINUOUS
10
-39.923025
20
-88.256755
30
0.0
11
-39.433675
21
-88.070045
31
0.0
0
LINE
8
0
6
CONTINUOUS
10
-43.262545
20
-84.877925
30
0.0
11
-42.959195
21
-86.482915
31
0.0
0
LINE
8
0
6
CONTINUOUS
10
-2.956445
20
-87.836545
30
0.0
11
-2.371785
21
-86.920245
31
0.0
0
LINE
8
0
6
CONTINUOUS
10
-2.371785
20
-86.920245
30
0.0
11
-2.069025
21
-86.090385
31
0.0
0
LINE
8
0
6
CONTINUOUS
10
-42.456345
20
-85.080735
30
0.0
11
-42.052385
21
-86.587425
31
0.0
0
LINE
8
0
6
CONTINUOUS
10
-2.956445
20
-87.836545
30
0.0
11
-2.635185
21
-86.911795
31
0.0
0
LINE
8
0
6
CONTINUOUS
10
-40.132965
20
-84.536695
30
0.0
11
-39.860455
21
-86.050625
31
0.0
0
LINE
8
0
6
CONTINUOUS
10
-5.669015
20
-87.201825
30
0.0
11
-5.294955
21
-86.127795
31
0.0
0
LINE
8
0
6
CONTINUOUS
10
-21.945205
20
-78.646825
30
0.0
11
-21.942805
21
-77.156045
31
0.0
0
LINE
8
0
6
CONTINUOUS
10
-42.959195
20
-86.482915
30
0.0
11
-42.618235
21
-87.120905
31
0.0
0
LINE
8
0
6
CONTINUOUS
10
-2.069025
20
-86.090385
30
0.0
11
-1.779625
21
-84.662225
31
0.0
0
LINE
8
0
6
CONTINUOUS
10
15.213535
20
55.691165
30
0.0
11
17.182275
21
61.578785
31
0.0
0
LINE
8
0
6
CONTINUOUS
10
-13.197535
20
88.304075
30
0.0
11
-18.739945
21
87.137715
31
0.0
0
LINE
8
0
6
CONTINUOUS
10
-45.124755
20
59.226185
30
0.0
11
-49.872825
21
50.351405
31
0.0
0
LINE
8
0
6
CONTINUOUS
10
13.046075
20
49.149835
30
0.0
11
15.213535
21
55.691165
31
0.0
0
LINE
8
0
6
CONTINUOUS
10
10.839415
20
41.558705
30
0.0
11
13.046075
21
49.149835
31
0.0
0
LINE
8
0
6
CONTINUOUS
10
-49.872825
20
50.351405
30
0.0
11
-52.825855
21
40.610595
31
0.0
0
LINE
8
0
6
CONTINUOUS
10
-52.825855
20
40.610595
30
0.0
11
-54.122405
21
30.895345
31
0.0
0
LINE
8
0
6
CONTINUOUS
10
-23.334965
20
84.693155
30
0.0
11
-28.109945
21
79.863445
31
0.0
0
LINE
8
0
6
CONTINUOUS
10
-18.739945
20
87.137715
30
0.0
11
-23.334965
21
84.693155
31
0.0
0
LINE
8
0
6
CONTINUOUS
10
-6.785985
20
87.818105
30
0.0
11
-13.197535
21
88.304075
31
0.0
0
LINE
8
0
6
CONTINUOUS
10
-54.122405
20
30.895345
30
0.0
11
-54.496045
21
20.263335
31
0.0
0
LINE
8
0
6
CONTINUOUS
10
-54.496045
20
20.263335
30
0.0
11
-54.109735
21
9.485005
31
0.0
0
LINE
8
0
6
CONTINUOUS
10
-54.109735
20
9.485005
30
0.0
11
-53.220695
21
-1.479375
31
0.0
0
LINE
8
0
6
CONTINUOUS
10
-53.220695
20
-1.479375
30
0.0
11
-51.914385
21
-13.605675
31
0.0
0
LINE
8
0
6
CONTINUOUS
10
-51.914385
20
-13.605675
30
0.0
11
-50.343215
21
-26.615625
31
0.0
0
LINE
8
0
6
CONTINUOUS
10
7.097895
20
23.100215
30
0.0
11
8.848945
21
32.823985
31
0.0
0
LINE
8
0
6
CONTINUOUS
10
-0.298225
20
85.838035
30
0.0
11
-6.785985
21
87.818105
31
0.0
0
LINE
8
0
6
CONTINUOUS
10
11.274665
20
78.203115
30
0.0
11
6.074665
21
82.489305
31
0.0
0
LINE
8
0
6
CONTINUOUS
10
4.345955
20
1.862905
30
0.0
11
5.582245
21
12.694175
31
0.0
0
LINE
8
0
6
CONTINUOUS
10
2.561975
20
-20.630605
30
0.0
11
3.363585
21
-9.237245
31
0.0
0
LINE
8
0
6
CONTINUOUS
10
1.780305
20
-32.575665
30
0.0
11
2.561975
21
-20.630605
31
0.0
0
LINE
8
0
6
CONTINUOUS
10
-27.670375
20
77.675605
30
0.0
11
-28.739485
21
78.575955
31
0.0
0
LINE
8
0
6
CONTINUOUS
10
-28.739485
20
78.575955
30
0.0
11
-29.553745
21
77.270525
31
0.0
0
LINE
8
0
6
CONTINUOUS
10
-50.343215
20
-26.615625
30
0.0
11
-48.566815
21
-41.283115
31
0.0
0
LINE
8
0
6
CONTINUOUS
10
-48.566815
20
-41.283115
30
0.0
11
-46.727605
21
-56.486295
31
0.0
0
LINE
8
0
6
CONTINUOUS
10
-44.837795
20
-72.110885
30
0.0
11
-43.262545
21
-84.877925
31
0.0
0
LINE
8
0
6
CONTINUOUS
10
-46.727605
20
-56.486295
30
0.0
11
-44.837795
21
-72.110885
31
0.0
0
LINE
8
0
6
CONTINUOUS
10
17.535825
20
63.046295
30
0.0
11
17.678405
21
64.462525
31
0.0
0
LINE
8
0
6
CONTINUOUS
10
8.848945
20
32.823985
30
0.0
11
10.839415
21
41.558705
31
0.0
0
LINE
8
0
6
CONTINUOUS
10
5.582245
20
12.694175
30
0.0
11
7.097895
21
23.100215
31
0.0
0
LINE
8
0
6
CONTINUOUS
10
3.363585
20
-9.237245
30
0.0
11
4.345955
21
1.862905
31
0.0
0
LINE
8
0
6
CONTINUOUS
10
0.934665
20
-45.220465
30
0.0
11
1.780305
21
-32.575665
31
0.0
0
LINE
8
0
6
CONTINUOUS
10
0.053115
20
-58.386495
30
0.0
11
0.934665
21
-45.220465
31
0.0
0
LINE
8
0
6
CONTINUOUS
10
-0.854795
20
-71.615455
30
0.0
11
0.053115
21
-58.386495
31
0.0
0
LINE
8
0
6
CONTINUOUS
10
-1.779625
20
-84.662225
30
0.0
11
-0.854795
21
-71.615455
31
0.0
0
LINE
8
0
6
CONTINUOUS
10
-2.635185
20
-86.911795
30
0.0
11
-2.419785
21
-84.978635
31
0.0
0
LINE
8
0
6
CONTINUOUS
10
-30.894345
20
73.968355
30
0.0
11
-37.122075
21
66.311045
31
0.0
0
LINE
8
0
6
CONTINUOUS
10
14.390595
20
55.190615
30
0.0
11
16.317695
21
60.964265
31
0.0
0
LINE
8
0
6
CONTINUOUS
10
-37.122075
20
66.311045
30
0.0
11
-43.179745
21
57.902915
31
0.0
0
LINE
8
0
6
CONTINUOUS
10
-43.179745
20
57.902915
30
0.0
11
-47.234435
21
48.888725
31
0.0
0
LINE
8
0
6
CONTINUOUS
10
12.010595
20
48.717725
30
0.0
11
14.390595
21
55.190615
31
0.0
0
LINE
8
0
6
CONTINUOUS
10
9.595055
20
41.063135
30
0.0
11
12.010595
21
48.717725
31
0.0
0
LINE
8
0
6
CONTINUOUS
10
-47.234435
20
48.888725
30
0.0
11
-50.330285
21
39.582165
31
0.0
0
LINE
8
0
6
CONTINUOUS
10
-50.330285
20
39.582165
30
0.0
11
-52.105845
21
30.095885
31
0.0
0
LINE
8
0
6
CONTINUOUS
10
-25.270135
20
78.169015
30
0.0
11
-20.490915
21
82.959215
31
0.0
0
LINE
8
0
6
CONTINUOUS
10
-21.720455
20
84.217785
30
0.0
11
-26.635105
21
79.342635
31
0.0
0
LINE
8
0
6
CONTINUOUS
10
-52.105845
20
30.095885
30
0.0
11
-52.678775
21
19.767605
31
0.0
0
LINE
8
0
6
CONTINUOUS
10
-52.678775
20
19.767605
30
0.0
11
-52.385575
21
9.285195
31
0.0
0
LINE
8
0
6
CONTINUOUS
10
-52.385575
20
9.285195
30
0.0
11
-51.700495
21
-1.636915
31
0.0
0
LINE
8
0
6
CONTINUOUS
10
-51.700495
20
-1.636915
30
0.0
11
-50.565315
21
-13.676555
31
0.0
0
LINE
8
0
6
CONTINUOUS
10
-50.565315
20
-13.676555
30
0.0
11
-49.022975
21
-26.685955
31
0.0
0
LINE
8
0
6
CONTINUOUS
10
5.870965
20
22.748815
30
0.0
11
7.609025
21
32.339005
31
0.0
0
LINE
8
0
6
CONTINUOUS
10
3.308845
20
1.651845
30
0.0
11
4.421795
21
12.393705
31
0.0
0
LINE
8
0
6
CONTINUOUS
10
1.849075
20
-20.909115
30
0.0
11
2.566475
21
-9.447635
31
0.0
0
LINE
8
0
6
CONTINUOUS
10
1.024815
20
-32.833495
30
0.0
11
1.849075
21
-20.909115
31
0.0
0
LINE
8
0
6
CONTINUOUS
10
-27.202885
20
75.416455
30
0.0
11
-26.136595
21
76.677375
31
0.0
0
LINE
8
0
6
CONTINUOUS
10
-49.022975
20
-26.685955
30
0.0
11
-47.310245
21
-41.352895
31
0.0
0
LINE
8
0
6
CONTINUOUS
10
-47.310245
20
-41.352895
30
0.0
11
-45.509695
21
-56.573665
31
0.0
0
LINE
8
0
6
CONTINUOUS
10
-43.743885
20
-72.192205
30
0.0
11
-42.456345
21
-85.080735
31
0.0
0
LINE
8
0
6
CONTINUOUS
10
-45.509695
20
-56.573665
30
0.0
11
-43.743885
21
-72.192205
31
0.0
0
LINE
8
0
6
CONTINUOUS
10
17.665575
20
65.453335
30
0.0
11
15.186525
21
72.982985
31
0.0
0
LINE
8
0
6
CONTINUOUS
10
-4.942545
20
-88.304075
30
0.0
11
-3.485765
21
-88.240795
31
0.0
0
LINE
8
0
6
CONTINUOUS
10
-3.485765
20
-88.240795
30
0.0
11
-2.956445
21
-87.836545
31
0.0
0
LINE
8
0
6
CONTINUOUS
10
16.693135
20
62.735095
30
0.0
11
16.911525
21
64.639195
31
0.0
0
LINE
8
0
6
CONTINUOUS
10
7.609025
20
32.339005
30
0.0
11
9.595055
21
41.063135
31
0.0
0
LINE
8
0
6
CONTINUOUS
10
4.421795
20
12.393705
30
0.0
11
5.870965
21
22.748815
31
0.0
0
LINE
8
0
6
CONTINUOUS
10
2.566475
20
-9.447635
30
0.0
11
3.308845
21
1.651845
31
0.0
0
LINE
8
0
6
CONTINUOUS
10
0.176815
20
-45.460195
30
0.0
11
1.024815
21
-32.833495
31
0.0
0
LINE
8
0
6
CONTINUOUS
10
-0.699665
20
-58.636465
30
0.0
11
0.176815
21
-45.460195
31
0.0
0
LINE
8
0
6
CONTINUOUS
10
-1.584945
20
-71.888125
30
0.0
11
-0.699665
21
-58.636465
31
0.0
0
LINE
8
0
6
CONTINUOUS
10
-2.419785
20
-84.978635
30
0.0
11
-1.584945
21
-71.888125
31
0.0
0
LINE
8
0
6
CONTINUOUS
10
-39.860455
20
-86.050625
30
0.0
11
-39.508535
21
-87.169985
31
0.0
0
LINE
8
0
6
CONTINUOUS
10
-5.294955
20
-86.127795
30
0.0
11
-5.081655
21
-84.508095
31
0.0
0
LINE
8
0
6
CONTINUOUS
10
-38.229805
20
-87.261985
30
0.0
11
-36.519995
21
-85.764035
31
0.0
0
LINE
8
0
6
CONTINUOUS
10
-36.519995
20
-85.764035
30
0.0
11
-33.963545
21
-84.191365
31
0.0
0
LINE
8
0
6
CONTINUOUS
10
-28.133205
20
-82.039105
30
0.0
11
-25.473755
21
-81.519835
31
0.0
0
LINE
8
0
6
CONTINUOUS
10
-33.963545
20
-84.191365
30
0.0
11
-30.569545
21
-82.855005
31
0.0
0
LINE
8
0
6
CONTINUOUS
10
-21.929165
20
-81.117615
30
0.0
11
-21.947915
21
-80.138825
31
0.0
0
LINE
8
0
6
CONTINUOUS
10
-25.473755
20
-81.519835
30
0.0
11
-21.929165
21
-81.117615
31
0.0
0
LINE
8
0
6
CONTINUOUS
10
-18.402705
20
-81.306425
30
0.0
11
-15.573205
21
-82.055885
31
0.0
0
LINE
8
0
6
CONTINUOUS
10
-15.573205
20
-82.055885
30
0.0
11
-11.322235
21
-83.833495
31
0.0
0
LINE
8
0
6
CONTINUOUS
10
-11.322235
20
-83.833495
30
0.0
11
-8.104575
21
-86.058425
31
0.0
0
LINE
8
0
6
CONTINUOUS
10
16.804505
20
66.391925
30
0.0
11
14.049265
21
73.386565
31
0.0
0
LINE
8
0
6
CONTINUOUS
10
-6.304135
20
-87.356475
30
0.0
11
-5.669015
21
-87.201825
31
0.0
0
LINE
8
0
6
CONTINUOUS
10
-38.846415
20
-87.696595
30
0.0
11
-38.229805
21
-87.261985
31
0.0
0
LINE
8
0
6
CONTINUOUS
10
-29.005885
20
58.345295
30
0.0
11
-24.446595
21
60.013875
31
0.0
0
LINE
8
0
6
CONTINUOUS
10
-37.754585
20
47.015235
30
0.0
11
-35.881125
21
51.564695
31
0.0
0
LINE
8
0
6
CONTINUOUS
10
-14.977935
20
59.685425
30
0.0
11
-10.737665
21
57.649935
31
0.0
0
LINE
8
0
6
CONTINUOUS
10
-35.881125
20
51.564695
30
0.0
11
-32.866115
21
55.395955
31
0.0
0
LINE
8
0
6
CONTINUOUS
10
-7.163245
20
54.656305
30
0.0
11
-4.466245
21
50.853155
31
0.0
0
LINE
8
0
6
CONTINUOUS
10
-28.681555
20
26.707055
30
0.0
11
-32.473825
21
29.407125
31
0.0
0
LINE
8
0
6
CONTINUOUS
10
-24.446595
20
60.013875
30
0.0
11
-19.688105
21
60.478135
31
0.0
0
LINE
8
0
6
CONTINUOUS
10
-6.263515
20
28.956395
30
0.0
11
-3.298305
21
32.881565
31
0.0
0
LINE
8
0
6
CONTINUOUS
10
-7.740485
20
29.884245
30
0.0
11
-11.289635
21
27.185605
31
0.0
0
LINE
8
0
6
CONTINUOUS
10
-32.866115
20
55.395955
30
0.0
11
-29.005885
21
58.345295
31
0.0
0
LINE
8
0
6
CONTINUOUS
10
-35.504505
20
33.026605
30
0.0
11
-37.568885
21
37.385845
31
0.0
0
LINE
8
0
6
CONTINUOUS
10
-24.158845
20
-14.411365
30
0.0
11
-24.464385
21
-25.249155
31
0.0
0
LINE
8
0
6
CONTINUOUS
10
-21.947915
20
-80.138825
30
0.0
11
-21.945205
21
-78.646825
31
0.0
0
LINE
8
0
6
CONTINUOUS
10
-31.948715
20
75.074075
30
0.0
11
-30.571535
21
76.370055
31
0.0
0
LINE
8
0
6
CONTINUOUS
10
-45.124755
20
59.226185
30
0.0
11
-38.608415
21
67.515785
31
0.0
0
LINE
8
0
6
CONTINUOUS
10
-44.442095
20
60.473555
30
0.0
11
-45.124755
21
59.226185
31
0.0
0
LINE
8
0
6
CONTINUOUS
10
-38.608415
20
67.515785
30
0.0
11
-31.948715
21
75.074075
31
0.0
0
ENDSEC
0
EOF
