999
Erzeugt mit innoplus bad 
0
SECTION
2
HEADER
9
$ACADVER
1
AC1009
9
$DWGCODEPAGE
3
ISO8859-1
0
ENDSEC
0
SECTION
2
TABLES
0
TABLE
2
LAYER
70
1
0
LAYER
2
0
70
0
62
7
6
CONTINUOUS
0
ENDTAB
0
ENDSEC
0
SECTION
2
ENTITIES
0
LINE
8
0
6
CONTINUOUS
10
-47.624365
20
93.501180
30
0.0
11
-49.500005
21
86.501160
31
0.0
0
LINE
8
0
6
CONTINUOUS
10
-35.499995
20
100.501160
30
0.0
11
-42.500005
21
98.625520
31
0.0
0
LINE
8
0
6
CONTINUOUS
10
-21.500015
20
86.501150
30
0.0
11
-23.375655
21
93.501130
31
0.0
0
LINE
8
0
6
CONTINUOUS
10
-21.500025
20
85.562300
30
0.0
11
-21.500015
21
86.501150
31
0.0
0
LINE
8
0
6
CONTINUOUS
10
-23.375655
20
93.501130
30
0.0
11
-28.499995
21
98.625500
31
0.0
0
LINE
8
0
6
CONTINUOUS
10
-23.375655
20
92.352910
30
0.0
11
-23.375655
21
93.501130
31
0.0
0
LINE
8
0
6
CONTINUOUS
10
-28.499995
20
98.625500
30
0.0
11
-35.499995
21
100.501160
31
0.0
0
LINE
8
0
6
CONTINUOUS
10
-28.500005
20
97.324010
30
0.0
11
-28.499995
21
98.625500
31
0.0
0
LINE
8
0
6
CONTINUOUS
10
-35.499995
20
100.501160
30
0.0
11
-42.500005
21
98.625520
31
0.0
0
LINE
8
0
6
CONTINUOUS
10
-35.499995
20
99.143560
30
0.0
11
-35.499995
21
100.501160
31
0.0
0
LINE
8
0
6
CONTINUOUS
10
-42.500005
20
98.625520
30
0.0
11
-47.624355
21
93.501140
31
0.0
0
LINE
8
0
6
CONTINUOUS
10
-42.500005
20
97.324030
30
0.0
11
-42.500005
21
98.625520
31
0.0
0
LINE
8
0
6
CONTINUOUS
10
-49.500005
20
85.562340
30
0.0
11
-49.500005
21
82.180020
31
0.0
0
LINE
8
0
6
CONTINUOUS
10
-21.500025
20
82.179980
30
0.0
11
-21.500025
21
85.562300
31
0.0
0
LINE
8
0
6
CONTINUOUS
10
-23.375655
20
88.355000
30
0.0
11
-23.375655
21
92.352910
31
0.0
0
LINE
8
0
6
CONTINUOUS
10
-28.500005
20
92.875450
30
0.0
11
-28.500005
21
97.324010
31
0.0
0
LINE
8
0
6
CONTINUOUS
10
-35.499995
20
94.530050
30
0.0
11
-35.499995
21
99.143560
31
0.0
0
LINE
8
0
6
CONTINUOUS
10
-42.500005
20
92.875460
30
0.0
11
-42.500005
21
97.324030
31
0.0
0
LINE
8
0
6
CONTINUOUS
10
-47.624365
20
92.352920
30
0.0
11
-47.624365
21
88.355010
31
0.0
0
LINE
8
0
6
CONTINUOUS
10
-49.500005
20
82.180020
30
0.0
11
-49.500015
21
76.556570
31
0.0
0
LINE
8
0
6
CONTINUOUS
10
-21.500025
20
76.556530
30
0.0
11
-21.500025
21
82.179980
31
0.0
0
LINE
8
0
6
CONTINUOUS
10
-23.375665
20
81.746550
30
0.0
11
-23.375655
21
88.355000
31
0.0
0
LINE
8
0
6
CONTINUOUS
10
-28.500005
20
85.545930
30
0.0
11
-28.500005
21
92.875450
31
0.0
0
LINE
8
0
6
CONTINUOUS
10
-35.500005
20
86.936600
30
0.0
11
-35.499995
21
94.530050
31
0.0
0
LINE
8
0
6
CONTINUOUS
10
-42.500015
20
85.545940
30
0.0
11
-42.500005
21
92.875460
31
0.0
0
LINE
8
0
6
CONTINUOUS
10
-47.624365
20
88.355010
30
0.0
11
-47.624365
21
81.746560
31
0.0
0
LINE
8
0
6
CONTINUOUS
10
-49.500015
20
76.556570
30
0.0
11
-49.500015
21
69.028390
31
0.0
0
LINE
8
0
6
CONTINUOUS
10
-21.500025
20
69.028340
30
0.0
11
-21.500025
21
76.556530
31
0.0
0
LINE
8
0
6
CONTINUOUS
10
-23.375665
20
72.922890
30
0.0
11
-23.375665
21
81.746550
31
0.0
0
LINE
8
0
6
CONTINUOUS
10
-28.500015
20
75.773920
30
0.0
11
-28.500005
21
85.545930
31
0.0
0
LINE
8
0
6
CONTINUOUS
10
-35.500005
20
76.817470
30
0.0
11
-35.500005
21
86.936600
31
0.0
0
LINE
8
0
6
CONTINUOUS
10
-42.500015
20
75.773930
30
0.0
11
-42.500015
21
85.545940
31
0.0
0
LINE
8
0
6
CONTINUOUS
10
-47.624365
20
81.746560
30
0.0
11
-47.624375
21
72.922900
31
0.0
0
LINE
8
0
6
CONTINUOUS
10
-49.500015
20
69.028390
30
0.0
11
-49.500025
21
60.045810
31
0.0
0
LINE
8
0
6
CONTINUOUS
10
-21.500035
20
60.045770
30
0.0
11
-21.500025
21
69.028340
31
0.0
0
LINE
8
0
6
CONTINUOUS
10
-23.375675
20
62.411870
30
0.0
11
-23.375665
21
72.922890
31
0.0
0
LINE
8
0
6
CONTINUOUS
10
-28.500015
20
64.143990
30
0.0
11
-28.500015
21
75.773920
31
0.0
0
LINE
8
0
6
CONTINUOUS
10
-35.500015
20
64.778000
30
0.0
11
-35.500005
21
76.817470
31
0.0
0
LINE
8
0
6
CONTINUOUS
10
-42.500025
20
64.143990
30
0.0
11
-42.500015
21
75.773930
31
0.0
0
LINE
8
0
6
CONTINUOUS
10
-47.624375
20
72.922900
30
0.0
11
-47.624375
21
62.411880
31
0.0
0
LINE
8
0
6
CONTINUOUS
10
-49.500025
20
60.045810
30
0.0
11
-49.500025
21
50.146210
31
0.0
0
LINE
8
0
6
CONTINUOUS
10
-21.500045
20
50.146160
30
0.0
11
-21.500035
21
60.045770
31
0.0
0
LINE
8
0
6
CONTINUOUS
10
-23.375675
20
50.842270
30
0.0
11
-23.375675
21
62.411870
31
0.0
0
LINE
8
0
6
CONTINUOUS
10
-28.500025
20
51.351870
30
0.0
11
-28.500015
21
64.143990
31
0.0
0
LINE
8
0
6
CONTINUOUS
10
-35.500015
20
51.538400
30
0.0
11
-35.500015
21
64.778000
31
0.0
0
LINE
8
0
6
CONTINUOUS
10
-42.500025
20
51.351870
30
0.0
11
-42.500025
21
64.143990
31
0.0
0
LINE
8
0
6
CONTINUOUS
10
-47.624375
20
62.411880
30
0.0
11
-47.624385
21
50.842280
31
0.0
0
LINE
8
0
6
CONTINUOUS
10
-47.624355
20
93.501140
30
0.0
11
-49.500005
21
86.501180
31
0.0
0
LINE
8
0
6
CONTINUOUS
10
-47.624365
20
92.352920
30
0.0
11
-47.624355
21
93.501140
31
0.0
0
LINE
8
0
6
CONTINUOUS
10
-49.500005
20
86.501180
30
0.0
11
-49.500005
21
85.562340
31
0.0
0
LINE
8
0
6
CONTINUOUS
10
-28.290675
20
-131.073040
30
0.0
11
-23.013085
21
-125.808340
31
0.0
0
LINE
8
0
6
CONTINUOUS
10
-23.013085
20
-125.808340
30
0.0
11
-21.081345
21
-118.616550
31
0.0
0
LINE
8
0
6
CONTINUOUS
10
-23.013085
20
-125.741280
30
0.0
11
-23.013085
21
-125.808340
31
0.0
0
LINE
8
0
6
CONTINUOUS
10
-21.081345
20
-118.616550
30
0.0
11
-21.081345
21
-118.549520
31
0.0
0
LINE
8
0
6
CONTINUOUS
10
-42.709285
20
-131.073000
30
0.0
11
-35.499985
21
-133.000000
31
0.0
0
LINE
8
0
6
CONTINUOUS
10
-49.918565
20
-118.616530
30
0.0
11
-47.986855
21
-125.808280
31
0.0
0
LINE
8
0
6
CONTINUOUS
10
-49.918565
20
-118.549450
30
0.0
11
-49.918565
21
-118.616530
31
0.0
0
LINE
8
0
6
CONTINUOUS
10
-47.986855
20
-125.808280
30
0.0
11
-42.709285
21
-131.073000
31
0.0
0
LINE
8
0
6
CONTINUOUS
10
-47.986855
20
-125.741200
30
0.0
11
-47.986855
21
-125.808280
31
0.0
0
LINE
8
0
6
CONTINUOUS
10
-42.709285
20
-131.073000
30
0.0
11
-42.709285
21
-131.005980
31
0.0
0
LINE
8
0
6
CONTINUOUS
10
-35.499985
20
-133.000000
30
0.0
11
-28.290675
21
-131.073040
31
0.0
0
LINE
8
0
6
CONTINUOUS
10
-35.499985
20
-132.933010
30
0.0
11
-35.499985
21
-133.000000
31
0.0
0
LINE
8
0
6
CONTINUOUS
10
-28.290675
20
-131.073040
30
0.0
11
-28.290675
21
-131.005980
31
0.0
0
LINE
8
0
6
CONTINUOUS
10
-35.499995
20
-126.335280
30
0.0
11
-35.499995
21
-125.910860
31
0.0
0
LINE
8
0
6
CONTINUOUS
10
-42.790025
20
-124.386700
30
0.0
11
-42.790025
21
-123.962230
31
0.0
0
LINE
8
0
6
CONTINUOUS
10
-50.080015
20
-111.366310
30
0.0
11
-50.080015
21
-111.790740
31
0.0
0
LINE
8
0
6
CONTINUOUS
10
-48.126675
20
-119.063000
30
0.0
11
-48.126675
21
-118.638580
31
0.0
0
LINE
8
0
6
CONTINUOUS
10
-28.209965
20
-123.962250
30
0.0
11
-28.209965
21
-124.386700
31
0.0
0
LINE
8
0
6
CONTINUOUS
10
-22.873295
20
-118.638600
30
0.0
11
-22.873295
21
-119.063080
31
0.0
0
LINE
8
0
6
CONTINUOUS
10
-20.919925
20
-111.790780
30
0.0
11
-20.919925
21
-111.366350
31
0.0
0
LINE
8
0
6
CONTINUOUS
10
-42.790025
20
-124.420190
30
0.0
11
-35.499995
21
-126.368810
31
0.0
0
LINE
8
0
6
CONTINUOUS
10
-50.080015
20
-111.824230
30
0.0
11
-48.126675
21
-119.096550
31
0.0
0
LINE
8
0
6
CONTINUOUS
10
-22.873295
20
-119.096590
30
0.0
11
-20.919925
21
-111.824340
31
0.0
0
LINE
8
0
6
CONTINUOUS
10
-35.499995
20
-126.368810
30
0.0
11
-28.209965
21
-124.420250
31
0.0
0
LINE
8
0
6
CONTINUOUS
10
-28.209965
20
-124.420250
30
0.0
11
-22.873295
21
-119.096590
31
0.0
0
LINE
8
0
6
CONTINUOUS
10
-48.126675
20
-119.096550
30
0.0
11
-42.790025
21
-124.420190
31
0.0
0
LINE
8
0
6
CONTINUOUS
10
-35.499945
20
-96.788260
30
0.0
11
-42.789975
21
-98.736800
31
0.0
0
LINE
8
0
6
CONTINUOUS
10
-28.209925
20
-98.736860
30
0.0
11
-35.499945
21
-96.788260
31
0.0
0
LINE
8
0
6
CONTINUOUS
10
-42.790025
20
-123.928740
30
0.0
11
-35.499995
21
-125.877370
31
0.0
0
LINE
8
0
6
CONTINUOUS
10
-22.873275
20
-104.060580
30
0.0
11
-28.209925
21
-98.736860
31
0.0
0
LINE
8
0
6
CONTINUOUS
10
-48.126675
20
-118.605030
30
0.0
11
-50.080015
21
-111.332760
31
0.0
0
LINE
8
0
6
CONTINUOUS
10
-42.789975
20
-98.736800
30
0.0
11
-48.126655
21
-104.060520
31
0.0
0
LINE
8
0
6
CONTINUOUS
10
-22.873295
20
-118.605080
30
0.0
11
-20.919925
21
-111.332800
31
0.0
0
LINE
8
0
6
CONTINUOUS
10
-35.499995
20
-125.877370
30
0.0
11
-28.209965
21
-123.928740
31
0.0
0
LINE
8
0
6
CONTINUOUS
10
-28.209965
20
-123.928740
30
0.0
11
-22.873295
21
-118.605080
31
0.0
0
LINE
8
0
6
CONTINUOUS
10
-48.126675
20
-118.605030
30
0.0
11
-42.790025
21
-123.928740
31
0.0
0
LINE
8
0
6
CONTINUOUS
10
-20.919925
20
-111.332800
30
0.0
11
-22.873275
21
-104.060580
31
0.0
0
LINE
8
0
6
CONTINUOUS
10
-48.126655
20
-104.060520
30
0.0
11
-50.080015
21
-111.332760
31
0.0
0
LINE
8
0
6
CONTINUOUS
10
-35.495045
20
-93.003490
30
0.0
11
-27.029765
21
-95.510750
31
0.0
0
LINE
8
0
6
CONTINUOUS
10
-21.081345
20
-118.549520
30
0.0
11
-21.081355
21
-115.037060
31
0.0
0
LINE
8
0
6
CONTINUOUS
10
-21.081355
20
-113.605120
30
0.0
11
-21.081365
21
-112.008020
31
0.0
0
LINE
8
0
6
CONTINUOUS
10
-27.029765
20
-95.510750
30
0.0
11
-27.980935
21
-98.273930
31
0.0
0
LINE
8
0
6
CONTINUOUS
10
-42.709295
20
-126.061560
30
0.0
11
-42.709295
21
-124.464460
31
0.0
0
LINE
8
0
6
CONTINUOUS
10
-35.499995
20
-126.391490
30
0.0
11
-35.499995
21
-127.988590
31
0.0
0
LINE
8
0
6
CONTINUOUS
10
-49.449425
20
-89.672280
30
0.0
11
-49.882955
21
-108.055690
31
0.0
0
LINE
8
0
6
CONTINUOUS
10
-35.499985
20
-132.933010
30
0.0
11
-35.499995
21
-129.420570
31
0.0
0
LINE
8
0
6
CONTINUOUS
10
-42.709295
20
-127.493500
30
0.0
11
-42.709285
21
-131.005980
31
0.0
0
LINE
8
0
6
CONTINUOUS
10
-21.113075
20
-108.055330
30
0.0
11
-21.550485
21
-89.672280
31
0.0
0
LINE
8
0
6
CONTINUOUS
10
-23.013085
20
-125.741280
30
0.0
11
-23.013095
21
-122.228840
31
0.0
0
LINE
8
0
6
CONTINUOUS
10
-28.290685
20
-127.493560
30
0.0
11
-28.290675
21
-131.005980
31
0.0
0
LINE
8
0
6
CONTINUOUS
10
-35.495045
20
-93.003490
30
0.0
11
-35.499955
21
-88.691810
31
0.0
0
LINE
8
0
6
CONTINUOUS
10
-28.290685
20
-124.464500
30
0.0
11
-28.290685
21
-126.061580
31
0.0
0
LINE
8
0
6
CONTINUOUS
10
-23.013095
20
-120.796860
30
0.0
11
-23.013105
21
-119.199790
31
0.0
0
LINE
8
0
6
CONTINUOUS
10
-49.918585
20
-112.007980
30
0.0
11
-49.918575
21
-113.605060
31
0.0
0
LINE
8
0
6
CONTINUOUS
10
-47.986865
20
-120.796860
30
0.0
11
-47.986865
21
-119.199740
31
0.0
0
LINE
8
0
6
CONTINUOUS
10
-47.582845
20
-89.182880
30
0.0
11
-48.751515
21
-101.600570
31
0.0
0
LINE
8
0
6
CONTINUOUS
10
-43.958025
20
-95.518670
30
0.0
11
-42.458995
21
-88.825970
31
0.0
0
LINE
8
0
6
CONTINUOUS
10
-47.986855
20
-125.741200
30
0.0
11
-47.986865
21
-122.228780
31
0.0
0
LINE
8
0
6
CONTINUOUS
10
-49.918575
20
-115.037040
30
0.0
11
-49.918565
21
-118.549450
31
0.0
0
LINE
8
0
6
CONTINUOUS
10
-35.495045
20
-93.003490
30
0.0
11
-43.958025
21
-95.518670
31
0.0
0
LINE
8
0
6
CONTINUOUS
10
-35.499015
20
-96.538470
30
0.0
11
-35.495045
21
-93.003490
31
0.0
0
LINE
8
0
6
CONTINUOUS
10
-43.958025
20
-95.518670
30
0.0
11
-42.983285
21
-98.283120
31
0.0
0
LINE
8
0
6
CONTINUOUS
10
-48.561585
20
-104.082090
30
0.0
11
-48.751515
21
-101.600570
31
0.0
0
LINE
8
0
6
CONTINUOUS
10
-49.882955
20
-108.055690
30
0.0
11
-49.996895
21
-110.973380
31
0.0
0
LINE
8
0
6
CONTINUOUS
10
-50.028235
20
-112.189390
30
0.0
11
-49.918575
21
-115.037040
31
0.0
0
LINE
8
0
6
CONTINUOUS
10
-21.081355
20
-115.037060
30
0.0
11
-20.956905
21
-112.193150
31
0.0
0
LINE
8
0
6
CONTINUOUS
10
-22.233145
20
-101.608390
30
0.0
11
-22.391915
21
-104.087130
31
0.0
0
LINE
8
0
6
CONTINUOUS
10
-27.980935
20
-98.273930
30
0.0
11
-35.499015
21
-96.538470
31
0.0
0
LINE
8
0
6
CONTINUOUS
10
-35.499015
20
-96.538470
30
0.0
11
-42.983285
21
-98.283120
31
0.0
0
LINE
8
0
6
CONTINUOUS
10
-35.499141
20
-96.788475
30
0.0
11
-35.499015
21
-96.538470
31
0.0
0
LINE
8
0
6
CONTINUOUS
10
-22.391915
20
-104.087130
30
0.0
11
-27.980935
21
-98.273930
31
0.0
0
LINE
8
0
6
CONTINUOUS
10
-27.980935
20
-98.273930
30
0.0
11
-28.068104
21
-98.878337
31
0.0
0
LINE
8
0
6
CONTINUOUS
10
-28.290685
20
-126.061580
30
0.0
11
-28.290685
21
-126.805080
31
0.0
0
LINE
8
0
6
CONTINUOUS
10
-22.233145
20
-101.608390
30
0.0
11
-23.417075
21
-89.182880
31
0.0
0
LINE
8
0
6
CONTINUOUS
10
-28.540915
20
-88.825970
30
0.0
11
-27.029765
21
-95.510750
31
0.0
0
LINE
8
0
6
CONTINUOUS
10
-47.986865
20
-122.228780
30
0.0
11
-47.986865
21
-121.540300
31
0.0
0
LINE
8
0
6
CONTINUOUS
10
-47.986865
20
-121.540300
30
0.0
11
-47.986865
21
-120.796860
31
0.0
0
LINE
8
0
6
CONTINUOUS
10
-42.709295
20
-126.805080
30
0.0
11
-42.709295
21
-127.493500
31
0.0
0
LINE
8
0
6
CONTINUOUS
10
-35.499995
20
-129.420570
30
0.0
11
-35.499995
21
-128.732090
31
0.0
0
LINE
8
0
6
CONTINUOUS
10
-42.709295
20
-126.061560
30
0.0
11
-42.709295
21
-126.805080
31
0.0
0
LINE
8
0
6
CONTINUOUS
10
-35.499995
20
-128.732090
30
0.0
11
-35.499995
21
-127.988590
31
0.0
0
LINE
8
0
6
CONTINUOUS
10
-42.909822
20
-98.856356
30
0.0
11
-42.983285
21
-98.283120
31
0.0
0
LINE
8
0
6
CONTINUOUS
10
-23.013095
20
-120.796860
30
0.0
11
-23.013095
21
-121.540360
31
0.0
0
LINE
8
0
6
CONTINUOUS
10
-28.290685
20
-126.805080
30
0.0
11
-28.290685
21
-127.493560
31
0.0
0
LINE
8
0
6
CONTINUOUS
10
-23.013095
20
-122.228840
30
0.0
11
-23.013095
21
-121.540360
31
0.0
0
LINE
8
0
6
CONTINUOUS
10
-21.550485
20
-89.672280
30
0.0
11
-21.500045
21
50.146160
31
0.0
0
LINE
8
0
6
CONTINUOUS
10
-23.417075
20
-89.182880
30
0.0
11
-23.375675
21
50.842270
31
0.0
0
LINE
8
0
6
CONTINUOUS
10
-28.500025
20
51.351870
30
0.0
11
-28.540915
21
-88.825970
31
0.0
0
LINE
8
0
6
CONTINUOUS
10
-35.499955
20
-88.691810
30
0.0
11
-35.500015
21
51.538400
31
0.0
0
LINE
8
0
6
CONTINUOUS
10
-49.500025
20
50.146210
30
0.0
11
-49.449425
21
-89.672280
31
0.0
0
LINE
8
0
6
CONTINUOUS
10
-42.458995
20
-88.825970
30
0.0
11
-42.500025
21
51.351870
31
0.0
0
LINE
8
0
6
CONTINUOUS
10
-47.624385
20
50.842280
30
0.0
11
-47.582845
21
-89.182880
31
0.0
0
LINE
8
0
6
CONTINUOUS
10
-66.409635
20
109.282210
30
0.0
11
-67.500015
21
101.000000
31
0.0
0
LINE
8
0
6
CONTINUOUS
10
-63.212825
20
117.000000
30
0.0
11
-66.409635
21
109.282210
31
0.0
0
LINE
8
0
6
CONTINUOUS
10
-58.127425
20
123.627420
30
0.0
11
-63.212825
21
117.000000
31
0.0
0
LINE
8
0
6
CONTINUOUS
10
-51.500005
20
128.712810
30
0.0
11
-58.127425
21
123.627420
31
0.0
0
LINE
8
0
6
CONTINUOUS
10
-43.782225
20
131.909620
30
0.0
11
-51.500005
21
128.712810
31
0.0
0
LINE
8
0
6
CONTINUOUS
10
-35.500015
20
133.000000
30
0.0
11
-43.782225
21
131.909620
31
0.0
0
LINE
8
0
6
CONTINUOUS
10
-27.217805
20
131.909620
30
0.0
11
-35.500015
21
133.000000
31
0.0
0
LINE
8
0
6
CONTINUOUS
10
-20.254626
20
129.025380
30
0.0
11
-27.217805
21
131.909620
31
0.0
0
LINE
8
0
6
CONTINUOUS
10
-7.787205
20
85.000010
30
0.0
11
-7.111182
21
86.632070
31
0.0
0
LINE
8
0
6
CONTINUOUS
10
-12.872585
20
78.372590
30
0.0
11
-7.787205
21
85.000010
31
0.0
0
LINE
8
0
6
CONTINUOUS
10
-19.500005
20
73.287190
30
0.0
11
-12.872585
21
78.372590
31
0.0
0
LINE
8
0
6
CONTINUOUS
10
-21.500025
20
72.458755
30
0.0
11
-19.500005
21
73.287190
31
0.0
0
LINE
8
0
6
CONTINUOUS
10
-51.500005
20
73.287180
30
0.0
11
-49.500015
21
72.458758
31
0.0
0
LINE
8
0
6
CONTINUOUS
10
-58.127425
20
78.372570
30
0.0
11
-51.500005
21
73.287180
31
0.0
0
LINE
8
0
6
CONTINUOUS
10
-63.212825
20
84.999980
30
0.0
11
-58.127425
21
78.372570
31
0.0
0
LINE
8
0
6
CONTINUOUS
10
-66.409635
20
92.717770
30
0.0
11
-63.212825
21
84.999980
31
0.0
0
LINE
8
0
6
CONTINUOUS
10
-67.500015
20
101.000000
30
0.0
11
-66.409635
21
92.717770
31
0.0
0
LINE
8
0
6
CONTINUOUS
10
-49.500015
20
91.029360
30
0.0
11
-49.500015
21
86.501150
31
0.0
0
LINE
8
0
6
CONTINUOUS
10
-49.500015
20
110.715290
30
0.0
11
-49.500015
21
104.006990
31
0.0
0
LINE
8
0
6
CONTINUOUS
10
-49.330835
20
88.700800
30
0.0
11
-49.500015
21
86.501150
31
0.0
0
LINE
8
0
6
CONTINUOUS
10
-31.876545
20
125.924080
30
0.0
11
-28.500015
21
124.351110
31
0.0
0
LINE
8
0
6
CONTINUOUS
10
-35.500015
20
126.460580
30
0.0
11
-31.876545
21
125.924080
31
0.0
0
LINE
8
0
6
CONTINUOUS
10
-31.876545
20
128.781960
30
0.0
11
-35.500015
21
129.318470
31
0.0
0
LINE
8
0
6
CONTINUOUS
10
-39.123475
20
125.924080
30
0.0
11
-35.500015
21
126.460580
31
0.0
0
LINE
8
0
6
CONTINUOUS
10
-35.500015
20
129.318470
30
0.0
11
-39.123475
21
128.781960
31
0.0
0
LINE
8
0
6
CONTINUOUS
10
-42.500015
20
124.351110
30
0.0
11
-39.123475
21
125.924080
31
0.0
0
LINE
8
0
6
CONTINUOUS
10
-39.123475
20
128.781960
30
0.0
11
-42.500015
21
127.208990
31
0.0
0
LINE
8
0
6
CONTINUOUS
10
-42.500015
20
127.208990
30
0.0
11
-45.399505
21
124.706770
31
0.0
0
LINE
8
0
6
CONTINUOUS
10
-45.399505
20
124.706770
30
0.0
11
-47.624365
21
121.445820
31
0.0
0
LINE
8
0
6
CONTINUOUS
10
-47.624365
20
121.445820
30
0.0
11
-49.022975
21
117.648350
31
0.0
0
LINE
8
0
6
CONTINUOUS
10
-49.500015
20
112.736090
30
0.0
11
-49.500015
21
110.715290
31
0.0
0
LINE
8
0
6
CONTINUOUS
10
-49.500015
20
113.573170
30
0.0
11
-49.500015
21
112.736090
31
0.0
0
LINE
8
0
6
CONTINUOUS
10
-49.022975
20
117.648350
30
0.0
11
-49.500015
21
113.573170
31
0.0
0
LINE
8
0
6
CONTINUOUS
10
-21.500015
20
86.632070
30
0.0
11
-21.500015
21
91.029360
31
0.0
0
LINE
8
0
6
CONTINUOUS
10
-49.500015
20
96.878240
30
0.0
11
-49.500015
21
91.029360
31
0.0
0
LINE
8
0
6
CONTINUOUS
10
-49.500015
20
104.006990
30
0.0
11
-49.500015
21
96.878240
31
0.0
0
LINE
8
0
6
CONTINUOUS
10
-21.500015
20
91.029360
30
0.0
11
-21.500015
21
96.878250
31
0.0
0
LINE
8
0
6
CONTINUOUS
10
-21.500015
20
96.878250
30
0.0
11
-21.500015
21
101.778288
31
0.0
0
LINE
8
0
6
CONTINUOUS
10
-21.510084
20
86.632070
30
0.0
11
-21.669195
21
88.700800
31
0.0
0
LINE
8
0
6
CONTINUOUS
10
-47.624365
20
93.501150
30
0.0
11
-49.022975
21
90.124620
31
0.0
0
LINE
8
0
6
CONTINUOUS
10
-45.399505
20
96.400650
30
0.0
11
-47.624365
21
93.501150
31
0.0
0
LINE
8
0
6
CONTINUOUS
10
-42.500015
20
98.625510
30
0.0
11
-45.399505
21
96.400650
31
0.0
0
LINE
8
0
6
CONTINUOUS
10
-39.123485
20
100.024110
30
0.0
11
-42.500015
21
98.625510
31
0.0
0
LINE
8
0
6
CONTINUOUS
10
-35.500015
20
100.501150
30
0.0
11
-39.123485
21
100.024110
31
0.0
0
LINE
8
0
6
CONTINUOUS
10
-31.876545
20
100.024110
30
0.0
11
-35.500005
21
100.501149
31
0.0
0
LINE
8
0
6
CONTINUOUS
10
-28.500015
20
98.625510
30
0.0
11
-31.876545
21
100.024110
31
0.0
0
LINE
8
0
6
CONTINUOUS
10
-25.600525
20
96.400650
30
0.0
11
-28.500006
21
98.625503
31
0.0
0
LINE
8
0
6
CONTINUOUS
10
-23.375665
20
93.501160
30
0.0
11
-25.600525
21
96.400650
31
0.0
0
LINE
8
0
6
CONTINUOUS
10
-21.977055
20
90.124620
30
0.0
11
-23.375665
21
93.501160
31
0.0
0
LINE
8
0
6
CONTINUOUS
10
-49.022975
20
90.124620
30
0.0
11
-49.500012
21
86.501170
31
0.0
0
LINE
8
0
6
CONTINUOUS
10
-21.517250
20
86.632070
30
0.0
11
-21.977055
21
90.124620
31
0.0
0
LINE
8
0
6
CONTINUOUS
10
-21.535100
20
86.632070
30
0.0
11
9.258225
21
86.632070
31
0.0
0
LINE
8
0
6
CONTINUOUS
10
9.258215
20
129.025360
30
0.0
11
-33.520608
21
129.025389
31
0.0
0
LINE
8
0
6
CONTINUOUS
10
9.758215
20
129.025360
30
0.0
11
9.258215
21
129.025360
31
0.0
0
LINE
8
0
6
CONTINUOUS
10
9.758215
20
127.987930
30
0.0
11
9.758215
21
129.025360
31
0.0
0
LINE
8
0
6
CONTINUOUS
10
9.758215
20
127.987930
30
0.0
11
9.758215
21
124.977160
31
0.0
0
LINE
8
0
6
CONTINUOUS
10
9.758215
20
124.977160
30
0.0
11
9.758215
21
120.287790
31
0.0
0
LINE
8
0
6
CONTINUOUS
10
9.758215
20
120.287790
30
0.0
11
9.758215
21
114.378830
31
0.0
0
LINE
8
0
6
CONTINUOUS
10
9.758215
20
114.378830
30
0.0
11
9.758225
21
107.828700
31
0.0
0
LINE
8
0
6
CONTINUOUS
10
9.758225
20
101.278570
30
0.0
11
9.758225
21
107.828700
31
0.0
0
LINE
8
0
6
CONTINUOUS
10
9.758225
20
95.369620
30
0.0
11
9.758225
21
101.278570
31
0.0
0
LINE
8
0
6
CONTINUOUS
10
9.758235
20
90.680250
30
0.0
11
9.758225
21
95.369620
31
0.0
0
LINE
8
0
6
CONTINUOUS
10
9.758225
20
87.669490
30
0.0
11
9.758235
21
90.680250
31
0.0
0
LINE
8
0
6
CONTINUOUS
10
9.758225
20
86.632060
30
0.0
11
9.758225
21
87.669490
31
0.0
0
LINE
8
0
6
CONTINUOUS
10
9.258225
20
86.632070
30
0.0
11
9.758225
21
86.632060
31
0.0
0
LINE
8
0
6
CONTINUOUS
10
12.323775
20
127.639280
30
0.0
11
8.457385
21
127.639280
31
0.0
0
LINE
8
0
6
CONTINUOUS
10
9.758226
20
88.018190
30
0.0
11
12.323775
21
88.018190
31
0.0
0
LINE
8
0
6
CONTINUOUS
10
46.778805
20
128.966780
30
0.0
11
44.249905
21
128.966780
31
0.0
0
LINE
8
0
6
CONTINUOUS
10
40.679815
20
128.966780
30
0.0
11
40.145605
21
128.966780
31
0.0
0
LINE
8
0
6
CONTINUOUS
10
40.145605
20
86.690680
30
0.0
11
40.679805
21
86.690680
31
0.0
0
LINE
8
0
6
CONTINUOUS
10
12.323785
20
94.129900
30
0.0
11
12.323775
21
89.801930
31
0.0
0
LINE
8
0
6
CONTINUOUS
10
12.323775
20
89.801930
30
0.0
11
12.323775
21
87.238550
31
0.0
0
LINE
8
0
6
CONTINUOUS
10
12.323775
20
86.690680
30
0.0
11
12.823775
21
86.690680
31
0.0
0
LINE
8
0
6
CONTINUOUS
10
12.323775
20
87.238550
30
0.0
11
12.323775
21
86.690680
31
0.0
0
LINE
8
0
6
CONTINUOUS
10
12.823775
20
128.966800
30
0.0
11
12.323775
21
128.966800
31
0.0
0
LINE
8
0
6
CONTINUOUS
10
12.323775
20
128.966800
30
0.0
11
12.323775
21
127.445520
31
0.0
0
LINE
8
0
6
CONTINUOUS
10
12.323775
20
127.445520
30
0.0
11
12.323775
21
124.004010
31
0.0
0
LINE
8
0
6
CONTINUOUS
10
12.323775
20
124.004010
30
0.0
11
12.323775
21
118.979150
31
0.0
0
LINE
8
0
6
CONTINUOUS
10
12.323775
20
118.979150
30
0.0
11
12.323785
21
112.862820
31
0.0
0
LINE
8
0
6
CONTINUOUS
10
12.323785
20
112.862820
30
0.0
11
12.323785
21
106.253720
31
0.0
0
LINE
8
0
6
CONTINUOUS
10
12.323785
20
106.253720
30
0.0
11
12.323785
21
99.798780
31
0.0
0
LINE
8
0
6
CONTINUOUS
10
12.323785
20
99.798780
30
0.0
11
12.323785
21
94.129900
31
0.0
0
LINE
8
0
6
CONTINUOUS
10
67.500005
20
3.670060
30
0.0
11
67.500005
21
5.945560
31
0.0
0
LINE
8
0
6
CONTINUOUS
10
67.500005
20
5.945560
30
0.0
11
67.500005
21
8.196400
31
0.0
0
LINE
8
0
6
CONTINUOUS
10
47.278815
20
44.742330
30
0.0
11
47.278815
21
45.843780
31
0.0
0
LINE
8
0
6
CONTINUOUS
10
41.180545
20
112.527640
30
0.0
11
41.179815
21
111.500550
31
0.0
0
LINE
8
0
6
CONTINUOUS
10
40.679805
20
86.690680
30
0.0
11
41.179805
21
86.690680
31
0.0
0
LINE
8
0
6
CONTINUOUS
10
41.721005
20
128.966780
30
0.0
11
41.200405
21
128.966780
31
0.0
0
LINE
8
0
6
CONTINUOUS
10
41.200405
20
128.966780
30
0.0
11
40.679815
21
128.966780
31
0.0
0
LINE
8
0
6
CONTINUOUS
10
47.278815
20
128.966780
30
0.0
11
46.778805
21
128.966780
31
0.0
0
LINE
8
0
6
CONTINUOUS
10
47.278815
20
127.445520
30
0.0
11
47.278815
21
128.966780
31
0.0
0
LINE
8
0
6
CONTINUOUS
10
47.278815
20
124.004000
30
0.0
11
47.278815
21
127.445520
31
0.0
0
LINE
8
0
6
CONTINUOUS
10
47.278815
20
118.979150
30
0.0
11
47.278815
21
124.004000
31
0.0
0
LINE
8
0
6
CONTINUOUS
10
47.278815
20
112.862810
30
0.0
11
47.278815
21
118.979150
31
0.0
0
LINE
8
0
6
CONTINUOUS
10
41.179815
20
3.295850
30
0.0
11
41.550795
21
2.349760
31
0.0
0
LINE
8
0
6
CONTINUOUS
10
41.179815
20
3.677390
30
0.0
11
41.179815
21
3.295850
31
0.0
0
LINE
8
0
6
CONTINUOUS
10
41.550795
20
7.649190
30
0.0
11
42.304465
21
6.840530
31
0.0
0
LINE
8
0
6
CONTINUOUS
10
42.304465
20
1.541110
30
0.0
11
43.527005
21
1.047090
31
0.0
0
LINE
8
0
6
CONTINUOUS
10
43.527005
20
6.346520
30
0.0
11
45.019605
21
6.113710
31
0.0
0
LINE
8
0
6
CONTINUOUS
10
63.660215
20
0.814290
30
0.0
11
65.090285
21
1.086550
31
0.0
0
LINE
8
0
6
CONTINUOUS
10
65.090475
20
6.385380
30
0.0
11
66.375365
21
6.840530
31
0.0
0
LINE
8
0
6
CONTINUOUS
10
66.375365
20
1.541110
30
0.0
11
67.110125
21
2.342310
31
0.0
0
LINE
8
0
6
CONTINUOUS
10
67.500005
20
8.196400
30
0.0
11
67.500005
21
8.595270
31
0.0
0
LINE
8
0
6
CONTINUOUS
10
67.103635
20
7.644600
30
0.0
11
67.500005
21
8.595270
31
0.0
0
LINE
8
0
6
CONTINUOUS
10
41.179815
20
21.033690
30
0.0
11
41.179815
21
8.595270
31
0.0
0
LINE
8
0
6
CONTINUOUS
10
45.019605
20
0.814290
30
0.0
11
63.660215
21
0.814290
31
0.0
0
LINE
8
0
6
CONTINUOUS
10
45.019605
20
6.113710
30
0.0
11
63.660215
21
6.113720
31
0.0
0
LINE
8
0
6
CONTINUOUS
10
62.431045
20
26.090630
30
0.0
11
58.396255
21
29.110740
31
0.0
0
LINE
8
0
6
CONTINUOUS
10
58.396255
20
29.110740
30
0.0
11
54.442515
21
32.911780
31
0.0
0
LINE
8
0
6
CONTINUOUS
10
54.442515
20
32.911780
30
0.0
11
51.171715
21
36.915070
31
0.0
0
LINE
8
0
6
CONTINUOUS
10
51.171715
20
36.915070
30
0.0
11
49.081835
21
40.511170
31
0.0
0
LINE
8
0
6
CONTINUOUS
10
65.362545
20
24.189800
30
0.0
11
62.431045
21
26.090630
31
0.0
0
LINE
8
0
6
CONTINUOUS
10
66.871145
20
22.727330
30
0.0
11
65.362545
21
24.189800
31
0.0
0
LINE
8
0
6
CONTINUOUS
10
67.500015
20
21.033680
30
0.0
11
66.871145
21
22.727330
31
0.0
0
LINE
8
0
6
CONTINUOUS
10
67.500005
20
8.595270
30
0.0
11
67.500015
21
21.033680
31
0.0
0
LINE
8
0
6
CONTINUOUS
10
41.179815
20
111.500550
30
0.0
11
41.179815
21
78.784650
31
0.0
0
LINE
8
0
6
CONTINUOUS
10
41.179815
20
40.686400
30
0.0
11
41.179815
21
36.989470
31
0.0
0
LINE
8
0
6
CONTINUOUS
10
47.278825
20
78.784650
30
0.0
11
47.278815
21
112.862810
31
0.0
0
LINE
8
0
6
CONTINUOUS
10
41.179815
20
24.229860
30
0.0
11
41.179815
21
21.033690
31
0.0
0
LINE
8
0
6
CONTINUOUS
10
41.179815
20
27.419760
30
0.0
11
41.179815
21
24.229860
31
0.0
0
LINE
8
0
6
CONTINUOUS
10
41.179815
20
78.784650
30
0.0
11
41.179815
21
45.808980
31
0.0
0
LINE
8
0
6
CONTINUOUS
10
41.179815
20
36.989470
30
0.0
11
41.179815
21
33.799560
31
0.0
0
LINE
8
0
6
CONTINUOUS
10
41.179815
20
33.799560
30
0.0
11
41.179815
21
30.609660
31
0.0
0
LINE
8
0
6
CONTINUOUS
10
41.179815
20
30.609660
30
0.0
11
41.179815
21
27.419760
31
0.0
0
LINE
8
0
6
CONTINUOUS
10
66.375365
20
6.840530
30
0.0
11
66.375355
21
6.441660
31
0.0
0
LINE
8
0
6
CONTINUOUS
10
67.103635
20
7.644600
30
0.0
11
66.375365
21
6.840530
31
0.0
0
LINE
8
0
6
CONTINUOUS
10
67.500005
20
3.295850
30
0.0
11
67.500005
21
3.670060
31
0.0
0
LINE
8
0
6
CONTINUOUS
10
67.110125
20
2.342310
30
0.0
11
67.500005
21
3.295850
31
0.0
0
LINE
8
0
6
CONTINUOUS
10
66.375355
20
6.441660
30
0.0
11
66.375355
21
4.190820
31
0.0
0
LINE
8
0
6
CONTINUOUS
10
66.375355
20
4.190820
30
0.0
11
66.375355
21
1.915320
31
0.0
0
LINE
8
0
6
CONTINUOUS
10
65.090475
20
6.385380
30
0.0
11
63.660215
21
6.113720
31
0.0
0
LINE
8
0
6
CONTINUOUS
10
66.375365
20
1.541110
30
0.0
11
66.375355
21
1.915320
31
0.0
0
LINE
8
0
6
CONTINUOUS
10
65.090285
20
1.086550
30
0.0
11
66.375365
21
1.541110
31
0.0
0
LINE
8
0
6
CONTINUOUS
10
42.304465
20
6.840530
30
0.0
11
42.304465
21
6.441660
31
0.0
0
LINE
8
0
6
CONTINUOUS
10
43.527005
20
6.346520
30
0.0
11
42.304465
21
6.840530
31
0.0
0
LINE
8
0
6
CONTINUOUS
10
43.527005
20
1.047090
30
0.0
11
45.019605
21
0.814290
31
0.0
0
LINE
8
0
6
CONTINUOUS
10
42.304465
20
4.190820
30
0.0
11
42.304465
21
1.918990
31
0.0
0
LINE
8
0
6
CONTINUOUS
10
42.304465
20
6.441660
30
0.0
11
42.304465
21
4.190820
31
0.0
0
LINE
8
0
6
CONTINUOUS
10
41.179815
20
8.595270
30
0.0
11
41.179815
21
8.196400
31
0.0
0
LINE
8
0
6
CONTINUOUS
10
41.550795
20
7.649190
30
0.0
11
41.179815
21
8.595270
31
0.0
0
LINE
8
0
6
CONTINUOUS
10
42.304465
20
1.541110
30
0.0
11
42.304465
21
1.918990
31
0.0
0
LINE
8
0
6
CONTINUOUS
10
41.550795
20
2.349760
30
0.0
11
42.304465
21
1.541110
31
0.0
0
LINE
8
0
6
CONTINUOUS
10
41.179815
20
5.945560
30
0.0
11
41.179815
21
3.677390
31
0.0
0
LINE
8
0
6
CONTINUOUS
10
41.179815
20
8.196400
30
0.0
11
41.179815
21
5.945560
31
0.0
0
LINE
8
0
6
CONTINUOUS
10
44.250445
20
44.706480
30
0.0
11
41.721005
21
44.706480
31
0.0
0
LINE
8
0
6
CONTINUOUS
10
47.278815
20
45.843780
30
0.0
11
47.278825
21
78.784650
31
0.0
0
LINE
8
0
6
CONTINUOUS
10
41.179815
20
44.706480
30
0.0
11
41.179815
21
43.909010
31
0.0
0
LINE
8
0
6
CONTINUOUS
10
41.179815
20
45.808980
30
0.0
11
41.179815
21
44.706480
31
0.0
0
LINE
8
0
6
CONTINUOUS
10
41.179815
20
44.706480
30
0.0
11
41.721005
21
44.706480
31
0.0
0
LINE
8
0
6
CONTINUOUS
10
44.250445
20
44.706480
30
0.0
11
46.779875
21
44.706480
31
0.0
0
LINE
8
0
6
CONTINUOUS
10
47.278815
20
44.742330
30
0.0
11
46.779875
21
44.706480
31
0.0
0
LINE
8
0
6
CONTINUOUS
10
47.628925
20
43.920710
30
0.0
11
47.278815
21
44.742330
31
0.0
0
LINE
8
0
6
CONTINUOUS
10
49.081835
20
40.511170
30
0.0
11
47.628925
21
43.920710
31
0.0
0
LINE
8
0
6
CONTINUOUS
10
41.179815
20
43.909010
30
0.0
11
41.179815
21
40.686400
31
0.0
0
LINE
8
0
6
CONTINUOUS
10
44.249905
20
128.966780
30
0.0
11
41.721005
21
128.966780
31
0.0
0
LINE
8
0
6
CONTINUOUS
10
12.823775
20
86.690680
30
0.0
11
40.145605
21
86.690680
31
0.0
0
LINE
8
0
6
CONTINUOUS
10
40.145605
20
128.966780
30
0.0
11
12.823775
21
128.966800
31
0.0
0
LINE
8
0
6
CONTINUOUS
10
-21.500015
20
101.778288
30
0.0
11
-21.977055
21
105.217917
31
0.0
0
LINE
8
0
6
CONTINUOUS
10
-28.549355
20
126.394925
30
0.0
11
-28.877840
21
124.977170
31
0.0
0
LINE
8
0
6
CONTINUOUS
10
-28.301690
20
124.179958
30
0.0
11
-28.500015
21
124.572982
31
0.0
0
LINE
8
0
6
CONTINUOUS
10
-21.977055
20
105.217917
30
0.0
11
-23.116282
21
107.828707
31
0.0
0
LINE
8
0
6
CONTINUOUS
10
-23.375665
20
108.692595
30
0.0
11
-25.600525
21
112.692642
31
0.0
0
LINE
8
0
6
CONTINUOUS
10
-23.116282
20
107.828707
30
0.0
11
-23.375665
21
108.692595
31
0.0
0
LINE
8
0
6
CONTINUOUS
10
-25.600525
20
112.692642
30
0.0
11
-27.193406
21
114.378830
31
0.0
0
LINE
8
0
6
CONTINUOUS
10
-27.193406
20
114.378830
30
0.0
11
-28.500015
21
117.158982
31
0.0
0
ENDSEC
0
EOF
