999
Erzeugt mit innoplus bad 
0
SECTION
2
HEADER
9
$ACADVER
1
AC1009
9
$DWGCODEPAGE
3
ISO8859-1
0
ENDSEC
0
SECTION
2
TABLES
0
TABLE
2
LAYER
70
1
0
LAYER
2
0
70
0
62
7
6
CONTINUOUS
0
ENDTAB
0
ENDSEC
0
SECTION
2
ENTITIES
0
LINE
8
0
6
CONTINUOUS
10
100.501170
20
-26.639135
30
0.0
11
100.501160
21
72.256815
31
0.0
0
LINE
8
0
6
CONTINUOUS
10
98.625500
20
-26.639155
30
0.0
11
98.625500
21
72.256815
31
0.0
0
LINE
8
0
6
CONTINUOUS
10
72.501120
20
72.256795
30
0.0
11
72.501180
21
-26.639195
31
0.0
0
LINE
8
0
6
CONTINUOUS
10
93.501110
20
-26.639175
30
0.0
11
93.501130
21
72.256815
31
0.0
0
LINE
8
0
6
CONTINUOUS
10
72.501150
20
-27.397075
30
0.0
11
72.501150
21
-28.696535
31
0.0
0
LINE
8
0
6
CONTINUOUS
10
93.501130
20
-28.696495
30
0.0
11
98.625540
21
-28.696515
31
0.0
0
LINE
8
0
6
CONTINUOUS
10
100.501160
20
-28.696485
30
0.0
11
100.501160
21
-27.397075
31
0.0
0
LINE
8
0
6
CONTINUOUS
10
98.625540
20
-28.696515
30
0.0
11
100.501160
21
-28.696485
31
0.0
0
LINE
8
0
6
CONTINUOUS
10
98.625500
20
-27.397075
30
0.0
11
98.625540
21
-28.696515
31
0.0
0
LINE
8
0
6
CONTINUOUS
10
79.501130
20
-28.696535
30
0.0
11
86.501110
21
-28.696515
31
0.0
0
LINE
8
0
6
CONTINUOUS
10
79.501130
20
-28.696535
30
0.0
11
79.501130
21
-27.397085
31
0.0
0
LINE
8
0
6
CONTINUOUS
10
74.376770
20
-27.397075
30
0.0
11
74.376770
21
-28.696535
31
0.0
0
LINE
8
0
6
CONTINUOUS
10
93.501130
20
-28.696495
30
0.0
11
93.501110
21
-27.397075
31
0.0
0
LINE
8
0
6
CONTINUOUS
10
86.501110
20
-28.696515
30
0.0
11
93.501130
21
-28.696495
31
0.0
0
LINE
8
0
6
CONTINUOUS
10
86.501130
20
-27.397075
30
0.0
11
86.501110
21
-28.696515
31
0.0
0
LINE
8
0
6
CONTINUOUS
10
86.501110
20
-26.975365
30
0.0
11
93.501110
21
-26.975385
31
0.0
0
LINE
8
0
6
CONTINUOUS
10
86.501110
20
-26.975365
30
0.0
11
86.501110
21
-26.639165
31
0.0
0
LINE
8
0
6
CONTINUOUS
10
79.501130
20
-26.975385
30
0.0
11
86.501110
21
-26.975365
31
0.0
0
LINE
8
0
6
CONTINUOUS
10
79.501130
20
-26.975385
30
0.0
11
79.501110
21
-26.639175
31
0.0
0
LINE
8
0
6
CONTINUOUS
10
74.376790
20
-26.975385
30
0.0
11
79.501130
21
-26.975385
31
0.0
0
LINE
8
0
6
CONTINUOUS
10
93.501110
20
-26.639175
30
0.0
11
93.501110
21
-26.975385
31
0.0
0
LINE
8
0
6
CONTINUOUS
10
93.501110
20
-26.975385
30
0.0
11
98.625520
21
-26.975385
31
0.0
0
LINE
8
0
6
CONTINUOUS
10
98.625500
20
-26.639155
30
0.0
11
98.625520
21
-26.975385
31
0.0
0
LINE
8
0
6
CONTINUOUS
10
100.501160
20
-26.975365
30
0.0
11
100.501170
21
-26.639135
31
0.0
0
LINE
8
0
6
CONTINUOUS
10
98.625520
20
-26.975385
30
0.0
11
100.501160
21
-26.975365
31
0.0
0
LINE
8
0
6
CONTINUOUS
10
72.501180
20
-26.639195
30
0.0
11
72.501140
21
-26.975365
31
0.0
0
LINE
8
0
6
CONTINUOUS
10
74.376790
20
-26.975385
30
0.0
11
74.376750
21
-26.639175
31
0.0
0
LINE
8
0
6
CONTINUOUS
10
72.501140
20
-26.975365
30
0.0
11
74.376790
21
-26.975385
31
0.0
0
LINE
8
0
6
CONTINUOUS
10
79.669670
20
-27.060875
30
0.0
11
86.501160
21
-27.060875
31
0.0
0
LINE
8
0
6
CONTINUOUS
10
79.501100
20
-27.060865
30
0.0
11
79.669670
21
-27.060875
31
0.0
0
LINE
8
0
6
CONTINUOUS
10
86.501160
20
-27.060875
30
0.0
11
79.501100
21
-27.060865
31
0.0
0
LINE
8
0
6
CONTINUOUS
10
86.501130
20
-27.060885
30
0.0
11
93.501130
21
-27.060865
31
0.0
0
LINE
8
0
6
CONTINUOUS
10
86.501130
20
-27.397075
30
0.0
11
86.501130
21
-27.060885
31
0.0
0
LINE
8
0
6
CONTINUOUS
10
86.501130
20
-27.060885
30
0.0
11
79.669660
21
-27.060875
31
0.0
0
LINE
8
0
6
CONTINUOUS
10
79.501110
20
-27.060895
30
0.0
11
86.501130
21
-27.060885
31
0.0
0
LINE
8
0
6
CONTINUOUS
10
79.501130
20
-27.397085
30
0.0
11
79.501110
21
-27.060895
31
0.0
0
LINE
8
0
6
CONTINUOUS
10
79.669660
20
-27.060875
30
0.0
11
74.668720
21
-27.060875
31
0.0
0
LINE
8
0
6
CONTINUOUS
10
74.376770
20
-27.060895
30
0.0
11
79.501110
21
-27.060895
31
0.0
0
LINE
8
0
6
CONTINUOUS
10
93.501130
20
-27.060865
30
0.0
11
93.501110
21
-27.397075
31
0.0
0
LINE
8
0
6
CONTINUOUS
10
98.333570
20
-27.060865
30
0.0
11
93.332630
21
-27.060855
31
0.0
0
LINE
8
0
6
CONTINUOUS
10
93.501130
20
-27.060865
30
0.0
11
98.625520
21
-27.060885
31
0.0
0
LINE
8
0
6
CONTINUOUS
10
98.625520
20
-27.060885
30
0.0
11
98.625500
21
-27.397075
31
0.0
0
LINE
8
0
6
CONTINUOUS
10
100.501160
20
-27.060875
30
0.0
11
98.625520
21
-27.060885
31
0.0
0
LINE
8
0
6
CONTINUOUS
10
100.501160
20
-27.397075
30
0.0
11
100.501160
21
-27.060875
31
0.0
0
LINE
8
0
6
CONTINUOUS
10
72.501120
20
-27.060885
30
0.0
11
72.501150
21
-27.397075
31
0.0
0
LINE
8
0
6
CONTINUOUS
10
74.376770
20
-27.397075
30
0.0
11
74.376770
21
-27.060895
31
0.0
0
LINE
8
0
6
CONTINUOUS
10
72.838210
20
-27.060875
30
0.0
11
72.501120
21
-27.060885
31
0.0
0
LINE
8
0
6
CONTINUOUS
10
74.668720
20
-27.060875
30
0.0
11
72.838210
21
-27.060875
31
0.0
0
LINE
8
0
6
CONTINUOUS
10
72.501120
20
-27.060885
30
0.0
11
74.376770
21
-27.060895
31
0.0
0
LINE
8
0
6
CONTINUOUS
10
74.376770
20
72.256775
30
0.0
11
74.376750
21
-26.639175
31
0.0
0
LINE
8
0
6
CONTINUOUS
10
86.501110
20
-26.639165
30
0.0
11
86.501150
21
72.256835
31
0.0
0
LINE
8
0
6
CONTINUOUS
10
79.501130
20
72.256795
30
0.0
11
79.501110
21
-26.639175
31
0.0
0
LINE
8
0
6
CONTINUOUS
10
71.981030
20
79.039845
30
0.0
11
72.501120
21
72.256795
31
0.0
0
LINE
8
0
6
CONTINUOUS
10
73.800580
20
79.495145
30
0.0
11
74.376770
21
72.256775
31
0.0
0
LINE
8
0
6
CONTINUOUS
10
78.771670
20
80.739095
30
0.0
11
79.501130
21
72.256795
31
0.0
0
LINE
8
0
6
CONTINUOUS
10
85.562300
20
82.438355
30
0.0
11
86.501150
21
72.256835
31
0.0
0
LINE
8
0
6
CONTINUOUS
10
92.352910
20
84.137595
30
0.0
11
93.501130
21
72.256815
31
0.0
0
LINE
8
0
6
CONTINUOUS
10
97.324010
20
85.381505
30
0.0
11
98.625500
21
72.256815
31
0.0
0
LINE
8
0
6
CONTINUOUS
10
100.501160
20
72.256815
30
0.0
11
99.143560
21
85.836825
31
0.0
0
LINE
8
0
6
CONTINUOUS
10
69.829920
20
85.493755
30
0.0
11
71.981030
21
79.039845
31
0.0
0
LINE
8
0
6
CONTINUOUS
10
71.484530
20
86.377145
30
0.0
11
73.800580
21
79.495145
31
0.0
0
LINE
8
0
6
CONTINUOUS
10
76.004960
20
88.790585
30
0.0
11
78.771670
21
80.739095
31
0.0
0
LINE
8
0
6
CONTINUOUS
10
82.179980
20
92.087475
30
0.0
11
85.562300
21
82.438355
31
0.0
0
LINE
8
0
6
CONTINUOUS
10
88.355000
20
95.384295
30
0.0
11
92.352910
21
84.137595
31
0.0
0
LINE
8
0
6
CONTINUOUS
10
92.875450
20
97.797715
30
0.0
11
97.324010
21
85.381505
31
0.0
0
LINE
8
0
6
CONTINUOUS
10
99.143560
20
85.836825
30
0.0
11
94.530050
21
98.681105
31
0.0
0
LINE
8
0
6
CONTINUOUS
10
66.176480
20
91.232435
30
0.0
11
69.829920
21
85.493755
31
0.0
0
LINE
8
0
6
CONTINUOUS
10
67.567150
20
92.491055
30
0.0
11
71.484530
21
86.377145
31
0.0
0
LINE
8
0
6
CONTINUOUS
10
71.366510
20
95.929645
30
0.0
11
76.004960
21
88.790585
31
0.0
0
LINE
8
0
6
CONTINUOUS
10
76.556530
20
100.626885
30
0.0
11
82.179980
21
92.087475
31
0.0
0
LINE
8
0
6
CONTINUOUS
10
81.746550
20
105.324055
30
0.0
11
88.355000
21
95.384295
31
0.0
0
LINE
8
0
6
CONTINUOUS
10
85.545930
20
108.762645
30
0.0
11
92.875450
21
97.797715
31
0.0
0
LINE
8
0
6
CONTINUOUS
10
94.530050
20
98.681105
30
0.0
11
86.936600
21
110.021265
31
0.0
0
LINE
8
0
6
CONTINUOUS
10
61.239260
20
95.912605
30
0.0
11
66.176480
21
91.232435
31
0.0
0
LINE
8
0
6
CONTINUOUS
10
62.282800
20
97.471165
30
0.0
11
67.567150
21
92.491055
31
0.0
0
LINE
8
0
6
CONTINUOUS
10
65.133810
20
101.729205
30
0.0
11
71.366510
21
95.929645
31
0.0
0
LINE
8
0
6
CONTINUOUS
10
69.028340
20
107.545815
30
0.0
11
76.556530
21
100.626885
31
0.0
0
LINE
8
0
6
CONTINUOUS
10
72.922890
20
113.362365
30
0.0
11
81.746550
21
105.324055
31
0.0
0
LINE
8
0
6
CONTINUOUS
10
75.773920
20
117.620395
30
0.0
11
85.545930
21
108.762645
31
0.0
0
LINE
8
0
6
CONTINUOUS
10
86.936600
20
110.021265
30
0.0
11
76.817470
21
119.178945
31
0.0
0
LINE
8
0
6
CONTINUOUS
10
55.313600
20
99.254305
30
0.0
11
61.239260
21
95.912605
31
0.0
0
LINE
8
0
6
CONTINUOUS
10
55.947600
20
101.019555
30
0.0
11
62.282800
21
97.471165
31
0.0
0
LINE
8
0
6
CONTINUOUS
10
57.679700
20
105.842305
30
0.0
11
65.133810
21
101.729205
31
0.0
0
LINE
8
0
6
CONTINUOUS
10
60.045770
20
112.430345
30
0.0
11
69.028340
21
107.545815
31
0.0
0
LINE
8
0
6
CONTINUOUS
10
62.411870
20
119.018305
30
0.0
11
72.922890
21
113.362365
31
0.0
0
LINE
8
0
6
CONTINUOUS
10
64.143990
20
123.841055
30
0.0
11
75.773920
21
117.620395
31
0.0
0
LINE
8
0
6
CONTINUOUS
10
76.817470
20
119.178945
30
0.0
11
64.778000
21
125.606305
31
0.0
0
LINE
8
0
6
CONTINUOUS
10
48.754000
20
101.057585
30
0.0
11
55.313600
21
99.254305
31
0.0
0
LINE
8
0
6
CONTINUOUS
10
48.940520
20
102.923965
30
0.0
11
55.947600
21
101.019555
31
0.0
0
LINE
8
0
6
CONTINUOUS
10
49.450090
20
108.022915
30
0.0
11
57.679700
21
105.842305
31
0.0
0
LINE
8
0
6
CONTINUOUS
10
50.146160
20
114.988265
30
0.0
11
60.045770
21
112.430345
31
0.0
0
LINE
8
0
6
CONTINUOUS
10
50.842270
20
121.953545
30
0.0
11
62.411870
21
119.018305
31
0.0
0
LINE
8
0
6
CONTINUOUS
10
51.351870
20
127.052495
30
0.0
11
64.143990
21
123.841055
31
0.0
0
LINE
8
0
6
CONTINUOUS
10
64.778000
20
125.606305
30
0.0
11
51.538400
21
128.918875
31
0.0
0
LINE
8
0
6
CONTINUOUS
10
-93.003490
20
140.070705
30
0.0
11
-96.538470
21
142.803855
31
0.0
0
LINE
8
0
6
CONTINUOUS
10
-118.616550
20
65.820275
30
0.0
11
-111.424810
21
65.317385
31
0.0
0
LINE
8
0
6
CONTINUOUS
10
-131.073040
20
66.691325
30
0.0
11
-125.808340
21
66.323165
31
0.0
0
LINE
8
0
6
CONTINUOUS
10
-125.808340
20
66.323165
30
0.0
11
-118.616550
21
65.820275
31
0.0
0
LINE
8
0
6
CONTINUOUS
10
-125.741280
20
67.282065
30
0.0
11
-125.808340
21
66.323165
31
0.0
0
LINE
8
0
6
CONTINUOUS
10
-118.616550
20
65.820275
30
0.0
11
-118.549520
21
66.779175
31
0.0
0
LINE
8
0
6
CONTINUOUS
10
-111.424810
20
65.317385
30
0.0
11
-106.160070
21
64.949225
31
0.0
0
LINE
8
0
6
CONTINUOUS
10
-111.357730
20
66.276265
30
0.0
11
-111.424810
21
65.317385
31
0.0
0
LINE
8
0
6
CONTINUOUS
10
-106.160070
20
64.949225
30
0.0
11
-104.233080
21
64.814495
31
0.0
0
LINE
8
0
6
CONTINUOUS
10
-106.093010
20
65.908125
30
0.0
11
-106.160070
21
64.949225
31
0.0
0
LINE
8
0
6
CONTINUOUS
10
-104.233080
20
64.814495
30
0.0
11
-104.166000
21
65.773395
31
0.0
0
LINE
8
0
6
CONTINUOUS
10
-133.000000
20
66.826055
30
0.0
11
-131.073040
21
66.691325
31
0.0
0
LINE
8
0
6
CONTINUOUS
10
-132.933010
20
67.784955
30
0.0
11
-133.000000
21
66.826055
31
0.0
0
LINE
8
0
6
CONTINUOUS
10
-131.073040
20
66.691325
30
0.0
11
-131.005980
21
67.650225
31
0.0
0
LINE
8
0
6
CONTINUOUS
10
-118.137380
20
162.913895
30
0.0
11
-118.220540
21
161.724855
31
0.0
0
LINE
8
0
6
CONTINUOUS
10
-100.981320
20
161.714175
30
0.0
11
-101.064500
21
160.525205
31
0.0
0
LINE
8
0
6
CONTINUOUS
10
-99.381870
20
160.407565
30
0.0
11
-99.298750
21
161.596605
31
0.0
0
LINE
8
0
6
CONTINUOUS
10
-124.416910
20
163.352965
30
0.0
11
-124.500050
21
162.163925
31
0.0
0
LINE
8
0
6
CONTINUOUS
10
-122.817480
20
162.046275
30
0.0
11
-122.734320
21
163.235325
31
0.0
0
LINE
8
0
6
CONTINUOUS
10
-111.857820
20
162.474745
30
0.0
11
-111.940980
21
161.285705
31
0.0
0
LINE
8
0
6
CONTINUOUS
10
-105.661420
20
160.846635
30
0.0
11
-105.578310
21
162.035675
31
0.0
0
LINE
8
0
6
CONTINUOUS
10
-125.910860
20
170.520555
30
0.0
11
-126.335280
21
164.450685
31
0.0
0
LINE
8
0
6
CONTINUOUS
10
-123.962250
20
170.384295
30
0.0
11
-124.386700
21
164.314425
31
0.0
0
LINE
8
0
6
CONTINUOUS
10
-104.094090
20
168.994975
30
0.0
11
-104.518510
21
162.925185
31
0.0
0
LINE
8
0
6
CONTINUOUS
10
-118.638600
20
170.011975
30
0.0
11
-119.063080
21
163.942185
31
0.0
0
LINE
8
0
6
CONTINUOUS
10
-111.790780
20
163.433685
30
0.0
11
-111.366350
21
169.503555
31
0.0
0
LINE
8
0
6
CONTINUOUS
10
-98.770410
20
168.622745
30
0.0
11
-99.194840
21
162.552875
31
0.0
0
LINE
8
0
6
CONTINUOUS
10
-97.246270
20
162.416615
30
0.0
11
-96.821790
21
168.486485
31
0.0
0
LINE
8
0
6
CONTINUOUS
10
-126.358000
20
161.812055
30
0.0
11
-126.391490
21
161.332625
31
0.0
0
LINE
8
0
6
CONTINUOUS
10
-124.430980
20
161.677325
30
0.0
11
-126.358000
21
161.812055
31
0.0
0
LINE
8
0
6
CONTINUOUS
10
-97.624520
20
159.321055
30
0.0
11
-97.590980
21
159.800495
31
0.0
0
LINE
8
0
6
CONTINUOUS
10
-99.518000
20
159.935225
30
0.0
11
-97.590980
21
159.800495
31
0.0
0
LINE
8
0
6
CONTINUOUS
10
-104.782740
20
160.303345
30
0.0
11
-111.974530
21
160.806275
31
0.0
0
LINE
8
0
6
CONTINUOUS
10
-124.430980
20
161.677325
30
0.0
11
-124.464500
21
161.197895
31
0.0
0
LINE
8
0
6
CONTINUOUS
10
-119.166260
20
161.309205
30
0.0
11
-124.430980
21
161.677325
31
0.0
0
LINE
8
0
6
CONTINUOUS
10
-104.782740
20
160.303345
30
0.0
11
-104.816270
21
159.823915
31
0.0
0
LINE
8
0
6
CONTINUOUS
10
-99.551550
20
159.455795
30
0.0
11
-99.518000
21
159.935225
31
0.0
0
LINE
8
0
6
CONTINUOUS
10
-104.782740
20
160.303345
30
0.0
11
-99.518000
21
159.935225
31
0.0
0
LINE
8
0
6
CONTINUOUS
10
-119.166260
20
161.309205
30
0.0
11
-119.199790
21
160.829775
31
0.0
0
LINE
8
0
6
CONTINUOUS
10
-111.974530
20
160.806275
30
0.0
11
-119.166260
21
161.309205
31
0.0
0
LINE
8
0
6
CONTINUOUS
10
-112.008020
20
160.326845
30
0.0
11
-111.974530
21
160.806275
31
0.0
0
LINE
8
0
6
CONTINUOUS
10
-99.415400
20
159.928055
30
0.0
11
-99.381870
21
160.407565
31
0.0
0
LINE
8
0
6
CONTINUOUS
10
-101.098030
20
160.045775
30
0.0
11
-101.064500
21
160.525205
31
0.0
0
LINE
8
0
6
CONTINUOUS
10
-124.500050
20
162.163925
30
0.0
11
-124.533580
21
161.684495
31
0.0
0
LINE
8
0
6
CONTINUOUS
10
-122.817480
20
162.046275
30
0.0
11
-122.850980
21
161.566845
31
0.0
0
LINE
8
0
6
CONTINUOUS
10
-118.254040
20
161.245345
30
0.0
11
-118.220540
21
161.724855
31
0.0
0
LINE
8
0
6
CONTINUOUS
10
-111.940980
20
161.285705
30
0.0
11
-111.974510
21
160.806275
31
0.0
0
LINE
8
0
6
CONTINUOUS
10
-105.694970
20
160.367205
30
0.0
11
-105.661420
21
160.846635
31
0.0
0
LINE
8
0
6
CONTINUOUS
10
-99.298750
20
161.596605
30
0.0
11
-99.265220
21
162.076035
31
0.0
0
LINE
8
0
6
CONTINUOUS
10
-100.981320
20
161.714175
30
0.0
11
-100.947780
21
162.193675
31
0.0
0
LINE
8
0
6
CONTINUOUS
10
-124.383360
20
163.832395
30
0.0
11
-124.416910
21
163.352965
31
0.0
0
LINE
8
0
6
CONTINUOUS
10
-122.700770
20
163.714755
30
0.0
11
-122.734320
21
163.235325
31
0.0
0
LINE
8
0
6
CONTINUOUS
10
-118.137380
20
162.913895
30
0.0
11
-118.103830
21
163.393325
31
0.0
0
LINE
8
0
6
CONTINUOUS
10
-111.824290
20
162.954175
30
0.0
11
-111.857820
21
162.474745
31
0.0
0
LINE
8
0
6
CONTINUOUS
10
-105.578310
20
162.035675
30
0.0
11
-105.544780
21
162.515105
31
0.0
0
LINE
8
0
6
CONTINUOUS
10
-99.228370
20
162.073445
30
0.0
11
-97.279760
21
161.937175
31
0.0
0
LINE
8
0
6
CONTINUOUS
10
-97.279760
20
161.937175
30
0.0
11
-97.246270
21
162.416615
31
0.0
0
LINE
8
0
6
CONTINUOUS
10
-104.552010
20
162.445675
30
0.0
11
-99.228370
21
162.073445
31
0.0
0
LINE
8
0
6
CONTINUOUS
10
-99.228370
20
162.073445
30
0.0
11
-99.194840
21
162.552875
31
0.0
0
LINE
8
0
6
CONTINUOUS
10
-119.096590
20
163.462755
30
0.0
11
-111.824340
21
162.954255
31
0.0
0
LINE
8
0
6
CONTINUOUS
10
-126.368810
20
163.971255
30
0.0
11
-124.420250
21
163.834995
31
0.0
0
LINE
8
0
6
CONTINUOUS
10
-126.335280
20
164.450685
30
0.0
11
-126.368810
21
163.971255
31
0.0
0
LINE
8
0
6
CONTINUOUS
10
-124.420250
20
163.834995
30
0.0
11
-119.096590
21
163.462755
31
0.0
0
LINE
8
0
6
CONTINUOUS
10
-124.386700
20
164.314425
30
0.0
11
-124.420250
21
163.834995
31
0.0
0
LINE
8
0
6
CONTINUOUS
10
-119.096590
20
163.462755
30
0.0
11
-119.063080
21
163.942185
31
0.0
0
LINE
8
0
6
CONTINUOUS
10
-111.824340
20
162.954255
30
0.0
11
-104.552010
21
162.445675
31
0.0
0
LINE
8
0
6
CONTINUOUS
10
-111.790780
20
163.433685
30
0.0
11
-111.824340
21
162.954255
31
0.0
0
LINE
8
0
6
CONTINUOUS
10
-104.552010
20
162.445675
30
0.0
11
-104.518510
21
162.925185
31
0.0
0
LINE
8
0
6
CONTINUOUS
10
-96.788260
20
168.965915
30
0.0
11
-98.736860
21
169.102175
31
0.0
0
LINE
8
0
6
CONTINUOUS
10
-96.821790
20
168.486485
30
0.0
11
-96.788260
21
168.965915
31
0.0
0
LINE
8
0
6
CONTINUOUS
10
-98.770410
20
168.622745
30
0.0
11
-98.736860
21
169.102175
31
0.0
0
LINE
8
0
6
CONTINUOUS
10
-104.060580
20
169.474415
30
0.0
11
-98.736860
21
169.102175
31
0.0
0
LINE
8
0
6
CONTINUOUS
10
-111.332800
20
169.982985
30
0.0
11
-118.605080
21
170.491485
31
0.0
0
LINE
8
0
6
CONTINUOUS
10
-125.877370
20
170.999985
30
0.0
11
-125.910860
21
170.520555
31
0.0
0
LINE
8
0
6
CONTINUOUS
10
-123.928740
20
170.863725
30
0.0
11
-125.877370
21
170.999985
31
0.0
0
LINE
8
0
6
CONTINUOUS
10
-123.928740
20
170.863725
30
0.0
11
-123.962250
21
170.384295
31
0.0
0
LINE
8
0
6
CONTINUOUS
10
-118.605080
20
170.491485
30
0.0
11
-123.928740
21
170.863725
31
0.0
0
LINE
8
0
6
CONTINUOUS
10
-118.638600
20
170.011975
30
0.0
11
-118.605080
21
170.491485
31
0.0
0
LINE
8
0
6
CONTINUOUS
10
-111.332800
20
169.982985
30
0.0
11
-111.366350
21
169.503555
31
0.0
0
LINE
8
0
6
CONTINUOUS
10
-104.094090
20
168.994975
30
0.0
11
-104.060580
21
169.474415
31
0.0
0
LINE
8
0
6
CONTINUOUS
10
-111.332800
20
169.982985
30
0.0
11
-104.060580
21
169.474415
31
0.0
0
LINE
8
0
6
CONTINUOUS
10
-93.003490
20
140.070705
30
0.0
11
-95.510750
21
137.941605
31
0.0
0
LINE
8
0
6
CONTINUOUS
10
-88.691810
20
139.235745
30
0.0
11
-93.003490
21
140.070705
31
0.0
0
LINE
8
0
6
CONTINUOUS
10
-113.605120
20
137.487435
30
0.0
11
-112.008020
21
160.326845
31
0.0
0
LINE
8
0
6
CONTINUOUS
10
-115.037060
20
117.009315
30
0.0
11
-118.549520
21
66.779175
31
0.0
0
LINE
8
0
6
CONTINUOUS
10
-98.381280
20
148.499015
30
0.0
11
-97.624520
21
159.321055
31
0.0
0
LINE
8
0
6
CONTINUOUS
10
-95.510750
20
137.941605
30
0.0
11
-98.273930
21
141.082435
31
0.0
0
LINE
8
0
6
CONTINUOUS
10
-102.546920
20
119.463275
30
0.0
11
-90.160850
21
118.346065
31
0.0
0
LINE
8
0
6
CONTINUOUS
10
-129.420570
20
118.015135
30
0.0
11
-132.933010
21
67.784955
31
0.0
0
LINE
8
0
6
CONTINUOUS
10
-126.391490
20
161.332625
30
0.0
11
-127.988590
21
138.493215
31
0.0
0
LINE
8
0
6
CONTINUOUS
10
-108.425450
20
111.283665
30
0.0
11
-111.357730
21
66.276265
31
0.0
0
LINE
8
0
6
CONTINUOUS
10
-125.741280
20
67.282065
30
0.0
11
-122.228840
21
117.512245
31
0.0
0
LINE
8
0
6
CONTINUOUS
10
-127.493560
20
117.880385
30
0.0
11
-131.005980
21
67.650225
31
0.0
0
LINE
8
0
6
CONTINUOUS
10
-124.464500
20
161.197895
30
0.0
11
-126.061580
21
138.358445
31
0.0
0
LINE
8
0
6
CONTINUOUS
10
-120.796860
20
137.990325
30
0.0
11
-119.199790
21
160.829775
31
0.0
0
LINE
8
0
6
CONTINUOUS
10
-104.816270
20
159.823915
30
0.0
11
-105.995010
21
142.967285
31
0.0
0
LINE
8
0
6
CONTINUOUS
10
-100.421380
20
147.016775
30
0.0
11
-99.551550
21
159.455795
31
0.0
0
LINE
8
0
6
CONTINUOUS
10
-102.546920
20
119.463275
30
0.0
11
-106.311290
21
116.475185
31
0.0
0
LINE
8
0
6
CONTINUOUS
10
-100.301730
20
106.774945
30
0.0
11
-95.095290
21
110.953445
31
0.0
0
LINE
8
0
6
CONTINUOUS
10
-97.260650
20
113.433305
30
0.0
11
-102.058030
21
109.771995
31
0.0
0
LINE
8
0
6
CONTINUOUS
10
-127.988590
20
138.493215
30
0.0
11
-128.732090
21
127.860565
31
0.0
0
LINE
8
0
6
CONTINUOUS
10
-101.608390
20
132.726385
30
0.0
11
-104.087130
21
135.506415
31
0.0
0
LINE
8
0
6
CONTINUOUS
10
-128.732090
20
127.860565
30
0.0
11
-129.420570
21
118.015135
31
0.0
0
LINE
8
0
6
CONTINUOUS
10
-98.273930
20
141.082435
30
0.0
11
-96.538470
21
142.803855
31
0.0
0
LINE
8
0
6
CONTINUOUS
10
-96.538470
20
142.803855
30
0.0
11
-98.381280
21
148.499015
31
0.0
0
LINE
8
0
6
CONTINUOUS
10
-100.301730
20
106.774945
30
0.0
11
-102.058030
21
109.771995
31
0.0
0
LINE
8
0
6
CONTINUOUS
10
-101.633320
20
101.992115
30
0.0
11
-100.301730
21
106.774945
31
0.0
0
LINE
8
0
6
CONTINUOUS
10
-104.087130
20
135.506415
30
0.0
11
-98.273930
21
141.082435
31
0.0
0
LINE
8
0
6
CONTINUOUS
10
-105.995010
20
142.967285
30
0.0
11
-104.087130
21
135.506415
31
0.0
0
LINE
8
0
6
CONTINUOUS
10
-98.273930
20
141.082435
30
0.0
11
-100.421380
21
147.016775
31
0.0
0
LINE
8
0
6
CONTINUOUS
10
-126.061580
20
138.358445
30
0.0
11
-126.805080
21
127.725815
31
0.0
0
LINE
8
0
6
CONTINUOUS
10
-101.608390
20
132.726385
30
0.0
11
-89.182880
21
132.252825
31
0.0
0
LINE
8
0
6
CONTINUOUS
10
-88.825970
20
137.327935
30
0.0
11
-95.510750
21
137.941605
31
0.0
0
LINE
8
0
6
CONTINUOUS
10
-103.789910
20
105.020945
30
0.0
11
-102.058030
21
109.771995
31
0.0
0
LINE
8
0
6
CONTINUOUS
10
-106.311290
20
116.475185
30
0.0
11
-108.425450
21
111.283665
31
0.0
0
LINE
8
0
6
CONTINUOUS
10
-120.796860
20
137.990325
30
0.0
11
-121.540360
21
127.357675
31
0.0
0
LINE
8
0
6
CONTINUOUS
10
-126.805080
20
127.725815
30
0.0
11
-127.493560
21
117.880385
31
0.0
0
LINE
8
0
6
CONTINUOUS
10
-122.228840
20
117.512245
30
0.0
11
-121.540360
21
127.357675
31
0.0
0
LINE
8
0
6
CONTINUOUS
10
-104.166000
20
65.773395
30
0.0
11
-101.633320
21
101.992115
31
0.0
0
LINE
8
0
6
CONTINUOUS
10
-103.789910
20
105.020945
30
0.0
11
-106.093010
21
65.908125
31
0.0
0
LINE
8
0
6
CONTINUOUS
10
51.538400
20
128.918875
30
0.0
11
-88.691810
21
139.235745
31
0.0
0
LINE
8
0
6
CONTINUOUS
10
49.450090
20
108.022915
30
0.0
11
-90.160850
21
118.346065
31
0.0
0
LINE
8
0
6
CONTINUOUS
10
-89.672280
20
125.293555
30
0.0
11
50.146160
21
114.988265
31
0.0
0
LINE
8
0
6
CONTINUOUS
10
-89.182880
20
132.252825
30
0.0
11
50.842270
21
121.953545
31
0.0
0
LINE
8
0
6
CONTINUOUS
10
51.351870
20
127.052495
30
0.0
11
-88.825970
21
137.327935
31
0.0
0
LINE
8
0
6
CONTINUOUS
10
-90.655120
20
111.317405
30
0.0
11
48.754000
21
101.057585
31
0.0
0
LINE
8
0
6
CONTINUOUS
10
48.940520
20
102.923965
30
0.0
11
-90.521240
21
113.221325
31
0.0
0
LINE
8
0
6
CONTINUOUS
10
-112.965470
20
60.732075
30
0.0
11
-108.535790
21
60.439455
31
0.0
0
LINE
8
0
6
CONTINUOUS
10
-112.965470
20
60.732075
30
0.0
11
-112.946040
21
61.026645
31
0.0
0
LINE
8
0
6
CONTINUOUS
10
-119.016590
20
61.131825
30
0.0
11
-112.965470
21
60.732075
31
0.0
0
LINE
8
0
6
CONTINUOUS
10
-119.016590
20
61.131825
30
0.0
11
-118.997160
21
61.426395
31
0.0
0
LINE
8
0
6
CONTINUOUS
10
-125.067750
20
61.531525
30
0.0
11
-119.016590
21
61.131825
31
0.0
0
LINE
8
0
6
CONTINUOUS
10
-125.067750
20
61.531525
30
0.0
11
-125.048240
21
61.826095
31
0.0
0
LINE
8
0
6
CONTINUOUS
10
-129.497440
20
61.824145
30
0.0
11
-125.067750
21
61.531525
31
0.0
0
LINE
8
0
6
CONTINUOUS
10
-129.497440
20
61.824145
30
0.0
11
-129.478000
21
62.118725
31
0.0
0
LINE
8
0
6
CONTINUOUS
10
-131.118820
20
61.931265
30
0.0
11
-129.497440
21
61.824145
31
0.0
0
LINE
8
0
6
CONTINUOUS
10
-131.099380
20
62.225795
30
0.0
11
-131.118820
21
61.931265
31
0.0
0
LINE
8
0
6
CONTINUOUS
10
-106.914350
20
60.332375
30
0.0
11
-106.894900
21
60.626945
31
0.0
0
LINE
8
0
6
CONTINUOUS
10
-108.535790
20
60.439455
30
0.0
11
-106.914350
21
60.332375
31
0.0
0
LINE
8
0
6
CONTINUOUS
10
-108.516300
20
60.734025
30
0.0
11
-108.535790
21
60.439455
31
0.0
0
LINE
8
0
6
CONTINUOUS
10
-112.946040
20
61.026645
30
0.0
11
-112.656900
21
65.403508
31
0.0
0
LINE
8
0
6
CONTINUOUS
10
-118.997160
20
61.426395
30
0.0
11
-118.706500
21
65.826565
31
0.0
0
LINE
8
0
6
CONTINUOUS
10
-125.048240
20
61.826095
30
0.0
11
-124.756045
21
66.249572
31
0.0
0
LINE
8
0
6
CONTINUOUS
10
-129.478000
20
62.118725
30
0.0
11
-129.184648
21
66.559236
31
0.0
0
LINE
8
0
6
CONTINUOUS
10
-130.805638
20
66.672588
30
0.0
11
-131.099380
21
62.225795
31
0.0
0
LINE
8
0
6
CONTINUOUS
10
-106.894900
20
60.626945
30
0.0
11
-106.607327
21
64.980494
31
0.0
0
LINE
8
0
6
CONTINUOUS
10
-108.228297
20
65.093855
30
0.0
11
-108.516300
21
60.734025
31
0.0
0
LINE
8
0
6
CONTINUOUS
10
-95.095290
20
110.953445
30
0.0
11
-90.655120
21
111.317405
31
0.0
0
LINE
8
0
6
CONTINUOUS
10
-97.260650
20
113.433305
30
0.0
11
-95.095290
21
110.953445
31
0.0
0
LINE
8
0
6
CONTINUOUS
10
-90.521240
20
113.221325
30
0.0
11
-97.260650
21
113.433305
31
0.0
0
LINE
8
0
6
CONTINUOUS
10
133.000000
20
-170.477645
30
0.0
11
133.000000
21
-159.522325
31
0.0
0
LINE
8
0
6
CONTINUOUS
10
69.000000
20
-159.522325
30
0.0
11
69.000000
21
-170.477645
31
0.0
0
LINE
8
0
6
CONTINUOUS
10
133.000000
20
-170.999985
30
0.0
11
133.000000
21
-170.477645
31
0.0
0
LINE
8
0
6
CONTINUOUS
10
131.909620
20
-170.999985
30
0.0
11
133.000000
21
-170.999985
31
0.0
0
LINE
8
0
6
CONTINUOUS
10
128.712810
20
-170.999985
30
0.0
11
131.909620
21
-170.999985
31
0.0
0
LINE
8
0
6
CONTINUOUS
10
123.627420
20
-170.999985
30
0.0
11
128.712810
21
-170.999985
31
0.0
0
LINE
8
0
6
CONTINUOUS
10
117.000010
20
-170.999985
30
0.0
11
123.627420
21
-170.999985
31
0.0
0
LINE
8
0
6
CONTINUOUS
10
109.282220
20
-170.999985
30
0.0
11
117.000010
21
-170.999985
31
0.0
0
LINE
8
0
6
CONTINUOUS
10
101.000010
20
-170.999985
30
0.0
11
109.282220
21
-170.999985
31
0.0
0
LINE
8
0
6
CONTINUOUS
10
92.717800
20
-170.999985
30
0.0
11
101.000010
21
-170.999985
31
0.0
0
LINE
8
0
6
CONTINUOUS
10
85.000010
20
-170.999985
30
0.0
11
92.717800
21
-170.999985
31
0.0
0
LINE
8
0
6
CONTINUOUS
10
78.372590
20
-170.999985
30
0.0
11
85.000010
21
-170.999985
31
0.0
0
LINE
8
0
6
CONTINUOUS
10
73.287190
20
-170.999985
30
0.0
11
78.372590
21
-170.999985
31
0.0
0
LINE
8
0
6
CONTINUOUS
10
70.090380
20
-170.999985
30
0.0
11
73.287190
21
-170.999985
31
0.0
0
LINE
8
0
6
CONTINUOUS
10
69.000000
20
-170.999985
30
0.0
11
70.090380
21
-170.999985
31
0.0
0
LINE
8
0
6
CONTINUOUS
10
69.000000
20
-170.477645
30
0.0
11
69.000000
21
-170.999985
31
0.0
0
LINE
8
0
6
CONTINUOUS
10
133.000000
20
-158.999985
30
0.0
11
131.909620
21
-158.999985
31
0.0
0
LINE
8
0
6
CONTINUOUS
10
133.000000
20
-159.522325
30
0.0
11
133.000000
21
-158.999985
31
0.0
0
LINE
8
0
6
CONTINUOUS
10
131.909620
20
-158.999985
30
0.0
11
128.712810
21
-158.999985
31
0.0
0
LINE
8
0
6
CONTINUOUS
10
128.712810
20
-158.999985
30
0.0
11
123.627420
21
-158.999985
31
0.0
0
LINE
8
0
6
CONTINUOUS
10
123.627420
20
-158.999985
30
0.0
11
117.000010
21
-158.999985
31
0.0
0
LINE
8
0
6
CONTINUOUS
10
117.000010
20
-158.999985
30
0.0
11
109.282220
21
-158.999985
31
0.0
0
LINE
8
0
6
CONTINUOUS
10
109.282220
20
-158.999985
30
0.0
11
101.000010
21
-158.999985
31
0.0
0
LINE
8
0
6
CONTINUOUS
10
101.000010
20
-158.999985
30
0.0
11
92.717800
21
-158.999985
31
0.0
0
LINE
8
0
6
CONTINUOUS
10
92.717800
20
-158.999985
30
0.0
11
85.000010
21
-158.999985
31
0.0
0
LINE
8
0
6
CONTINUOUS
10
85.000010
20
-158.999985
30
0.0
11
78.372590
21
-158.999985
31
0.0
0
LINE
8
0
6
CONTINUOUS
10
78.372590
20
-158.999985
30
0.0
11
73.287190
21
-158.999985
31
0.0
0
LINE
8
0
6
CONTINUOUS
10
73.287190
20
-158.999985
30
0.0
11
70.090380
21
-158.999985
31
0.0
0
LINE
8
0
6
CONTINUOUS
10
69.000000
20
-158.999985
30
0.0
11
69.000000
21
-159.522325
31
0.0
0
LINE
8
0
6
CONTINUOUS
10
70.090380
20
-158.999985
30
0.0
11
69.000000
21
-158.999985
31
0.0
0
LINE
8
0
6
CONTINUOUS
10
72.501150
20
-81.652865
30
0.0
11
72.501150
21
-158.999985
31
0.0
0
LINE
8
0
6
CONTINUOUS
10
129.318460
20
-158.999985
30
0.0
11
129.318470
21
-81.652865
31
0.0
0
LINE
8
0
6
CONTINUOUS
10
126.460580
20
-74.491595
30
0.0
11
119.752290
21
-69.419955
31
0.0
0
LINE
8
0
6
CONTINUOUS
10
100.501150
20
-46.174255
30
0.0
11
100.501150
21
-29.196535
31
0.0
0
LINE
8
0
6
CONTINUOUS
10
72.501150
20
-29.196535
30
0.0
11
72.501150
21
-46.174255
31
0.0
0
LINE
8
0
6
CONTINUOUS
10
72.501150
20
-46.174255
30
0.0
11
72.501150
21
-48.263617
31
0.0
0
LINE
8
0
6
CONTINUOUS
10
125.924080
20
-74.491595
30
0.0
11
124.351110
21
-74.491595
31
0.0
0
LINE
8
0
6
CONTINUOUS
10
128.481410
20
-78.071285
30
0.0
11
126.460580
21
-74.491595
31
0.0
0
LINE
8
0
6
CONTINUOUS
10
126.460580
20
-74.491595
30
0.0
11
125.924080
21
-74.491595
31
0.0
0
LINE
8
0
6
CONTINUOUS
10
129.318470
20
-81.652865
30
0.0
11
128.481410
21
-78.071285
31
0.0
0
LINE
8
0
6
CONTINUOUS
10
72.501150
20
-78.832156
30
0.0
11
72.501150
21
-81.652865
31
0.0
0
LINE
8
0
6
CONTINUOUS
10
106.774660
20
-57.146395
30
0.0
11
102.831040
21
-52.200885
31
0.0
0
LINE
8
0
6
CONTINUOUS
10
112.623530
20
-63.309295
30
0.0
11
106.774660
21
-57.146395
31
0.0
0
LINE
8
0
6
CONTINUOUS
10
119.752290
20
-69.419955
30
0.0
11
112.623530
21
-63.309295
31
0.0
0
LINE
8
0
6
CONTINUOUS
10
102.831040
20
-52.200885
30
0.0
11
101.279420
21
-49.187575
31
0.0
0
LINE
8
0
6
CONTINUOUS
10
86.501160
20
-28.696525
30
0.0
11
82.877690
21
-28.696525
31
0.0
0
LINE
8
0
6
CONTINUOUS
10
82.877690
20
-28.696525
30
0.0
11
79.501160
21
-28.696525
31
0.0
0
LINE
8
0
6
CONTINUOUS
10
79.501160
20
-28.696525
30
0.0
11
76.601660
21
-28.696525
31
0.0
0
LINE
8
0
6
CONTINUOUS
10
76.601660
20
-28.696525
30
0.0
11
74.376800
21
-28.696525
31
0.0
0
LINE
8
0
6
CONTINUOUS
10
74.376800
20
-28.696525
30
0.0
11
72.978200
21
-28.696525
31
0.0
0
LINE
8
0
6
CONTINUOUS
10
72.501150
20
-28.696525
30
0.0
11
72.501150
21
-29.196535
31
0.0
0
LINE
8
0
6
CONTINUOUS
10
72.978200
20
-28.696525
30
0.0
11
72.501150
21
-28.696525
31
0.0
0
LINE
8
0
6
CONTINUOUS
10
100.501150
20
-28.696525
30
0.0
11
100.024110
21
-28.696525
31
0.0
0
LINE
8
0
6
CONTINUOUS
10
100.501150
20
-29.196535
30
0.0
11
100.501150
21
-28.696525
31
0.0
0
LINE
8
0
6
CONTINUOUS
10
100.024110
20
-28.696525
30
0.0
11
98.625510
21
-28.696525
31
0.0
0
LINE
8
0
6
CONTINUOUS
10
98.625510
20
-28.696525
30
0.0
11
96.400650
21
-28.696525
31
0.0
0
LINE
8
0
6
CONTINUOUS
10
96.400650
20
-28.696525
30
0.0
11
93.501160
21
-28.696525
31
0.0
0
LINE
8
0
6
CONTINUOUS
10
93.501160
20
-28.696525
30
0.0
11
90.124620
21
-28.696525
31
0.0
0
LINE
8
0
6
CONTINUOUS
10
90.124620
20
-28.696525
30
0.0
11
86.501160
21
-28.696525
31
0.0
0
LINE
8
0
6
CONTINUOUS
10
101.279420
20
-49.187575
30
0.0
11
100.501150
21
-46.174255
31
0.0
0
LINE
8
0
6
CONTINUOUS
10
95.369640
20
-104.896335
30
0.0
11
96.076822
21
-105.256663
31
0.0
0
LINE
8
0
6
CONTINUOUS
10
101.278600
20
-107.907105
30
0.0
11
102.062591
21
-108.031277
31
0.0
0
LINE
8
0
6
CONTINUOUS
10
107.828720
20
-108.944545
30
0.0
11
108.612713
21
-108.820373
31
0.0
0
LINE
8
0
6
CONTINUOUS
10
114.378850
20
-107.907105
30
0.0
11
115.086064
21
-107.546759
31
0.0
0
LINE
8
0
6
CONTINUOUS
10
120.287800
20
-104.896325
30
0.0
11
120.849000
21
-104.335126
31
0.0
0
LINE
8
0
6
CONTINUOUS
10
124.977170
20
-100.206965
30
0.0
11
125.337498
21
-99.499784
31
0.0
0
LINE
8
0
6
CONTINUOUS
10
127.987940
20
-94.298015
30
0.0
11
128.112103
21
-93.514067
31
0.0
0
LINE
8
0
6
CONTINUOUS
10
129.025360
20
-87.747865
30
0.0
11
128.901203
21
-86.963963
31
0.0
0
LINE
8
0
6
CONTINUOUS
10
127.987930
20
-81.197745
30
0.0
11
127.627610
21
-80.490579
31
0.0
0
LINE
8
0
6
CONTINUOUS
10
124.977160
20
-75.288795
30
0.0
11
124.415945
21
-74.727582
31
0.0
0
LINE
8
0
6
CONTINUOUS
10
120.287790
20
-70.599435
30
0.0
11
119.580603
21
-70.239104
31
0.0
0
LINE
8
0
6
CONTINUOUS
10
114.378830
20
-67.588655
30
0.0
11
113.594822
21
-67.464483
31
0.0
0
LINE
8
0
6
CONTINUOUS
10
18.894050
20
-15.534095
30
0.0
11
20.791190
21
-17.774205
31
0.0
0
LINE
8
0
6
CONTINUOUS
10
91.653440
20
-101.446745
30
0.0
11
96.678290
21
-105.774715
31
0.0
0
LINE
8
0
6
CONTINUOUS
10
96.678290
20
-105.774715
30
0.0
11
102.794630
21
-108.338075
31
0.0
0
LINE
8
0
6
CONTINUOUS
10
102.794630
20
-108.338075
30
0.0
11
109.403730
21
-108.885945
31
0.0
0
LINE
8
0
6
CONTINUOUS
10
109.403730
20
-108.885945
30
0.0
11
115.858670
21
-107.364675
31
0.0
0
LINE
8
0
6
CONTINUOUS
10
115.858670
20
-107.364675
30
0.0
11
121.527590
21
-103.923165
31
0.0
0
LINE
8
0
6
CONTINUOUS
10
121.527590
20
-103.923165
30
0.0
11
125.855550
21
-98.898315
31
0.0
0
LINE
8
0
6
CONTINUOUS
10
125.855550
20
-98.898315
30
0.0
11
128.418920
21
-92.781985
31
0.0
0
LINE
8
0
6
CONTINUOUS
10
128.418920
20
-92.781985
30
0.0
11
128.966780
21
-86.172875
31
0.0
0
LINE
8
0
6
CONTINUOUS
10
128.966780
20
-86.172875
30
0.0
11
127.445520
21
-79.717945
31
0.0
0
LINE
8
0
6
CONTINUOUS
10
127.445520
20
-79.717945
30
0.0
11
124.004002
21
-74.049038
31
0.0
0
LINE
8
0
6
CONTINUOUS
10
124.004000
20
-74.049035
30
0.0
11
118.979150
21
-69.721065
31
0.0
0
LINE
8
0
6
CONTINUOUS
10
118.979150
20
-69.721065
30
0.0
11
112.862810
21
-67.157695
31
0.0
0
LINE
8
0
6
CONTINUOUS
10
40.194490
20
-40.685165
30
0.0
11
65.530250
21
-70.601075
31
0.0
0
LINE
8
0
6
CONTINUOUS
10
65.530250
20
-70.601075
30
0.0
11
91.653440
21
-101.446745
31
0.0
0
LINE
8
0
6
CONTINUOUS
10
0.814290
20
5.814055
30
0.0
11
1.086550
21
5.492595
31
0.0
0
LINE
8
0
6
CONTINUOUS
10
1.188500
20
6.130985
30
0.0
11
0.814290
21
5.814055
31
0.0
0
LINE
8
0
6
CONTINUOUS
10
6.385380
20
9.981385
30
0.0
11
6.840530
21
9.443935
31
0.0
0
LINE
8
0
6
CONTINUOUS
10
1.541110
20
4.955865
30
0.0
11
2.342310
21
4.009815
31
0.0
0
LINE
8
0
6
CONTINUOUS
10
8.595270
20
7.371975
30
0.0
11
7.644600
21
8.494525
31
0.0
0
LINE
8
0
6
CONTINUOUS
10
20.791190
20
-17.774205
30
0.0
11
23.811310
21
-21.340295
31
0.0
0
LINE
8
0
6
CONTINUOUS
10
29.110740
20
-16.852205
30
0.0
11
26.090630
21
-13.286125
31
0.0
0
LINE
8
0
6
CONTINUOUS
10
27.612360
20
-25.828475
30
0.0
11
23.811310
21
-21.340295
31
0.0
0
LINE
8
0
6
CONTINUOUS
10
32.911780
20
-21.340385
30
0.0
11
29.110740
21
-16.852205
31
0.0
0
LINE
8
0
6
CONTINUOUS
10
27.612360
20
-25.828475
30
0.0
11
31.615650
21
-30.555465
31
0.0
0
LINE
8
0
6
CONTINUOUS
10
32.911780
20
-21.340385
30
0.0
11
36.915070
21
-26.067395
31
0.0
0
LINE
8
0
6
CONTINUOUS
10
31.615650
20
-30.555465
30
0.0
11
35.211740
21
-34.801655
31
0.0
0
LINE
8
0
6
CONTINUOUS
10
40.511170
20
-30.313565
30
0.0
11
36.915070
21
-26.067395
31
0.0
0
LINE
8
0
6
CONTINUOUS
10
22.727330
20
-9.314845
30
0.0
11
24.189800
21
-11.041675
31
0.0
0
LINE
8
0
6
CONTINUOUS
10
26.090630
20
-13.286125
30
0.0
11
24.189800
21
-11.041675
31
0.0
0
LINE
8
0
6
CONTINUOUS
10
21.033680
20
-7.314985
30
0.0
11
22.727330
21
-9.314845
31
0.0
0
LINE
8
0
6
CONTINUOUS
10
15.734250
20
-11.803075
30
0.0
11
17.427910
21
-13.802915
31
0.0
0
LINE
8
0
6
CONTINUOUS
10
17.427910
20
-13.802915
30
0.0
11
18.894050
21
-15.534095
31
0.0
0
LINE
8
0
6
CONTINUOUS
10
3.295850
20
2.883915
30
0.0
11
15.734250
21
-11.803075
31
0.0
0
LINE
8
0
6
CONTINUOUS
10
21.033680
20
-7.314985
30
0.0
11
8.595270
21
7.371975
31
0.0
0
LINE
8
0
6
CONTINUOUS
10
35.211740
20
-34.801655
30
0.0
11
38.592430
21
-38.793485
31
0.0
0
LINE
8
0
6
CONTINUOUS
10
112.862810
20
-67.157695
30
0.0
11
78.784650
21
-51.212505
31
0.0
0
LINE
8
0
6
CONTINUOUS
10
78.784650
20
-51.212505
30
0.0
11
45.843780
21
-35.753135
31
0.0
0
LINE
8
0
6
CONTINUOUS
10
6.840530
20
9.443935
30
0.0
11
6.441660
21
9.106135
31
0.0
0
LINE
8
0
6
CONTINUOUS
10
7.644600
20
8.494525
30
0.0
11
6.840530
21
9.443935
31
0.0
0
LINE
8
0
6
CONTINUOUS
10
2.342310
20
4.009815
30
0.0
11
3.295850
21
2.883915
31
0.0
0
LINE
8
0
6
CONTINUOUS
10
6.441660
20
9.106135
30
0.0
11
4.190820
21
7.199895
31
0.0
0
LINE
8
0
6
CONTINUOUS
10
4.190820
20
7.199895
30
0.0
11
1.915320
21
5.272785
31
0.0
0
LINE
8
0
6
CONTINUOUS
10
6.113720
20
10.302165
30
0.0
11
5.714840
21
9.964335
31
0.0
0
LINE
8
0
6
CONTINUOUS
10
6.385380
20
9.981385
30
0.0
11
6.113720
21
10.302165
31
0.0
0
LINE
8
0
6
CONTINUOUS
10
1.541110
20
4.955865
30
0.0
11
1.915320
21
5.272785
31
0.0
0
LINE
8
0
6
CONTINUOUS
10
1.086550
20
5.492595
30
0.0
11
1.541110
21
4.955865
31
0.0
0
LINE
8
0
6
CONTINUOUS
10
5.714840
20
9.964335
30
0.0
11
3.464010
21
8.058105
31
0.0
0
LINE
8
0
6
CONTINUOUS
10
3.464010
20
8.058105
30
0.0
11
1.188500
21
6.130985
31
0.0
0
LINE
8
0
6
CONTINUOUS
10
43.920710
20
-34.280335
30
0.0
11
40.511170
21
-30.313565
31
0.0
0
LINE
8
0
6
CONTINUOUS
10
39.407060
20
-39.755385
30
0.0
11
40.194490
21
-40.685165
31
0.0
0
LINE
8
0
6
CONTINUOUS
10
45.843780
20
-35.753135
30
0.0
11
44.742330
21
-35.236225
31
0.0
0
LINE
8
0
6
CONTINUOUS
10
44.742330
20
-35.236225
30
0.0
11
43.920710
21
-34.280335
31
0.0
0
LINE
8
0
6
CONTINUOUS
10
39.407060
20
-39.755385
30
0.0
11
38.592430
21
-38.793485
31
0.0
0
ENDSEC
0
EOF
