999
Erzeugt mit innoplus bad 
0
SECTION
2
HEADER
9
$ACADVER
1
AC1009
9
$DWGCODEPAGE
3
ISO8859-1
0
ENDSEC
0
SECTION
2
TABLES
0
TABLE
2
LAYER
70
1
0
LAYER
2
0
70
0
62
7
6
CONTINUOUS
0
ENDTAB
0
ENDSEC
0
SECTION
2
ENTITIES
0
LINE
8
0
6
CONTINUOUS
10
-47.624375
20
-28.696515
30
0.0
11
-42.500025
21
-28.696535
31
0.0
0
LINE
8
0
6
CONTINUOUS
10
-21.500015
20
-28.696515
30
0.0
11
-21.500015
21
-27.397075
31
0.0
0
LINE
8
0
6
CONTINUOUS
10
-23.375675
20
-28.696535
30
0.0
11
-21.500015
21
-28.696515
31
0.0
0
LINE
8
0
6
CONTINUOUS
10
-35.500025
20
-28.696535
30
0.0
11
-35.500025
21
-27.397075
31
0.0
0
LINE
8
0
6
CONTINUOUS
10
-42.500025
20
-27.397095
30
0.0
11
-42.500025
21
-28.696535
31
0.0
0
LINE
8
0
6
CONTINUOUS
10
-23.375675
20
-28.696535
30
0.0
11
-23.375675
21
-27.397085
31
0.0
0
LINE
8
0
6
CONTINUOUS
10
-28.500035
20
-27.397075
30
0.0
11
-28.500035
21
-28.696535
31
0.0
0
LINE
8
0
6
CONTINUOUS
10
-47.624375
20
-28.696515
30
0.0
11
-47.624375
21
-27.397075
31
0.0
0
LINE
8
0
6
CONTINUOUS
10
-49.500015
20
-28.696525
30
0.0
11
-47.624375
21
-28.696515
31
0.0
0
LINE
8
0
6
CONTINUOUS
10
-49.500015
20
-27.397075
30
0.0
11
-49.500015
21
-28.696525
31
0.0
0
LINE
8
0
6
CONTINUOUS
10
-47.624375
20
-26.975365
30
0.0
11
-42.500025
21
-26.975365
31
0.0
0
LINE
8
0
6
CONTINUOUS
10
-49.500015
20
-26.639175
30
0.0
11
-49.500015
21
-26.975375
31
0.0
0
LINE
8
0
6
CONTINUOUS
10
-47.624375
20
-26.975365
30
0.0
11
-47.624375
21
-26.639155
31
0.0
0
LINE
8
0
6
CONTINUOUS
10
-49.500015
20
-26.975375
30
0.0
11
-47.624375
21
-26.975365
31
0.0
0
LINE
8
0
6
CONTINUOUS
10
-21.500015
20
-26.975365
30
0.0
11
-21.500015
21
-26.639165
31
0.0
0
LINE
8
0
6
CONTINUOUS
10
-23.375675
20
-26.975385
30
0.0
11
-21.500015
21
-26.975365
31
0.0
0
LINE
8
0
6
CONTINUOUS
10
-23.375675
20
-26.975385
30
0.0
11
-23.375675
21
-26.639175
31
0.0
0
LINE
8
0
6
CONTINUOUS
10
-28.500035
20
-26.975385
30
0.0
11
-23.375675
21
-26.975385
31
0.0
0
LINE
8
0
6
CONTINUOUS
10
-42.500025
20
-26.639165
30
0.0
11
-42.500025
21
-26.975365
31
0.0
0
LINE
8
0
6
CONTINUOUS
10
-42.500025
20
-26.975365
30
0.0
11
-35.500025
21
-26.975365
31
0.0
0
LINE
8
0
6
CONTINUOUS
10
-35.500025
20
-26.639195
30
0.0
11
-35.500025
21
-26.975365
31
0.0
0
LINE
8
0
6
CONTINUOUS
10
-28.500035
20
-26.975385
30
0.0
11
-28.500035
21
-26.639175
31
0.0
0
LINE
8
0
6
CONTINUOUS
10
-35.500025
20
-26.975365
30
0.0
11
-28.500035
21
-26.975385
31
0.0
0
LINE
8
0
6
CONTINUOUS
10
-42.500025
20
-27.060885
30
0.0
11
-47.624375
21
-27.060865
31
0.0
0
LINE
8
0
6
CONTINUOUS
10
-49.500005
20
-27.060875
30
0.0
11
-49.500015
21
-27.397075
31
0.0
0
LINE
8
0
6
CONTINUOUS
10
-47.624375
20
-27.060865
30
0.0
11
-49.500005
21
-27.060875
31
0.0
0
LINE
8
0
6
CONTINUOUS
10
-47.624375
20
-27.397075
30
0.0
11
-47.624375
21
-27.060865
31
0.0
0
LINE
8
0
6
CONTINUOUS
10
-21.500015
20
-27.397075
30
0.0
11
-21.500015
21
-27.060885
31
0.0
0
LINE
8
0
6
CONTINUOUS
10
-21.837085
20
-27.060885
30
0.0
11
-23.667575
21
-27.060875
31
0.0
0
LINE
8
0
6
CONTINUOUS
10
-23.375675
20
-27.060895
30
0.0
11
-21.500015
21
-27.060885
31
0.0
0
LINE
8
0
6
CONTINUOUS
10
-23.375675
20
-27.397085
30
0.0
11
-23.375675
21
-27.060895
31
0.0
0
LINE
8
0
6
CONTINUOUS
10
-23.667575
20
-27.060875
30
0.0
11
-28.668565
21
-27.060875
31
0.0
0
LINE
8
0
6
CONTINUOUS
10
-28.500035
20
-27.060895
30
0.0
11
-23.375675
21
-27.060895
31
0.0
0
LINE
8
0
6
CONTINUOUS
10
-42.500025
20
-27.060885
30
0.0
11
-42.500025
21
-27.397095
31
0.0
0
LINE
8
0
6
CONTINUOUS
10
-42.331495
20
-27.060875
30
0.0
11
-42.500025
21
-27.060885
31
0.0
0
LINE
8
0
6
CONTINUOUS
10
-35.500025
20
-27.060875
30
0.0
11
-42.331495
21
-27.060875
31
0.0
0
LINE
8
0
6
CONTINUOUS
10
-42.500025
20
-27.060885
30
0.0
11
-35.500025
21
-27.060885
31
0.0
0
LINE
8
0
6
CONTINUOUS
10
-28.668535
20
-27.060865
30
0.0
11
-28.500005
21
-27.060885
31
0.0
0
LINE
8
0
6
CONTINUOUS
10
-35.500025
20
-27.060885
30
0.0
11
-35.500025
21
-27.397075
31
0.0
0
LINE
8
0
6
CONTINUOUS
10
-28.500035
20
-27.397075
30
0.0
11
-28.500035
21
-27.060895
31
0.0
0
LINE
8
0
6
CONTINUOUS
10
-28.668565
20
-27.060875
30
0.0
11
-35.500025
21
-27.060875
31
0.0
0
LINE
8
0
6
CONTINUOUS
10
-35.500025
20
-27.060885
30
0.0
11
-28.500035
21
-27.060895
31
0.0
0
LINE
8
0
6
CONTINUOUS
10
-49.500006
20
65.711303
30
0.0
11
-49.500015
21
-26.639175
31
0.0
0
LINE
8
0
6
CONTINUOUS
10
-28.500026
20
60.501125
30
0.0
11
-28.500035
21
-26.639175
31
0.0
0
LINE
8
0
6
CONTINUOUS
10
-47.624375
20
61.130794
30
0.0
11
-47.624375
21
-26.639155
31
0.0
0
LINE
8
0
6
CONTINUOUS
10
-42.500034
20
60.501169
30
0.0
11
-42.500025
21
-26.639165
31
0.0
0
LINE
8
0
6
CONTINUOUS
10
-35.500025
20
-26.639195
30
0.0
11
-35.500025
21
60.332377
31
0.0
0
LINE
8
0
6
CONTINUOUS
10
-21.500015
20
-26.639165
30
0.0
11
-21.500015
21
65.711281
31
0.0
0
LINE
8
0
6
CONTINUOUS
10
-23.375675
20
61.130762
30
0.0
11
-23.375675
21
-26.639175
31
0.0
0
LINE
8
0
6
CONTINUOUS
10
-23.013065
20
65.317385
30
0.0
11
-21.081345
21
65.820275
31
0.0
0
LINE
8
0
6
CONTINUOUS
10
-28.290675
20
66.691325
30
0.0
11
-23.013085
21
66.323165
31
0.0
0
LINE
8
0
6
CONTINUOUS
10
-23.013085
20
66.323165
30
0.0
11
-21.081345
21
65.820275
31
0.0
0
LINE
8
0
6
CONTINUOUS
10
-23.013085
20
67.282065
30
0.0
11
-23.013085
21
66.323165
31
0.0
0
LINE
8
0
6
CONTINUOUS
10
-21.081345
20
65.820275
30
0.0
11
-21.081345
21
66.779175
31
0.0
0
LINE
8
0
6
CONTINUOUS
10
-47.986825
20
65.317345
30
0.0
11
-47.628565
21
65.292356
31
0.0
0
LINE
8
0
6
CONTINUOUS
10
-23.371355
20
65.292391
30
0.0
11
-23.013065
21
65.317385
31
0.0
0
LINE
8
0
6
CONTINUOUS
10
-42.709285
20
66.691325
30
0.0
11
-35.499985
21
66.826055
31
0.0
0
LINE
8
0
6
CONTINUOUS
10
-49.918565
20
65.820275
30
0.0
11
-47.986825
21
65.317345
31
0.0
0
LINE
8
0
6
CONTINUOUS
10
-49.918565
20
65.820275
30
0.0
11
-47.986855
21
66.323165
31
0.0
0
LINE
8
0
6
CONTINUOUS
10
-49.918565
20
66.779175
30
0.0
11
-49.918565
21
65.820275
31
0.0
0
LINE
8
0
6
CONTINUOUS
10
-47.986855
20
66.323165
30
0.0
11
-42.709285
21
66.691325
31
0.0
0
LINE
8
0
6
CONTINUOUS
10
-47.986855
20
67.282045
30
0.0
11
-47.986855
21
66.323165
31
0.0
0
LINE
8
0
6
CONTINUOUS
10
-42.709285
20
66.691325
30
0.0
11
-42.709285
21
67.650225
31
0.0
0
LINE
8
0
6
CONTINUOUS
10
-35.499985
20
66.826055
30
0.0
11
-28.290675
21
66.691325
31
0.0
0
LINE
8
0
6
CONTINUOUS
10
-35.499985
20
67.784955
30
0.0
11
-35.499985
21
66.826055
31
0.0
0
LINE
8
0
6
CONTINUOUS
10
-28.290675
20
66.691325
30
0.0
11
-28.290675
21
67.650225
31
0.0
0
LINE
8
0
6
CONTINUOUS
10
-41.794865
20
162.046275
30
0.0
11
-41.794865
21
163.235325
31
0.0
0
LINE
8
0
6
CONTINUOUS
10
-48.089715
20
162.474745
30
0.0
11
-48.089715
21
161.285705
31
0.0
0
LINE
8
0
6
CONTINUOUS
10
-46.403025
20
161.724855
30
0.0
11
-46.403025
21
162.913895
31
0.0
0
LINE
8
0
6
CONTINUOUS
10
-24.596945
20
162.913895
30
0.0
11
-24.596945
21
161.724855
31
0.0
0
LINE
8
0
6
CONTINUOUS
10
-22.910225
20
161.285705
30
0.0
11
-22.910225
21
162.474745
31
0.0
0
LINE
8
0
6
CONTINUOUS
10
-35.499995
20
163.352965
30
0.0
11
-35.499995
21
162.163925
31
0.0
0
LINE
8
0
6
CONTINUOUS
10
-29.205115
20
162.046275
30
0.0
11
-29.205115
21
163.235325
31
0.0
0
LINE
8
0
6
CONTINUOUS
10
-35.499995
20
164.450685
30
0.0
11
-35.499995
21
170.520555
31
0.0
0
LINE
8
0
6
CONTINUOUS
10
-42.790025
20
164.314425
30
0.0
11
-42.790025
21
170.384295
31
0.0
0
LINE
8
0
6
CONTINUOUS
10
-50.080015
20
169.503475
30
0.0
11
-50.080015
21
163.433685
31
0.0
0
LINE
8
0
6
CONTINUOUS
10
-48.126675
20
163.942185
30
0.0
11
-48.126675
21
170.012055
31
0.0
0
LINE
8
0
6
CONTINUOUS
10
-28.209965
20
170.384295
30
0.0
11
-28.209965
21
164.314425
31
0.0
0
LINE
8
0
6
CONTINUOUS
10
-22.873295
20
170.011975
30
0.0
11
-22.873295
21
163.942185
31
0.0
0
LINE
8
0
6
CONTINUOUS
10
-20.919925
20
163.433685
30
0.0
11
-20.919925
21
169.503555
31
0.0
0
LINE
8
0
6
CONTINUOUS
10
-28.290685
20
161.677325
30
0.0
11
-35.499995
21
161.812055
31
0.0
0
LINE
8
0
6
CONTINUOUS
10
-35.499995
20
161.812055
30
0.0
11
-42.709295
21
161.677325
31
0.0
0
LINE
8
0
6
CONTINUOUS
10
-35.499995
20
161.332625
30
0.0
11
-35.499995
21
161.812055
31
0.0
0
LINE
8
0
6
CONTINUOUS
10
-42.709295
20
161.677325
30
0.0
11
-47.986865
21
161.309125
31
0.0
0
LINE
8
0
6
CONTINUOUS
10
-42.709295
20
161.197895
30
0.0
11
-42.709295
21
161.677325
31
0.0
0
LINE
8
0
6
CONTINUOUS
10
-28.290685
20
161.677325
30
0.0
11
-28.290685
21
161.197895
31
0.0
0
LINE
8
0
6
CONTINUOUS
10
-23.013105
20
161.309205
30
0.0
11
-28.290685
21
161.677325
31
0.0
0
LINE
8
0
6
CONTINUOUS
10
-49.918585
20
160.806275
30
0.0
11
-49.918585
21
160.326845
31
0.0
0
LINE
8
0
6
CONTINUOUS
10
-47.986865
20
161.309125
30
0.0
11
-49.918585
21
160.806275
31
0.0
0
LINE
8
0
6
CONTINUOUS
10
-47.986865
20
160.829695
30
0.0
11
-47.986865
21
161.309125
31
0.0
0
LINE
8
0
6
CONTINUOUS
10
-23.013105
20
161.309205
30
0.0
11
-23.013105
21
160.829775
31
0.0
0
LINE
8
0
6
CONTINUOUS
10
-21.081365
20
160.806275
30
0.0
11
-23.013105
21
161.309205
31
0.0
0
LINE
8
0
6
CONTINUOUS
10
-21.081365
20
160.326845
30
0.0
11
-21.081365
21
160.806275
31
0.0
0
LINE
8
0
6
CONTINUOUS
10
-35.499995
20
162.163925
30
0.0
11
-35.499995
21
161.684495
31
0.0
0
LINE
8
0
6
CONTINUOUS
10
-29.205115
20
162.046275
30
0.0
11
-29.205115
21
161.566845
31
0.0
0
LINE
8
0
6
CONTINUOUS
10
-24.596945
20
161.245345
30
0.0
11
-24.596945
21
161.724855
31
0.0
0
LINE
8
0
6
CONTINUOUS
10
-46.403025
20
161.724855
30
0.0
11
-46.403025
21
161.245425
31
0.0
0
LINE
8
0
6
CONTINUOUS
10
-41.794865
20
161.566845
30
0.0
11
-41.794865
21
162.046275
31
0.0
0
LINE
8
0
6
CONTINUOUS
10
-41.794865
20
163.714755
30
0.0
11
-35.499995
21
163.832395
31
0.0
0
LINE
8
0
6
CONTINUOUS
10
-46.403025
20
163.393325
30
0.0
11
-48.089715
21
162.954255
31
0.0
0
LINE
8
0
6
CONTINUOUS
10
-48.089715
20
162.954255
30
0.0
11
-48.089715
21
162.474745
31
0.0
0
LINE
8
0
6
CONTINUOUS
10
-22.910225
20
162.474745
30
0.0
11
-22.910225
21
162.954175
31
0.0
0
LINE
8
0
6
CONTINUOUS
10
-24.596945
20
163.393325
30
0.0
11
-22.910225
21
162.954175
31
0.0
0
LINE
8
0
6
CONTINUOUS
10
-35.499995
20
163.832395
30
0.0
11
-35.499995
21
163.352965
31
0.0
0
LINE
8
0
6
CONTINUOUS
10
-35.499995
20
163.832395
30
0.0
11
-29.205115
21
163.714755
31
0.0
0
LINE
8
0
6
CONTINUOUS
10
-29.205115
20
163.714755
30
0.0
11
-29.205115
21
163.235325
31
0.0
0
LINE
8
0
6
CONTINUOUS
10
-24.596945
20
162.913895
30
0.0
11
-24.596945
21
163.393325
31
0.0
0
LINE
8
0
6
CONTINUOUS
10
-29.205115
20
163.714755
30
0.0
11
-24.596945
21
163.393325
31
0.0
0
LINE
8
0
6
CONTINUOUS
10
-46.403025
20
163.393325
30
0.0
11
-46.403025
21
162.913895
31
0.0
0
LINE
8
0
6
CONTINUOUS
10
-41.794865
20
163.235325
30
0.0
11
-41.794865
21
163.714755
31
0.0
0
LINE
8
0
6
CONTINUOUS
10
-46.403025
20
163.393325
30
0.0
11
-41.794865
21
163.714755
31
0.0
0
LINE
8
0
6
CONTINUOUS
10
-42.790025
20
163.834995
30
0.0
11
-35.499995
21
163.971255
31
0.0
0
LINE
8
0
6
CONTINUOUS
10
-50.080015
20
163.433685
30
0.0
11
-50.080015
21
162.954175
31
0.0
0
LINE
8
0
6
CONTINUOUS
10
-48.126675
20
163.462755
30
0.0
11
-50.080015
21
162.954175
31
0.0
0
LINE
8
0
6
CONTINUOUS
10
-22.873295
20
163.462755
30
0.0
11
-20.919925
21
162.954255
31
0.0
0
LINE
8
0
6
CONTINUOUS
10
-20.919925
20
162.954255
30
0.0
11
-20.919925
21
163.433685
31
0.0
0
LINE
8
0
6
CONTINUOUS
10
-35.499995
20
163.971255
30
0.0
11
-28.209965
21
163.834995
31
0.0
0
LINE
8
0
6
CONTINUOUS
10
-35.499995
20
164.450685
30
0.0
11
-35.499995
21
163.971255
31
0.0
0
LINE
8
0
6
CONTINUOUS
10
-28.209965
20
163.834995
30
0.0
11
-22.873295
21
163.462755
31
0.0
0
LINE
8
0
6
CONTINUOUS
10
-28.209965
20
164.314425
30
0.0
11
-28.209965
21
163.834995
31
0.0
0
LINE
8
0
6
CONTINUOUS
10
-22.873295
20
163.462755
30
0.0
11
-22.873295
21
163.942185
31
0.0
0
LINE
8
0
6
CONTINUOUS
10
-48.126675
20
163.462755
30
0.0
11
-42.790025
21
163.834995
31
0.0
0
LINE
8
0
6
CONTINUOUS
10
-48.126675
20
163.942185
30
0.0
11
-48.126675
21
163.462755
31
0.0
0
LINE
8
0
6
CONTINUOUS
10
-42.790025
20
163.834995
30
0.0
11
-42.790025
21
164.314425
31
0.0
0
LINE
8
0
6
CONTINUOUS
10
-22.873265
20
162.445675
30
0.0
11
-20.919925
21
162.954255
31
0.0
0
LINE
8
0
6
CONTINUOUS
10
-50.080015
20
162.954175
30
0.0
11
-48.126655
21
162.445675
31
0.0
0
LINE
8
0
6
CONTINUOUS
10
-35.499995
20
170.999985
30
0.0
11
-42.790025
21
170.863725
31
0.0
0
LINE
8
0
6
CONTINUOUS
10
-48.126675
20
170.491485
30
0.0
11
-50.080015
21
169.982905
31
0.0
0
LINE
8
0
6
CONTINUOUS
10
-50.080015
20
169.982905
30
0.0
11
-50.080015
21
169.503475
31
0.0
0
LINE
8
0
6
CONTINUOUS
10
-20.919925
20
169.982985
30
0.0
11
-22.873295
21
170.491485
31
0.0
0
LINE
8
0
6
CONTINUOUS
10
-20.919925
20
169.503555
30
0.0
11
-20.919925
21
169.982985
31
0.0
0
LINE
8
0
6
CONTINUOUS
10
-35.499995
20
170.999985
30
0.0
11
-35.499995
21
170.520555
31
0.0
0
LINE
8
0
6
CONTINUOUS
10
-28.209965
20
170.863725
30
0.0
11
-35.499995
21
170.999985
31
0.0
0
LINE
8
0
6
CONTINUOUS
10
-28.209965
20
170.863725
30
0.0
11
-28.209965
21
170.384295
31
0.0
0
LINE
8
0
6
CONTINUOUS
10
-22.873295
20
170.491485
30
0.0
11
-28.209965
21
170.863725
31
0.0
0
LINE
8
0
6
CONTINUOUS
10
-22.873295
20
170.011975
30
0.0
11
-22.873295
21
170.491485
31
0.0
0
LINE
8
0
6
CONTINUOUS
10
-48.126675
20
170.491485
30
0.0
11
-48.126675
21
170.012055
31
0.0
0
LINE
8
0
6
CONTINUOUS
10
-42.790025
20
170.863725
30
0.0
11
-48.126675
21
170.491485
31
0.0
0
LINE
8
0
6
CONTINUOUS
10
-42.790025
20
170.384295
30
0.0
11
-42.790025
21
170.863725
31
0.0
0
LINE
8
0
6
CONTINUOUS
10
-21.081345
20
66.779175
30
0.0
11
-21.081355
21
117.009315
31
0.0
0
LINE
8
0
6
CONTINUOUS
10
-21.081355
20
137.487435
30
0.0
11
-21.081365
21
160.326845
31
0.0
0
LINE
8
0
6
CONTINUOUS
10
-42.709295
20
138.358475
30
0.0
11
-42.709295
21
161.197895
31
0.0
0
LINE
8
0
6
CONTINUOUS
10
-35.499995
20
161.332625
30
0.0
11
-35.499995
21
138.493215
31
0.0
0
LINE
8
0
6
CONTINUOUS
10
-35.499985
20
67.784955
30
0.0
11
-35.499995
21
118.015135
31
0.0
0
LINE
8
0
6
CONTINUOUS
10
-42.709295
20
117.880365
30
0.0
11
-42.709285
21
67.650225
31
0.0
0
LINE
8
0
6
CONTINUOUS
10
-23.013085
20
67.282065
30
0.0
11
-23.013095
21
117.512245
31
0.0
0
LINE
8
0
6
CONTINUOUS
10
-28.290685
20
117.880385
30
0.0
11
-28.290675
21
67.650225
31
0.0
0
LINE
8
0
6
CONTINUOUS
10
-28.290685
20
161.197895
30
0.0
11
-28.290685
21
138.358445
31
0.0
0
LINE
8
0
6
CONTINUOUS
10
-23.013095
20
137.990325
30
0.0
11
-23.013105
21
160.829775
31
0.0
0
LINE
8
0
6
CONTINUOUS
10
-49.918585
20
160.326845
30
0.0
11
-49.918575
21
137.487395
31
0.0
0
LINE
8
0
6
CONTINUOUS
10
-47.986865
20
137.990325
30
0.0
11
-47.986865
21
160.829695
31
0.0
0
LINE
8
0
6
CONTINUOUS
10
-47.986855
20
67.282045
30
0.0
11
-47.986865
21
117.512205
31
0.0
0
LINE
8
0
6
CONTINUOUS
10
-49.918575
20
117.009315
30
0.0
11
-49.918565
21
66.779175
31
0.0
0
LINE
8
0
6
CONTINUOUS
10
-50.028235
20
126.709785
30
0.0
11
-49.918575
21
117.009315
31
0.0
0
LINE
8
0
6
CONTINUOUS
10
-21.081355
20
117.009315
30
0.0
11
-20.956905
21
126.708205
31
0.0
0
LINE
8
0
6
CONTINUOUS
10
-20.956905
20
126.708205
30
0.0
11
-21.081355
21
137.487435
31
0.0
0
LINE
8
0
6
CONTINUOUS
10
-49.918575
20
137.487395
30
0.0
11
-50.028235
21
126.709785
31
0.0
0
LINE
8
0
6
CONTINUOUS
10
-28.290685
20
138.358445
30
0.0
11
-28.290685
21
127.725815
31
0.0
0
LINE
8
0
6
CONTINUOUS
10
-47.986865
20
117.512205
30
0.0
11
-47.986865
21
127.357635
31
0.0
0
LINE
8
0
6
CONTINUOUS
10
-47.986865
20
127.357635
30
0.0
11
-47.986865
21
137.990325
31
0.0
0
LINE
8
0
6
CONTINUOUS
10
-42.709295
20
127.725815
30
0.0
11
-42.709295
21
117.880365
31
0.0
0
LINE
8
0
6
CONTINUOUS
10
-35.499995
20
118.015135
30
0.0
11
-35.499995
21
127.860565
31
0.0
0
LINE
8
0
6
CONTINUOUS
10
-42.709295
20
138.358475
30
0.0
11
-42.709295
21
127.725815
31
0.0
0
LINE
8
0
6
CONTINUOUS
10
-35.499995
20
127.860565
30
0.0
11
-35.499995
21
138.493215
31
0.0
0
LINE
8
0
6
CONTINUOUS
10
-23.013095
20
137.990325
30
0.0
11
-23.013095
21
127.357675
31
0.0
0
LINE
8
0
6
CONTINUOUS
10
-28.290685
20
127.725815
30
0.0
11
-28.290685
21
117.880385
31
0.0
0
LINE
8
0
6
CONTINUOUS
10
-23.013095
20
117.512245
30
0.0
11
-23.013095
21
127.357675
31
0.0
0
LINE
8
0
6
CONTINUOUS
10
-23.371355
20
61.131825
30
0.0
11
-23.371355
21
61.426395
31
0.0
0
LINE
8
0
6
CONTINUOUS
10
-24.996285
20
61.531525
30
0.0
11
-24.996285
21
61.826095
31
0.0
0
LINE
8
0
6
CONTINUOUS
10
-29.435675
20
61.824145
30
0.0
11
-29.435675
21
62.118725
31
0.0
0
LINE
8
0
6
CONTINUOUS
10
-35.499975
20
61.931265
30
0.0
11
-35.499975
21
62.225795
31
0.0
0
LINE
8
0
6
CONTINUOUS
10
-41.564275
20
61.824145
30
0.0
11
-41.564275
21
62.118725
31
0.0
0
LINE
8
0
6
CONTINUOUS
10
-46.003645
20
61.531565
30
0.0
11
-46.003645
21
61.826095
31
0.0
0
LINE
8
0
6
CONTINUOUS
10
-47.628565
20
61.426355
30
0.0
11
-47.628565
21
61.131825
31
0.0
0
LINE
8
0
6
CONTINUOUS
10
-29.435635
20
60.439455
30
0.0
11
-24.996265
21
60.732075
31
0.0
0
LINE
8
0
6
CONTINUOUS
10
-24.996265
20
60.732075
30
0.0
11
-23.371355
21
61.131825
31
0.0
0
LINE
8
0
6
CONTINUOUS
10
-23.371355
20
61.131825
30
0.0
11
-24.996285
21
61.531525
31
0.0
0
LINE
8
0
6
CONTINUOUS
10
-24.996285
20
61.531525
30
0.0
11
-29.435675
21
61.824145
31
0.0
0
LINE
8
0
6
CONTINUOUS
10
-29.435675
20
61.824145
30
0.0
11
-35.499975
21
61.931265
31
0.0
0
LINE
8
0
6
CONTINUOUS
10
-35.499975
20
61.931265
30
0.0
11
-41.564275
21
61.824145
31
0.0
0
LINE
8
0
6
CONTINUOUS
10
-41.564275
20
61.824145
30
0.0
11
-46.003645
21
61.531565
31
0.0
0
LINE
8
0
6
CONTINUOUS
10
-46.003645
20
61.531565
30
0.0
11
-47.628565
21
61.131825
31
0.0
0
LINE
8
0
6
CONTINUOUS
10
-47.628565
20
61.131825
30
0.0
11
-46.003635
21
60.732075
31
0.0
0
LINE
8
0
6
CONTINUOUS
10
-46.003635
20
60.732075
30
0.0
11
-41.564245
21
60.439495
31
0.0
0
LINE
8
0
6
CONTINUOUS
10
-41.564245
20
60.439495
30
0.0
11
-35.499935
21
60.332375
31
0.0
0
LINE
8
0
6
CONTINUOUS
10
-35.499935
20
60.454785
30
0.0
11
-30.364285
21
60.545505
31
0.0
0
LINE
8
0
6
CONTINUOUS
10
-30.364285
20
60.545505
30
0.0
11
-30.364285
21
60.658035
31
0.0
0
LINE
8
0
6
CONTINUOUS
10
-35.499935
20
60.454785
30
0.0
11
-35.499935
21
60.567285
31
0.0
0
LINE
8
0
6
CONTINUOUS
10
-23.371355
20
61.426395
30
0.0
11
-23.371355
21
65.292391
31
0.0
0
LINE
8
0
6
CONTINUOUS
10
-24.996285
20
61.826095
30
0.0
11
-24.996285
21
65.179037
31
0.0
0
LINE
8
0
6
CONTINUOUS
10
-29.435675
20
62.118725
30
0.0
11
-29.435675
21
64.927826
31
0.0
0
LINE
8
0
6
CONTINUOUS
10
-35.499975
20
62.225795
30
0.0
11
-35.499977
21
64.814496
31
0.0
0
LINE
8
0
6
CONTINUOUS
10
-41.564275
20
62.118725
30
0.0
11
-41.564275
21
64.927827
31
0.0
0
LINE
8
0
6
CONTINUOUS
10
-46.003645
20
61.826095
30
0.0
11
-46.003645
21
65.179015
31
0.0
0
LINE
8
0
6
CONTINUOUS
10
-47.628565
20
65.292356
30
0.0
11
-47.628565
21
61.426355
31
0.0
0
LINE
8
0
6
CONTINUOUS
10
-40.635605
20
60.545505
30
0.0
11
-40.635605
21
60.657995
31
0.0
0
LINE
8
0
6
CONTINUOUS
10
-44.395165
20
60.905795
30
0.0
11
-44.395165
21
60.793305
31
0.0
0
LINE
8
0
6
CONTINUOUS
10
-26.604725
20
60.793305
30
0.0
11
-30.364285
21
60.545505
31
0.0
0
LINE
8
0
6
CONTINUOUS
10
-26.604745
20
61.470335
30
0.0
11
-25.228645
21
61.131825
31
0.0
0
LINE
8
0
6
CONTINUOUS
10
-30.364315
20
61.718135
30
0.0
11
-26.604745
21
61.470335
31
0.0
0
LINE
8
0
6
CONTINUOUS
10
-35.499975
20
61.808855
30
0.0
11
-30.364315
21
61.718135
31
0.0
0
LINE
8
0
6
CONTINUOUS
10
-40.635625
20
61.718135
30
0.0
11
-35.499975
21
61.808855
31
0.0
0
LINE
8
0
6
CONTINUOUS
10
-44.395185
20
61.470335
30
0.0
11
-40.635625
21
61.718135
31
0.0
0
LINE
8
0
6
CONTINUOUS
10
-45.771265
20
61.131825
30
0.0
11
-44.395185
21
61.470335
31
0.0
0
LINE
8
0
6
CONTINUOUS
10
-44.395165
20
60.793305
30
0.0
11
-45.771265
21
61.131825
31
0.0
0
LINE
8
0
6
CONTINUOUS
10
-40.635605
20
60.545505
30
0.0
11
-44.395165
21
60.793305
31
0.0
0
LINE
8
0
6
CONTINUOUS
10
-35.499935
20
60.454785
30
0.0
11
-40.635605
21
60.545505
31
0.0
0
LINE
8
0
6
CONTINUOUS
10
-44.395165
20
60.905795
30
0.0
11
-44.395165
21
61.643375
31
0.0
0
LINE
8
0
6
CONTINUOUS
10
-26.604725
20
60.905795
30
0.0
11
-26.604725
21
61.643335
31
0.0
0
LINE
8
0
6
CONTINUOUS
10
-30.364285
20
60.658035
30
0.0
11
-30.364285
21
61.395565
31
0.0
0
LINE
8
0
6
CONTINUOUS
10
-35.499935
20
60.567285
30
0.0
11
-35.499935
21
61.304815
31
0.0
0
LINE
8
0
6
CONTINUOUS
10
-40.635605
20
61.395565
30
0.0
11
-40.635605
21
60.657995
31
0.0
0
LINE
8
0
6
CONTINUOUS
10
-26.604725
20
60.793305
30
0.0
11
-25.228645
21
61.131825
31
0.0
0
LINE
8
0
6
CONTINUOUS
10
-26.604725
20
60.905795
30
0.0
11
-26.604725
21
60.793305
31
0.0
0
LINE
8
0
6
CONTINUOUS
10
-40.635605
20
61.395565
30
0.0
11
-35.499935
21
61.304815
31
0.0
0
LINE
8
0
6
CONTINUOUS
10
-44.395165
20
61.643375
30
0.0
11
-40.635605
21
61.395565
31
0.0
0
LINE
8
0
6
CONTINUOUS
10
-30.364285
20
61.395565
30
0.0
11
-26.604725
21
61.643335
31
0.0
0
LINE
8
0
6
CONTINUOUS
10
-35.499935
20
61.304815
30
0.0
11
-30.364285
21
61.395565
31
0.0
0
LINE
8
0
6
CONTINUOUS
10
-35.499935
20
60.332375
30
0.0
11
-29.435635
21
60.439455
31
0.0
0
LINE
8
0
6
CONTINUOUS
10
-3.500015
20
-170.477645
30
0.0
11
-3.500015
21
-159.522325
31
0.0
0
LINE
8
0
6
CONTINUOUS
10
-67.500015
20
-159.522325
30
0.0
11
-67.500015
21
-170.477645
31
0.0
0
LINE
8
0
6
CONTINUOUS
10
-3.500015
20
-170.999985
30
0.0
11
-3.500015
21
-170.477645
31
0.0
0
LINE
8
0
6
CONTINUOUS
10
-4.590385
20
-170.999985
30
0.0
11
-3.500015
21
-170.999985
31
0.0
0
LINE
8
0
6
CONTINUOUS
10
-7.787205
20
-170.999985
30
0.0
11
-4.590385
21
-170.999985
31
0.0
0
LINE
8
0
6
CONTINUOUS
10
-12.872585
20
-170.999985
30
0.0
11
-7.787205
21
-170.999985
31
0.0
0
LINE
8
0
6
CONTINUOUS
10
-19.500005
20
-170.999985
30
0.0
11
-12.872585
21
-170.999985
31
0.0
0
LINE
8
0
6
CONTINUOUS
10
-27.217795
20
-170.999985
30
0.0
11
-19.500005
21
-170.999985
31
0.0
0
LINE
8
0
6
CONTINUOUS
10
-35.500005
20
-170.999985
30
0.0
11
-27.217795
21
-170.999985
31
0.0
0
LINE
8
0
6
CONTINUOUS
10
-43.782215
20
-170.999985
30
0.0
11
-35.500005
21
-170.999985
31
0.0
0
LINE
8
0
6
CONTINUOUS
10
-51.500005
20
-170.999985
30
0.0
11
-43.782215
21
-170.999985
31
0.0
0
LINE
8
0
6
CONTINUOUS
10
-58.127425
20
-170.999985
30
0.0
11
-51.500005
21
-170.999985
31
0.0
0
LINE
8
0
6
CONTINUOUS
10
-63.212825
20
-170.999985
30
0.0
11
-58.127425
21
-170.999985
31
0.0
0
LINE
8
0
6
CONTINUOUS
10
-66.409635
20
-170.999985
30
0.0
11
-63.212825
21
-170.999985
31
0.0
0
LINE
8
0
6
CONTINUOUS
10
-67.500015
20
-170.999985
30
0.0
11
-66.409635
21
-170.999985
31
0.0
0
LINE
8
0
6
CONTINUOUS
10
-67.500015
20
-170.477645
30
0.0
11
-67.500015
21
-170.999985
31
0.0
0
LINE
8
0
6
CONTINUOUS
10
-3.500015
20
-158.999985
30
0.0
11
-4.590385
21
-158.999985
31
0.0
0
LINE
8
0
6
CONTINUOUS
10
-3.500015
20
-159.522325
30
0.0
11
-3.500015
21
-158.999985
31
0.0
0
LINE
8
0
6
CONTINUOUS
10
-4.590385
20
-158.999985
30
0.0
11
-7.787205
21
-158.999985
31
0.0
0
LINE
8
0
6
CONTINUOUS
10
-7.787205
20
-158.999985
30
0.0
11
-12.872585
21
-158.999985
31
0.0
0
LINE
8
0
6
CONTINUOUS
10
-12.872585
20
-158.999985
30
0.0
11
-19.500005
21
-158.999985
31
0.0
0
LINE
8
0
6
CONTINUOUS
10
-19.500005
20
-158.999985
30
0.0
11
-27.217795
21
-158.999985
31
0.0
0
LINE
8
0
6
CONTINUOUS
10
-27.217795
20
-158.999985
30
0.0
11
-35.500005
21
-158.999985
31
0.0
0
LINE
8
0
6
CONTINUOUS
10
-35.500005
20
-158.999985
30
0.0
11
-43.782215
21
-158.999985
31
0.0
0
LINE
8
0
6
CONTINUOUS
10
-43.782215
20
-158.999985
30
0.0
11
-51.500005
21
-158.999985
31
0.0
0
LINE
8
0
6
CONTINUOUS
10
-51.500005
20
-158.999985
30
0.0
11
-58.127425
21
-158.999985
31
0.0
0
LINE
8
0
6
CONTINUOUS
10
-58.127425
20
-158.999985
30
0.0
11
-63.212825
21
-158.999985
31
0.0
0
LINE
8
0
6
CONTINUOUS
10
-63.212825
20
-158.999985
30
0.0
11
-66.409635
21
-158.999985
31
0.0
0
LINE
8
0
6
CONTINUOUS
10
-67.500015
20
-158.999985
30
0.0
11
-67.500015
21
-159.522325
31
0.0
0
LINE
8
0
6
CONTINUOUS
10
-66.409635
20
-158.999985
30
0.0
11
-67.500015
21
-158.999985
31
0.0
0
LINE
8
0
6
CONTINUOUS
10
-49.500015
20
-69.433485
30
0.0
11
-49.500015
21
-74.491595
31
0.0
0
LINE
8
0
6
CONTINUOUS
10
-21.500015
20
-74.491595
30
0.0
11
-21.500015
21
-69.433485
31
0.0
0
LINE
8
0
6
CONTINUOUS
10
-21.500015
20
-46.174255
30
0.0
11
-21.500015
21
-29.196535
31
0.0
0
LINE
8
0
6
CONTINUOUS
10
-49.500015
20
-52.215705
30
0.0
11
-49.500015
21
-57.150035
31
0.0
0
LINE
8
0
6
CONTINUOUS
10
-21.500015
20
-158.999985
30
0.0
11
-21.500015
21
-81.652865
31
0.0
0
LINE
8
0
6
CONTINUOUS
10
-49.500015
20
-29.196535
30
0.0
11
-49.500015
21
-46.174255
31
0.0
0
LINE
8
0
6
CONTINUOUS
10
-49.500015
20
-74.491595
30
0.0
11
-49.500015
21
-78.072235
31
0.0
0
LINE
8
0
6
CONTINUOUS
10
-49.500015
20
-78.072235
30
0.0
11
-49.500015
21
-81.652865
31
0.0
0
LINE
8
0
6
CONTINUOUS
10
-21.500015
20
-78.072235
30
0.0
11
-21.500015
21
-74.491595
31
0.0
0
LINE
8
0
6
CONTINUOUS
10
-21.500015
20
-81.652865
30
0.0
11
-21.500015
21
-78.072235
31
0.0
0
LINE
8
0
6
CONTINUOUS
10
-49.500015
20
-81.652865
30
0.0
11
-49.500015
21
-158.999985
31
0.0
0
LINE
8
0
6
CONTINUOUS
10
-21.500015
20
-57.150035
30
0.0
11
-21.500015
21
-52.215705
31
0.0
0
LINE
8
0
6
CONTINUOUS
10
-49.500015
20
-57.150035
30
0.0
11
-49.500015
21
-63.291755
31
0.0
0
LINE
8
0
6
CONTINUOUS
10
-49.500015
20
-63.291755
30
0.0
11
-49.500015
21
-69.433485
31
0.0
0
LINE
8
0
6
CONTINUOUS
10
-21.500015
20
-63.291755
30
0.0
11
-21.500015
21
-57.150035
31
0.0
0
LINE
8
0
6
CONTINUOUS
10
-21.500015
20
-69.433485
30
0.0
11
-21.500015
21
-63.291755
31
0.0
0
LINE
8
0
6
CONTINUOUS
10
-21.500015
20
-52.215705
30
0.0
11
-21.500015
21
-46.174255
31
0.0
0
LINE
8
0
6
CONTINUOUS
10
-21.500015
20
-28.696525
30
0.0
11
-21.977055
21
-28.696525
31
0.0
0
LINE
8
0
6
CONTINUOUS
10
-21.500015
20
-29.196535
30
0.0
11
-21.500015
21
-28.696525
31
0.0
0
LINE
8
0
6
CONTINUOUS
10
-21.977055
20
-28.696525
30
0.0
11
-23.375655
21
-28.696525
31
0.0
0
LINE
8
0
6
CONTINUOUS
10
-23.375655
20
-28.696525
30
0.0
11
-25.600515
21
-28.696525
31
0.0
0
LINE
8
0
6
CONTINUOUS
10
-25.600515
20
-28.696525
30
0.0
11
-28.500015
21
-28.696525
31
0.0
0
LINE
8
0
6
CONTINUOUS
10
-28.500015
20
-28.696525
30
0.0
11
-31.876545
21
-28.696525
31
0.0
0
LINE
8
0
6
CONTINUOUS
10
-31.876545
20
-28.696525
30
0.0
11
-35.500015
21
-28.696525
31
0.0
0
LINE
8
0
6
CONTINUOUS
10
-35.500015
20
-28.696525
30
0.0
11
-39.123475
21
-28.696525
31
0.0
0
LINE
8
0
6
CONTINUOUS
10
-39.123475
20
-28.696525
30
0.0
11
-42.500005
21
-28.696525
31
0.0
0
LINE
8
0
6
CONTINUOUS
10
-42.500005
20
-28.696525
30
0.0
11
-45.399505
21
-28.696525
31
0.0
0
LINE
8
0
6
CONTINUOUS
10
-45.399505
20
-28.696525
30
0.0
11
-47.624365
21
-28.696525
31
0.0
0
LINE
8
0
6
CONTINUOUS
10
-47.624365
20
-28.696525
30
0.0
11
-49.022975
21
-28.696525
31
0.0
0
LINE
8
0
6
CONTINUOUS
10
-49.500015
20
-28.696525
30
0.0
11
-49.500015
21
-29.196535
31
0.0
0
LINE
8
0
6
CONTINUOUS
10
-49.022975
20
-28.696525
30
0.0
11
-49.500015
21
-28.696525
31
0.0
0
LINE
8
0
6
CONTINUOUS
10
-49.500015
20
-46.174255
30
0.0
11
-49.500015
21
-52.215705
31
0.0
0
LINE
8
0
6
CONTINUOUS
10
-21.500015
20
-108.944545
30
0.0
11
9.258215
21
-108.944545
31
0.0
0
LINE
8
0
6
CONTINUOUS
10
9.258215
20
-66.551235
30
0.0
11
-21.500015
21
-66.551242
31
0.0
0
LINE
8
0
6
CONTINUOUS
10
9.758225
20
-94.298015
30
0.0
11
9.758225
21
-87.747885
31
0.0
0
LINE
8
0
6
CONTINUOUS
10
9.758225
20
-100.206965
30
0.0
11
9.758225
21
-94.298015
31
0.0
0
LINE
8
0
6
CONTINUOUS
10
9.758225
20
-104.896335
30
0.0
11
9.758225
21
-100.206965
31
0.0
0
LINE
8
0
6
CONTINUOUS
10
9.758225
20
-107.907105
30
0.0
11
9.758225
21
-104.896335
31
0.0
0
LINE
8
0
6
CONTINUOUS
10
9.758215
20
-108.944545
30
0.0
11
9.758225
21
-107.907105
31
0.0
0
LINE
8
0
6
CONTINUOUS
10
9.258215
20
-108.944545
30
0.0
11
9.758215
21
-108.944545
31
0.0
0
LINE
8
0
6
CONTINUOUS
10
9.758225
20
-66.551235
30
0.0
11
9.258215
21
-66.551235
31
0.0
0
LINE
8
0
6
CONTINUOUS
10
9.758225
20
-67.588675
30
0.0
11
9.758225
21
-66.551235
31
0.0
0
LINE
8
0
6
CONTINUOUS
10
9.758225
20
-70.599455
30
0.0
11
9.758225
21
-67.588675
31
0.0
0
LINE
8
0
6
CONTINUOUS
10
9.758235
20
-75.288825
30
0.0
11
9.758225
21
-70.599455
31
0.0
0
LINE
8
0
6
CONTINUOUS
10
9.758225
20
-81.197775
30
0.0
11
9.758235
21
-75.288825
31
0.0
0
LINE
8
0
6
CONTINUOUS
10
9.758225
20
-87.747885
30
0.0
11
9.758225
21
-81.197775
31
0.0
0
LINE
8
0
6
CONTINUOUS
10
12.936485
20
-67.937355
30
0.0
11
9.758225
21
-67.937355
31
0.0
0
LINE
8
0
6
CONTINUOUS
10
9.758225
20
-107.558445
30
0.0
11
12.323765
21
-107.558445
31
0.0
0
LINE
8
0
6
CONTINUOUS
10
44.249905
20
-108.885945
30
0.0
11
46.778795
21
-108.885945
31
0.0
0
LINE
8
0
6
CONTINUOUS
10
40.679815
20
-66.609845
30
0.0
11
40.145605
21
-66.609845
31
0.0
0
LINE
8
0
6
CONTINUOUS
10
40.145595
20
-108.885945
30
0.0
11
40.679805
21
-108.885945
31
0.0
0
LINE
8
0
6
CONTINUOUS
10
12.323785
20
-71.572595
30
0.0
11
12.323775
21
-76.597465
31
0.0
0
LINE
8
0
6
CONTINUOUS
10
12.323775
20
-76.597465
30
0.0
11
12.323775
21
-82.713795
31
0.0
0
LINE
8
0
6
CONTINUOUS
10
12.323775
20
-82.713795
30
0.0
11
12.323775
21
-89.322895
31
0.0
0
LINE
8
0
6
CONTINUOUS
10
12.323775
20
-89.322895
30
0.0
11
12.323775
21
-95.777835
31
0.0
0
LINE
8
0
6
CONTINUOUS
10
12.323775
20
-95.777835
30
0.0
11
12.323765
21
-101.446745
31
0.0
0
LINE
8
0
6
CONTINUOUS
10
12.323765
20
-101.446745
30
0.0
11
12.323775
21
-105.774705
31
0.0
0
LINE
8
0
6
CONTINUOUS
10
12.323775
20
-105.774705
30
0.0
11
12.323775
21
-108.338075
31
0.0
0
LINE
8
0
6
CONTINUOUS
10
12.323775
20
-108.885955
30
0.0
11
12.823765
21
-108.885955
31
0.0
0
LINE
8
0
6
CONTINUOUS
10
12.323775
20
-108.338075
30
0.0
11
12.323775
21
-108.885955
31
0.0
0
LINE
8
0
6
CONTINUOUS
10
12.823775
20
-66.609835
30
0.0
11
12.323785
21
-66.609835
31
0.0
0
LINE
8
0
6
CONTINUOUS
10
12.323785
20
-66.609835
30
0.0
11
12.323785
21
-68.131125
31
0.0
0
LINE
8
0
6
CONTINUOUS
10
12.323785
20
-68.131125
30
0.0
11
12.323785
21
-71.572595
31
0.0
0
LINE
8
0
6
CONTINUOUS
10
67.500005
20
3.200835
30
0.0
11
67.500005
21
5.127945
31
0.0
0
LINE
8
0
6
CONTINUOUS
10
67.500005
20
5.127945
30
0.0
11
67.500005
21
7.034185
31
0.0
0
LINE
8
0
6
CONTINUOUS
10
41.179805
20
-98.831205
30
0.0
11
41.180535
21
-100.785975
31
0.0
0
LINE
8
0
6
CONTINUOUS
10
41.200405
20
-108.885945
30
0.0
11
41.721005
21
-108.885945
31
0.0
0
LINE
8
0
6
CONTINUOUS
10
40.679805
20
-108.885945
30
0.0
11
41.200405
21
-108.885945
31
0.0
0
LINE
8
0
6
CONTINUOUS
10
41.179815
20
-66.609845
30
0.0
11
40.679815
21
-66.609845
31
0.0
0
LINE
8
0
6
CONTINUOUS
10
47.278815
20
-105.774715
30
0.0
11
47.278815
21
-101.446745
31
0.0
0
LINE
8
0
6
CONTINUOUS
10
47.278815
20
-108.338075
30
0.0
11
47.278815
21
-105.774715
31
0.0
0
LINE
8
0
6
CONTINUOUS
10
46.778795
20
-108.885945
30
0.0
11
47.278805
21
-108.885945
31
0.0
0
LINE
8
0
6
CONTINUOUS
10
47.278805
20
-108.885945
30
0.0
11
47.278815
21
-108.338075
31
0.0
0
LINE
8
0
6
CONTINUOUS
10
47.278815
20
-101.446745
30
0.0
11
47.278805
21
-70.601075
31
0.0
0
LINE
8
0
6
CONTINUOUS
10
41.179815
20
3.207055
30
0.0
11
41.179815
21
2.883915
31
0.0
0
LINE
8
0
6
CONTINUOUS
10
41.550795
20
4.001025
30
0.0
11
41.179815
21
2.883915
31
0.0
0
LINE
8
0
6
CONTINUOUS
10
42.304465
20
9.443955
30
0.0
11
41.550795
21
8.489115
31
0.0
0
LINE
8
0
6
CONTINUOUS
10
43.527005
20
5.539185
30
0.0
11
42.304465
21
4.955865
31
0.0
0
LINE
8
0
6
CONTINUOUS
10
45.019605
20
10.302185
30
0.0
11
43.527005
21
10.027275
31
0.0
0
LINE
8
0
6
CONTINUOUS
10
65.090285
20
5.492595
30
0.0
11
63.660215
21
5.814055
31
0.0
0
LINE
8
0
6
CONTINUOUS
10
66.375365
20
9.443935
30
0.0
11
65.090475
21
9.981385
31
0.0
0
LINE
8
0
6
CONTINUOUS
10
67.110125
20
4.009815
30
0.0
11
66.375365
21
4.955865
31
0.0
0
LINE
8
0
6
CONTINUOUS
10
67.500005
20
7.371975
30
0.0
11
67.103635
21
8.494525
31
0.0
0
LINE
8
0
6
CONTINUOUS
10
67.500005
20
7.034185
30
0.0
11
67.500005
21
7.371975
31
0.0
0
LINE
8
0
6
CONTINUOUS
10
41.179815
20
-30.643315
30
0.0
11
41.179815
21
-35.008565
31
0.0
0
LINE
8
0
6
CONTINUOUS
10
45.019605
20
5.814075
30
0.0
11
63.660215
21
5.814055
31
0.0
0
LINE
8
0
6
CONTINUOUS
10
63.660215
20
10.302165
30
0.0
11
45.019605
21
10.302185
31
0.0
0
LINE
8
0
6
CONTINUOUS
10
58.396255
20
-21.340295
30
0.0
11
62.431045
21
-17.774205
31
0.0
0
LINE
8
0
6
CONTINUOUS
10
54.442515
20
-25.828475
30
0.0
11
58.396255
21
-21.340295
31
0.0
0
LINE
8
0
6
CONTINUOUS
10
51.171715
20
-30.555465
30
0.0
11
54.442515
21
-25.828475
31
0.0
0
LINE
8
0
6
CONTINUOUS
10
49.081835
20
-34.801655
30
0.0
11
51.171715
21
-30.555465
31
0.0
0
LINE
8
0
6
CONTINUOUS
10
47.278805
20
-70.601075
30
0.0
11
47.278815
21
-40.685165
31
0.0
0
LINE
8
0
6
CONTINUOUS
10
66.871145
20
-13.802915
30
0.0
11
67.500015
21
-11.803075
31
0.0
0
LINE
8
0
6
CONTINUOUS
10
65.360025
20
-15.534095
30
0.0
11
66.871145
21
-13.802915
31
0.0
0
LINE
8
0
6
CONTINUOUS
10
67.500015
20
-11.803075
30
0.0
11
67.500005
21
2.883915
31
0.0
0
LINE
8
0
6
CONTINUOUS
10
41.179815
20
-70.601055
30
0.0
11
41.179805
21
-98.831205
31
0.0
0
LINE
8
0
6
CONTINUOUS
10
41.179815
20
2.883915
30
0.0
11
41.179815
21
-11.803075
31
0.0
0
LINE
8
0
6
CONTINUOUS
10
41.179815
20
-11.803075
30
0.0
11
41.179815
21
-15.577045
31
0.0
0
LINE
8
0
6
CONTINUOUS
10
41.179815
20
-26.876735
30
0.0
11
41.179815
21
-30.643315
31
0.0
0
LINE
8
0
6
CONTINUOUS
10
41.179815
20
-15.577045
30
0.0
11
41.179815
21
-19.343605
31
0.0
0
LINE
8
0
6
CONTINUOUS
10
41.179815
20
-19.343605
30
0.0
11
41.179815
21
-23.110185
31
0.0
0
LINE
8
0
6
CONTINUOUS
10
41.179815
20
-23.110185
30
0.0
11
41.179815
21
-26.876735
31
0.0
0
LINE
8
0
6
CONTINUOUS
10
41.179815
20
-35.008565
30
0.0
11
41.179815
21
-38.813745
31
0.0
0
LINE
8
0
6
CONTINUOUS
10
41.179815
20
-40.685165
30
0.0
11
41.179815
21
-70.601055
31
0.0
0
LINE
8
0
6
CONTINUOUS
10
62.431045
20
-17.774205
30
0.0
11
65.360025
21
-15.534095
31
0.0
0
LINE
8
0
6
CONTINUOUS
10
66.375365
20
9.443935
30
0.0
11
66.375355
21
9.106135
31
0.0
0
LINE
8
0
6
CONTINUOUS
10
67.103635
20
8.494525
30
0.0
11
66.375365
21
9.443935
31
0.0
0
LINE
8
0
6
CONTINUOUS
10
67.500005
20
2.883915
30
0.0
11
67.500005
21
3.200835
31
0.0
0
LINE
8
0
6
CONTINUOUS
10
67.110125
20
4.009815
30
0.0
11
67.500005
21
2.883915
31
0.0
0
LINE
8
0
6
CONTINUOUS
10
66.375355
20
9.106135
30
0.0
11
66.375355
21
7.199895
31
0.0
0
LINE
8
0
6
CONTINUOUS
10
66.375355
20
7.199895
30
0.0
11
66.375355
21
5.272785
31
0.0
0
LINE
8
0
6
CONTINUOUS
10
65.090475
20
9.981385
30
0.0
11
63.660215
21
10.302165
31
0.0
0
LINE
8
0
6
CONTINUOUS
10
66.375365
20
4.955865
30
0.0
11
66.375355
21
5.272785
31
0.0
0
LINE
8
0
6
CONTINUOUS
10
65.090285
20
5.492595
30
0.0
11
66.375365
21
4.955865
31
0.0
0
LINE
8
0
6
CONTINUOUS
10
42.304465
20
9.443955
30
0.0
11
42.304465
21
9.106135
31
0.0
0
LINE
8
0
6
CONTINUOUS
10
43.527005
20
10.027275
30
0.0
11
42.304465
21
9.443955
31
0.0
0
LINE
8
0
6
CONTINUOUS
10
43.527005
20
5.539185
30
0.0
11
45.019605
21
5.814075
31
0.0
0
LINE
8
0
6
CONTINUOUS
10
42.304465
20
7.199895
30
0.0
11
42.304465
21
5.275895
31
0.0
0
LINE
8
0
6
CONTINUOUS
10
42.304465
20
9.106135
30
0.0
11
42.304465
21
7.199895
31
0.0
0
LINE
8
0
6
CONTINUOUS
10
41.179815
20
7.371995
30
0.0
11
41.179815
21
7.034185
31
0.0
0
LINE
8
0
6
CONTINUOUS
10
41.550795
20
8.489115
30
0.0
11
41.179815
21
7.371995
31
0.0
0
LINE
8
0
6
CONTINUOUS
10
42.304465
20
4.955865
30
0.0
11
42.304465
21
5.275895
31
0.0
0
LINE
8
0
6
CONTINUOUS
10
41.550795
20
4.001025
30
0.0
11
42.304465
21
4.955865
31
0.0
0
LINE
8
0
6
CONTINUOUS
10
41.179815
20
5.127945
30
0.0
11
41.179815
21
3.207055
31
0.0
0
LINE
8
0
6
CONTINUOUS
10
41.179815
20
7.034185
30
0.0
11
41.179815
21
5.127945
31
0.0
0
LINE
8
0
6
CONTINUOUS
10
41.179815
20
-38.813745
30
0.0
11
41.179815
21
-39.755385
31
0.0
0
LINE
8
0
6
CONTINUOUS
10
41.179815
20
-39.755385
30
0.0
11
41.179815
21
-40.685165
31
0.0
0
LINE
8
0
6
CONTINUOUS
10
47.278815
20
-40.685165
30
0.0
11
47.278815
21
-39.755385
31
0.0
0
LINE
8
0
6
CONTINUOUS
10
47.628915
20
-38.793485
30
0.0
11
49.081835
21
-34.801655
31
0.0
0
LINE
8
0
6
CONTINUOUS
10
47.278815
20
-39.755385
30
0.0
11
47.628915
21
-38.793485
31
0.0
0
LINE
8
0
6
CONTINUOUS
10
41.721005
20
-108.885945
30
0.0
11
44.249905
21
-108.885945
31
0.0
0
LINE
8
0
6
CONTINUOUS
10
12.823765
20
-108.885955
30
0.0
11
40.145595
21
-108.885945
31
0.0
0
LINE
8
0
6
CONTINUOUS
10
40.145605
20
-66.609845
30
0.0
11
12.823775
21
-66.609835
31
0.0
0
ENDSEC
0
EOF
