999
Erzeugt mit innoplus bad 
0
SECTION
2
HEADER
9
$ACADVER
1
AC1009
9
$DWGCODEPAGE
3
ISO8859-1
0
ENDSEC
0
SECTION
2
TABLES
0
TABLE
2
LAYER
70
1
0
LAYER
2
0
70
0
62
7
6
CONTINUOUS
0
ENDTAB
0
ENDSEC
0
SECTION
2
ENTITIES
0
LINE
8
0
6
CONTINUOUS
10
-9.264270
20
62.095475
30
0.0
11
-9.264270
21
61.305635
31
0.0
0
LINE
8
0
6
CONTINUOUS
10
-9.764270
20
59.052985
30
0.0
11
-9.764270
21
58.284395
31
0.0
0
LINE
8
0
6
CONTINUOUS
10
-9.764270
20
58.284395
30
0.0
11
-8.814310
21
58.284395
31
0.0
0
LINE
8
0
6
CONTINUOUS
10
-6.964270
20
62.864055
30
0.0
11
-6.964270
21
62.095475
31
0.0
0
LINE
8
0
6
CONTINUOUS
10
-4.608900
20
62.864055
30
0.0
11
-6.964270
21
62.864055
31
0.0
0
LINE
8
0
6
CONTINUOUS
10
-9.264270
20
62.864055
30
0.0
11
-9.264270
21
62.095475
31
0.0
0
LINE
8
0
6
CONTINUOUS
10
-8.814310
20
62.864055
30
0.0
11
-9.264270
21
62.864055
31
0.0
0
LINE
8
0
6
CONTINUOUS
10
-9.264270
20
62.095475
30
0.0
11
-8.814310
21
62.095475
31
0.0
0
LINE
8
0
6
CONTINUOUS
10
-9.764270
20
59.842795
30
0.0
11
-9.764270
21
59.052985
31
0.0
0
LINE
8
0
6
CONTINUOUS
10
-9.764270
20
59.052985
30
0.0
11
-8.814310
21
59.052985
31
0.0
0
LINE
8
0
6
CONTINUOUS
10
-8.464270
20
59.906525
30
0.0
11
-8.464270
21
59.137935
31
0.0
0
LINE
8
0
6
CONTINUOUS
10
-6.964270
20
62.095475
30
0.0
11
-6.964270
21
61.305635
31
0.0
0
LINE
8
0
6
CONTINUOUS
10
-4.608900
20
62.095475
30
0.0
11
-6.964270
21
62.095475
31
0.0
0
LINE
8
0
6
CONTINUOUS
10
-6.964270
20
61.305635
30
0.0
11
-4.608900
21
61.305635
31
0.0
0
LINE
8
0
6
CONTINUOUS
10
-8.464270
20
59.137935
30
0.0
11
-8.464270
21
58.348105
31
0.0
0
LINE
8
0
6
CONTINUOUS
10
-8.814310
20
59.864065
30
0.0
11
-9.764270
21
59.864065
31
0.0
0
LINE
8
0
6
CONTINUOUS
10
-9.764270
20
59.842795
30
0.0
11
-8.814310
21
59.842795
31
0.0
0
LINE
8
0
6
CONTINUOUS
10
-8.814310
20
61.305635
30
0.0
11
-9.264270
21
61.305635
31
0.0
0
LINE
8
0
6
CONTINUOUS
10
-9.264270
20
61.284385
30
0.0
11
-8.814310
21
61.284385
31
0.0
0
LINE
8
0
6
CONTINUOUS
10
-9.264270
20
56.096115
30
0.0
11
-9.264270
21
55.306285
31
0.0
0
LINE
8
0
6
CONTINUOUS
10
-9.764270
20
53.053625
30
0.0
11
-9.764270
21
52.285045
31
0.0
0
LINE
8
0
6
CONTINUOUS
10
-9.764270
20
52.285045
30
0.0
11
-8.814310
21
52.285045
31
0.0
0
LINE
8
0
6
CONTINUOUS
10
-6.964270
20
56.864705
30
0.0
11
-6.964270
21
56.096115
31
0.0
0
LINE
8
0
6
CONTINUOUS
10
-4.608900
20
56.864705
30
0.0
11
-6.964270
21
56.864705
31
0.0
0
LINE
8
0
6
CONTINUOUS
10
-9.264270
20
56.864705
30
0.0
11
-9.264270
21
56.096115
31
0.0
0
LINE
8
0
6
CONTINUOUS
10
-8.814310
20
56.864705
30
0.0
11
-9.264270
21
56.864705
31
0.0
0
LINE
8
0
6
CONTINUOUS
10
-9.264270
20
56.096115
30
0.0
11
-8.814310
21
56.096115
31
0.0
0
LINE
8
0
6
CONTINUOUS
10
-9.764270
20
53.843445
30
0.0
11
-9.764270
21
53.053625
31
0.0
0
LINE
8
0
6
CONTINUOUS
10
-9.764270
20
53.053625
30
0.0
11
-8.814310
21
53.053625
31
0.0
0
LINE
8
0
6
CONTINUOUS
10
-8.464270
20
53.907165
30
0.0
11
-8.464270
21
53.138585
31
0.0
0
LINE
8
0
6
CONTINUOUS
10
-6.964270
20
56.096115
30
0.0
11
-6.964270
21
55.306285
31
0.0
0
LINE
8
0
6
CONTINUOUS
10
-4.608900
20
56.096115
30
0.0
11
-6.964270
21
56.096115
31
0.0
0
LINE
8
0
6
CONTINUOUS
10
-6.964270
20
55.306285
30
0.0
11
-4.608900
21
55.306285
31
0.0
0
LINE
8
0
6
CONTINUOUS
10
-8.464270
20
53.138585
30
0.0
11
-8.464270
21
52.348745
31
0.0
0
LINE
8
0
6
CONTINUOUS
10
-8.814310
20
53.864705
30
0.0
11
-9.764270
21
53.864705
31
0.0
0
LINE
8
0
6
CONTINUOUS
10
-9.764270
20
53.843445
30
0.0
11
-8.814310
21
53.843445
31
0.0
0
LINE
8
0
6
CONTINUOUS
10
-8.814310
20
55.306285
30
0.0
11
-9.264270
21
55.306285
31
0.0
0
LINE
8
0
6
CONTINUOUS
10
-9.264270
20
55.285035
30
0.0
11
-8.814310
21
55.285035
31
0.0
0
LINE
8
0
6
CONTINUOUS
10
-9.264270
20
50.096755
30
0.0
11
-9.264270
21
49.306925
31
0.0
0
LINE
8
0
6
CONTINUOUS
10
-9.764270
20
47.054275
30
0.0
11
-9.764270
21
46.285695
31
0.0
0
LINE
8
0
6
CONTINUOUS
10
-9.764270
20
46.285695
30
0.0
11
-8.814310
21
46.285695
31
0.0
0
LINE
8
0
6
CONTINUOUS
10
-6.964270
20
50.865345
30
0.0
11
-6.964270
21
50.096755
31
0.0
0
LINE
8
0
6
CONTINUOUS
10
-4.608900
20
50.865345
30
0.0
11
-6.964270
21
50.865345
31
0.0
0
LINE
8
0
6
CONTINUOUS
10
-9.264270
20
50.865345
30
0.0
11
-9.264270
21
50.096755
31
0.0
0
LINE
8
0
6
CONTINUOUS
10
-8.814310
20
50.865345
30
0.0
11
-9.264270
21
50.865345
31
0.0
0
LINE
8
0
6
CONTINUOUS
10
-9.264270
20
50.096755
30
0.0
11
-8.814310
21
50.096755
31
0.0
0
LINE
8
0
6
CONTINUOUS
10
-9.764270
20
47.844085
30
0.0
11
-9.764270
21
47.054275
31
0.0
0
LINE
8
0
6
CONTINUOUS
10
-9.764270
20
47.054275
30
0.0
11
-8.814310
21
47.054275
31
0.0
0
LINE
8
0
6
CONTINUOUS
10
-8.464270
20
47.907815
30
0.0
11
-8.464270
21
47.139225
31
0.0
0
LINE
8
0
6
CONTINUOUS
10
-6.964270
20
50.096755
30
0.0
11
-6.964270
21
49.306925
31
0.0
0
LINE
8
0
6
CONTINUOUS
10
-4.608900
20
50.096755
30
0.0
11
-6.964270
21
50.096755
31
0.0
0
LINE
8
0
6
CONTINUOUS
10
-6.964270
20
49.306925
30
0.0
11
-4.608900
21
49.306925
31
0.0
0
LINE
8
0
6
CONTINUOUS
10
-8.464270
20
47.139225
30
0.0
11
-8.464270
21
46.349405
31
0.0
0
LINE
8
0
6
CONTINUOUS
10
-8.814310
20
47.865355
30
0.0
11
-9.764270
21
47.865355
31
0.0
0
LINE
8
0
6
CONTINUOUS
10
-9.764270
20
47.844085
30
0.0
11
-8.814310
21
47.844085
31
0.0
0
LINE
8
0
6
CONTINUOUS
10
-8.814310
20
49.306925
30
0.0
11
-9.264270
21
49.306925
31
0.0
0
LINE
8
0
6
CONTINUOUS
10
-9.264270
20
49.285675
30
0.0
11
-8.814310
21
49.285675
31
0.0
0
LINE
8
0
6
CONTINUOUS
10
-9.264270
20
44.097415
30
0.0
11
-9.264270
21
43.307585
31
0.0
0
LINE
8
0
6
CONTINUOUS
10
-9.764270
20
41.054925
30
0.0
11
-9.764270
21
40.286345
31
0.0
0
LINE
8
0
6
CONTINUOUS
10
-9.764270
20
40.286345
30
0.0
11
-8.814310
21
40.286345
31
0.0
0
LINE
8
0
6
CONTINUOUS
10
-6.964270
20
44.865995
30
0.0
11
-6.964270
21
44.097415
31
0.0
0
LINE
8
0
6
CONTINUOUS
10
-4.608900
20
44.865995
30
0.0
11
-6.964270
21
44.865995
31
0.0
0
LINE
8
0
6
CONTINUOUS
10
-9.264270
20
44.865995
30
0.0
11
-9.264270
21
44.097415
31
0.0
0
LINE
8
0
6
CONTINUOUS
10
-8.814310
20
44.865995
30
0.0
11
-9.264270
21
44.865995
31
0.0
0
LINE
8
0
6
CONTINUOUS
10
-9.264270
20
44.097415
30
0.0
11
-8.814310
21
44.097415
31
0.0
0
LINE
8
0
6
CONTINUOUS
10
-9.764270
20
41.844735
30
0.0
11
-9.764270
21
41.054925
31
0.0
0
LINE
8
0
6
CONTINUOUS
10
-9.764270
20
41.054925
30
0.0
11
-8.814310
21
41.054925
31
0.0
0
LINE
8
0
6
CONTINUOUS
10
-8.464270
20
41.908465
30
0.0
11
-8.464270
21
41.139875
31
0.0
0
LINE
8
0
6
CONTINUOUS
10
-6.964270
20
44.097415
30
0.0
11
-6.964270
21
43.307585
31
0.0
0
LINE
8
0
6
CONTINUOUS
10
-4.608900
20
44.097415
30
0.0
11
-6.964270
21
44.097415
31
0.0
0
LINE
8
0
6
CONTINUOUS
10
-6.964270
20
43.307585
30
0.0
11
-4.608900
21
43.307585
31
0.0
0
LINE
8
0
6
CONTINUOUS
10
-8.464270
20
41.139875
30
0.0
11
-8.464270
21
40.350045
31
0.0
0
LINE
8
0
6
CONTINUOUS
10
-8.814310
20
41.866005
30
0.0
11
-9.764270
21
41.866005
31
0.0
0
LINE
8
0
6
CONTINUOUS
10
-9.764270
20
41.844735
30
0.0
11
-8.814310
21
41.844735
31
0.0
0
LINE
8
0
6
CONTINUOUS
10
-8.814310
20
43.307585
30
0.0
11
-9.264270
21
43.307585
31
0.0
0
LINE
8
0
6
CONTINUOUS
10
-9.264270
20
43.286335
30
0.0
11
-8.814310
21
43.286335
31
0.0
0
LINE
8
0
6
CONTINUOUS
10
-9.264270
20
38.098055
30
0.0
11
-9.264270
21
37.308225
31
0.0
0
LINE
8
0
6
CONTINUOUS
10
-9.764270
20
35.055575
30
0.0
11
-9.764270
21
34.286985
31
0.0
0
LINE
8
0
6
CONTINUOUS
10
-9.764270
20
34.286985
30
0.0
11
-8.814310
21
34.286985
31
0.0
0
LINE
8
0
6
CONTINUOUS
10
-6.964270
20
38.866645
30
0.0
11
-6.964270
21
38.098055
31
0.0
0
LINE
8
0
6
CONTINUOUS
10
-4.608900
20
38.866645
30
0.0
11
-6.964270
21
38.866645
31
0.0
0
LINE
8
0
6
CONTINUOUS
10
-9.264270
20
38.866645
30
0.0
11
-9.264270
21
38.098055
31
0.0
0
LINE
8
0
6
CONTINUOUS
10
-8.814310
20
38.866645
30
0.0
11
-9.264270
21
38.866645
31
0.0
0
LINE
8
0
6
CONTINUOUS
10
-9.264270
20
38.098055
30
0.0
11
-8.814310
21
38.098055
31
0.0
0
LINE
8
0
6
CONTINUOUS
10
-9.764270
20
35.845385
30
0.0
11
-9.764270
21
35.055575
31
0.0
0
LINE
8
0
6
CONTINUOUS
10
-9.764270
20
35.055575
30
0.0
11
-8.814310
21
35.055575
31
0.0
0
LINE
8
0
6
CONTINUOUS
10
-8.464270
20
35.909105
30
0.0
11
-8.464270
21
35.140525
31
0.0
0
LINE
8
0
6
CONTINUOUS
10
-6.964270
20
38.098055
30
0.0
11
-6.964270
21
37.308225
31
0.0
0
LINE
8
0
6
CONTINUOUS
10
-4.608900
20
38.098055
30
0.0
11
-6.964270
21
38.098055
31
0.0
0
LINE
8
0
6
CONTINUOUS
10
-6.964270
20
37.308225
30
0.0
11
-4.608900
21
37.308225
31
0.0
0
LINE
8
0
6
CONTINUOUS
10
-8.464270
20
35.140525
30
0.0
11
-8.464270
21
34.350695
31
0.0
0
LINE
8
0
6
CONTINUOUS
10
-8.814310
20
35.866655
30
0.0
11
-9.764270
21
35.866655
31
0.0
0
LINE
8
0
6
CONTINUOUS
10
-9.764270
20
35.845385
30
0.0
11
-8.814310
21
35.845385
31
0.0
0
LINE
8
0
6
CONTINUOUS
10
-8.814310
20
37.308225
30
0.0
11
-9.264270
21
37.308225
31
0.0
0
LINE
8
0
6
CONTINUOUS
10
-9.264270
20
37.286975
30
0.0
11
-8.814310
21
37.286975
31
0.0
0
LINE
8
0
6
CONTINUOUS
10
-9.264270
20
32.098715
30
0.0
11
-9.264270
21
31.308875
31
0.0
0
LINE
8
0
6
CONTINUOUS
10
-9.764270
20
29.056225
30
0.0
11
-9.764270
21
28.287635
31
0.0
0
LINE
8
0
6
CONTINUOUS
10
-9.764270
20
28.287635
30
0.0
11
-8.814310
21
28.287635
31
0.0
0
LINE
8
0
6
CONTINUOUS
10
-6.964270
20
32.867295
30
0.0
11
-6.964270
21
32.098715
31
0.0
0
LINE
8
0
6
CONTINUOUS
10
-4.608900
20
32.867295
30
0.0
11
-6.964270
21
32.867295
31
0.0
0
LINE
8
0
6
CONTINUOUS
10
-9.264270
20
32.867295
30
0.0
11
-9.264270
21
32.098715
31
0.0
0
LINE
8
0
6
CONTINUOUS
10
-8.814310
20
32.867295
30
0.0
11
-9.264270
21
32.867295
31
0.0
0
LINE
8
0
6
CONTINUOUS
10
-9.264270
20
32.098715
30
0.0
11
-8.814310
21
32.098715
31
0.0
0
LINE
8
0
6
CONTINUOUS
10
-9.764270
20
29.846035
30
0.0
11
-9.764270
21
29.056225
31
0.0
0
LINE
8
0
6
CONTINUOUS
10
-9.764270
20
29.056225
30
0.0
11
-8.814310
21
29.056225
31
0.0
0
LINE
8
0
6
CONTINUOUS
10
-8.464270
20
29.909765
30
0.0
11
-8.464270
21
29.141175
31
0.0
0
LINE
8
0
6
CONTINUOUS
10
-6.964270
20
32.098715
30
0.0
11
-6.964270
21
31.308875
31
0.0
0
LINE
8
0
6
CONTINUOUS
10
-4.608900
20
32.098715
30
0.0
11
-6.964270
21
32.098715
31
0.0
0
LINE
8
0
6
CONTINUOUS
10
-6.964270
20
31.308875
30
0.0
11
-4.608900
21
31.308875
31
0.0
0
LINE
8
0
6
CONTINUOUS
10
-8.464270
20
29.141175
30
0.0
11
-8.464270
21
28.351345
31
0.0
0
LINE
8
0
6
CONTINUOUS
10
-8.814310
20
29.867305
30
0.0
11
-9.764270
21
29.867305
31
0.0
0
LINE
8
0
6
CONTINUOUS
10
-9.764270
20
29.846035
30
0.0
11
-8.814310
21
29.846035
31
0.0
0
LINE
8
0
6
CONTINUOUS
10
-8.814310
20
31.308875
30
0.0
11
-9.264270
21
31.308875
31
0.0
0
LINE
8
0
6
CONTINUOUS
10
-9.264270
20
31.287635
30
0.0
11
-8.814310
21
31.287635
31
0.0
0
LINE
8
0
6
CONTINUOUS
10
-9.264270
20
26.099355
30
0.0
11
-9.264270
21
25.309525
31
0.0
0
LINE
8
0
6
CONTINUOUS
10
-9.764270
20
23.056865
30
0.0
11
-9.764270
21
22.288285
31
0.0
0
LINE
8
0
6
CONTINUOUS
10
-9.764270
20
22.288285
30
0.0
11
-8.814310
21
22.288285
31
0.0
0
LINE
8
0
6
CONTINUOUS
10
-6.964270
20
26.867945
30
0.0
11
-6.964270
21
26.099355
31
0.0
0
LINE
8
0
6
CONTINUOUS
10
-4.608900
20
26.867945
30
0.0
11
-6.964270
21
26.867945
31
0.0
0
LINE
8
0
6
CONTINUOUS
10
-9.264270
20
26.867945
30
0.0
11
-9.264270
21
26.099355
31
0.0
0
LINE
8
0
6
CONTINUOUS
10
-8.814310
20
26.867945
30
0.0
11
-9.264270
21
26.867945
31
0.0
0
LINE
8
0
6
CONTINUOUS
10
-9.264270
20
26.099355
30
0.0
11
-8.814310
21
26.099355
31
0.0
0
LINE
8
0
6
CONTINUOUS
10
-9.764270
20
23.846685
30
0.0
11
-9.764270
21
23.056865
31
0.0
0
LINE
8
0
6
CONTINUOUS
10
-9.764270
20
23.056865
30
0.0
11
-8.814310
21
23.056865
31
0.0
0
LINE
8
0
6
CONTINUOUS
10
-8.464270
20
23.910405
30
0.0
11
-8.464270
21
23.141825
31
0.0
0
LINE
8
0
6
CONTINUOUS
10
-6.964270
20
26.099355
30
0.0
11
-6.964270
21
25.309525
31
0.0
0
LINE
8
0
6
CONTINUOUS
10
-4.608900
20
26.099355
30
0.0
11
-6.964270
21
26.099355
31
0.0
0
LINE
8
0
6
CONTINUOUS
10
-6.964270
20
25.309525
30
0.0
11
-4.608900
21
25.309525
31
0.0
0
LINE
8
0
6
CONTINUOUS
10
-8.464270
20
23.141825
30
0.0
11
-8.464270
21
22.351985
31
0.0
0
LINE
8
0
6
CONTINUOUS
10
-8.814310
20
23.867955
30
0.0
11
-9.764270
21
23.867955
31
0.0
0
LINE
8
0
6
CONTINUOUS
10
-9.764270
20
23.846685
30
0.0
11
-8.814310
21
23.846685
31
0.0
0
LINE
8
0
6
CONTINUOUS
10
-8.814310
20
25.309525
30
0.0
11
-9.264270
21
25.309525
31
0.0
0
LINE
8
0
6
CONTINUOUS
10
-9.264270
20
25.288275
30
0.0
11
-8.814310
21
25.288275
31
0.0
0
LINE
8
0
6
CONTINUOUS
10
-9.264270
20
20.100005
30
0.0
11
-9.264270
21
19.310165
31
0.0
0
LINE
8
0
6
CONTINUOUS
10
-9.764270
20
17.057515
30
0.0
11
-9.764270
21
16.288925
31
0.0
0
LINE
8
0
6
CONTINUOUS
10
-9.764270
20
16.288925
30
0.0
11
-8.814310
21
16.288925
31
0.0
0
LINE
8
0
6
CONTINUOUS
10
-6.964270
20
20.868585
30
0.0
11
-6.964270
21
20.100005
31
0.0
0
LINE
8
0
6
CONTINUOUS
10
-4.608900
20
20.868585
30
0.0
11
-6.964270
21
20.868585
31
0.0
0
LINE
8
0
6
CONTINUOUS
10
-9.264270
20
20.868585
30
0.0
11
-9.264270
21
20.100005
31
0.0
0
LINE
8
0
6
CONTINUOUS
10
-8.814310
20
20.868585
30
0.0
11
-9.264270
21
20.868585
31
0.0
0
LINE
8
0
6
CONTINUOUS
10
-9.264270
20
20.100005
30
0.0
11
-8.814310
21
20.100005
31
0.0
0
LINE
8
0
6
CONTINUOUS
10
-9.764270
20
17.847325
30
0.0
11
-9.764270
21
17.057515
31
0.0
0
LINE
8
0
6
CONTINUOUS
10
-9.764270
20
17.057515
30
0.0
11
-8.814310
21
17.057515
31
0.0
0
LINE
8
0
6
CONTINUOUS
10
-8.464270
20
17.911055
30
0.0
11
-8.464270
21
17.142465
31
0.0
0
LINE
8
0
6
CONTINUOUS
10
-6.964270
20
20.100005
30
0.0
11
-6.964270
21
19.310165
31
0.0
0
LINE
8
0
6
CONTINUOUS
10
-4.608900
20
20.100005
30
0.0
11
-6.964270
21
20.100005
31
0.0
0
LINE
8
0
6
CONTINUOUS
10
-6.964270
20
19.310165
30
0.0
11
-4.608900
21
19.310165
31
0.0
0
LINE
8
0
6
CONTINUOUS
10
-8.464270
20
17.142465
30
0.0
11
-8.464270
21
16.352635
31
0.0
0
LINE
8
0
6
CONTINUOUS
10
-8.814310
20
17.868595
30
0.0
11
-9.764270
21
17.868595
31
0.0
0
LINE
8
0
6
CONTINUOUS
10
-9.764270
20
17.847325
30
0.0
11
-8.814310
21
17.847325
31
0.0
0
LINE
8
0
6
CONTINUOUS
10
-8.814310
20
19.310165
30
0.0
11
-9.264270
21
19.310165
31
0.0
0
LINE
8
0
6
CONTINUOUS
10
-9.264270
20
19.288925
30
0.0
11
-8.814310
21
19.288925
31
0.0
0
LINE
8
0
6
CONTINUOUS
10
-9.264270
20
14.100645
30
0.0
11
-9.264270
21
13.310815
31
0.0
0
LINE
8
0
6
CONTINUOUS
10
-9.764270
20
11.058155
30
0.0
11
-9.764270
21
10.289575
31
0.0
0
LINE
8
0
6
CONTINUOUS
10
-9.764270
20
10.289575
30
0.0
11
-8.814310
21
10.289575
31
0.0
0
LINE
8
0
6
CONTINUOUS
10
-6.964270
20
14.869235
30
0.0
11
-6.964270
21
14.100645
31
0.0
0
LINE
8
0
6
CONTINUOUS
10
-4.608900
20
14.869235
30
0.0
11
-6.964270
21
14.869235
31
0.0
0
LINE
8
0
6
CONTINUOUS
10
-9.264270
20
14.869235
30
0.0
11
-9.264270
21
14.100645
31
0.0
0
LINE
8
0
6
CONTINUOUS
10
-8.814310
20
14.869235
30
0.0
11
-9.264270
21
14.869235
31
0.0
0
LINE
8
0
6
CONTINUOUS
10
-9.264270
20
14.100645
30
0.0
11
-8.814310
21
14.100645
31
0.0
0
LINE
8
0
6
CONTINUOUS
10
-9.764270
20
11.847975
30
0.0
11
-9.764270
21
11.058155
31
0.0
0
LINE
8
0
6
CONTINUOUS
10
-9.764270
20
11.058155
30
0.0
11
-8.814310
21
11.058155
31
0.0
0
LINE
8
0
6
CONTINUOUS
10
-8.464270
20
11.911695
30
0.0
11
-8.464270
21
11.143115
31
0.0
0
LINE
8
0
6
CONTINUOUS
10
-6.964270
20
14.100645
30
0.0
11
-6.964270
21
13.310815
31
0.0
0
LINE
8
0
6
CONTINUOUS
10
-4.608900
20
14.100645
30
0.0
11
-6.964270
21
14.100645
31
0.0
0
LINE
8
0
6
CONTINUOUS
10
-6.964270
20
13.310815
30
0.0
11
-4.608900
21
13.310815
31
0.0
0
LINE
8
0
6
CONTINUOUS
10
-8.464270
20
11.143115
30
0.0
11
-8.464270
21
10.353275
31
0.0
0
LINE
8
0
6
CONTINUOUS
10
-8.814310
20
11.869235
30
0.0
11
-9.764270
21
11.869235
31
0.0
0
LINE
8
0
6
CONTINUOUS
10
-9.764270
20
11.847975
30
0.0
11
-8.814310
21
11.847975
31
0.0
0
LINE
8
0
6
CONTINUOUS
10
-8.814310
20
13.310815
30
0.0
11
-9.264270
21
13.310815
31
0.0
0
LINE
8
0
6
CONTINUOUS
10
-9.264270
20
13.289565
30
0.0
11
-8.814310
21
13.289565
31
0.0
0
LINE
8
0
6
CONTINUOUS
10
-9.264270
20
8.101305
30
0.0
11
-9.264270
21
7.311465
31
0.0
0
LINE
8
0
6
CONTINUOUS
10
-9.764270
20
5.058815
30
0.0
11
-9.764270
21
4.290225
31
0.0
0
LINE
8
0
6
CONTINUOUS
10
-9.764270
20
4.290225
30
0.0
11
-8.814310
21
4.290225
31
0.0
0
LINE
8
0
6
CONTINUOUS
10
-6.964270
20
8.869885
30
0.0
11
-6.964270
21
8.101305
31
0.0
0
LINE
8
0
6
CONTINUOUS
10
-4.608900
20
8.869885
30
0.0
11
-6.964270
21
8.869885
31
0.0
0
LINE
8
0
6
CONTINUOUS
10
-9.264270
20
8.869885
30
0.0
11
-9.264270
21
8.101305
31
0.0
0
LINE
8
0
6
CONTINUOUS
10
-8.814310
20
8.869885
30
0.0
11
-9.264270
21
8.869885
31
0.0
0
LINE
8
0
6
CONTINUOUS
10
-9.264270
20
8.101305
30
0.0
11
-8.814310
21
8.101305
31
0.0
0
LINE
8
0
6
CONTINUOUS
10
-9.764270
20
5.848625
30
0.0
11
-9.764270
21
5.058815
31
0.0
0
LINE
8
0
6
CONTINUOUS
10
-9.764270
20
5.058815
30
0.0
11
-8.814310
21
5.058815
31
0.0
0
LINE
8
0
6
CONTINUOUS
10
-8.464270
20
5.912355
30
0.0
11
-8.464270
21
5.143765
31
0.0
0
LINE
8
0
6
CONTINUOUS
10
-6.964270
20
8.101305
30
0.0
11
-6.964270
21
7.311465
31
0.0
0
LINE
8
0
6
CONTINUOUS
10
-4.608900
20
8.101305
30
0.0
11
-6.964270
21
8.101305
31
0.0
0
LINE
8
0
6
CONTINUOUS
10
-6.964270
20
7.311465
30
0.0
11
-4.608900
21
7.311465
31
0.0
0
LINE
8
0
6
CONTINUOUS
10
-8.464270
20
5.143765
30
0.0
11
-8.464270
21
4.353935
31
0.0
0
LINE
8
0
6
CONTINUOUS
10
-8.814310
20
5.869895
30
0.0
11
-9.764270
21
5.869895
31
0.0
0
LINE
8
0
6
CONTINUOUS
10
-9.764270
20
5.848625
30
0.0
11
-8.814310
21
5.848625
31
0.0
0
LINE
8
0
6
CONTINUOUS
10
-8.814310
20
7.311465
30
0.0
11
-9.264270
21
7.311465
31
0.0
0
LINE
8
0
6
CONTINUOUS
10
-9.264270
20
7.290225
30
0.0
11
-8.814310
21
7.290225
31
0.0
0
LINE
8
0
6
CONTINUOUS
10
-9.264270
20
2.101955
30
0.0
11
-9.264270
21
1.312125
31
0.0
0
LINE
8
0
6
CONTINUOUS
10
-9.764270
20
-0.940535
30
0.0
11
-9.764270
21
-1.709115
31
0.0
0
LINE
8
0
6
CONTINUOUS
10
-9.764270
20
-1.709115
30
0.0
11
-8.814310
21
-1.709115
31
0.0
0
LINE
8
0
6
CONTINUOUS
10
-6.964270
20
2.870545
30
0.0
11
-6.964270
21
2.101955
31
0.0
0
LINE
8
0
6
CONTINUOUS
10
-4.608900
20
2.870545
30
0.0
11
-6.964270
21
2.870545
31
0.0
0
LINE
8
0
6
CONTINUOUS
10
-9.264270
20
2.870545
30
0.0
11
-9.264270
21
2.101955
31
0.0
0
LINE
8
0
6
CONTINUOUS
10
-8.814310
20
2.870545
30
0.0
11
-9.264270
21
2.870545
31
0.0
0
LINE
8
0
6
CONTINUOUS
10
-9.264270
20
2.101955
30
0.0
11
-8.814310
21
2.101955
31
0.0
0
LINE
8
0
6
CONTINUOUS
10
-9.764270
20
-0.150715
30
0.0
11
-9.764270
21
-0.940535
31
0.0
0
LINE
8
0
6
CONTINUOUS
10
-9.764270
20
-0.940535
30
0.0
11
-8.814310
21
-0.940535
31
0.0
0
LINE
8
0
6
CONTINUOUS
10
-8.464270
20
-0.086995
30
0.0
11
-8.464270
21
-0.855575
31
0.0
0
LINE
8
0
6
CONTINUOUS
10
-6.964270
20
2.101955
30
0.0
11
-6.964270
21
1.312125
31
0.0
0
LINE
8
0
6
CONTINUOUS
10
-4.608900
20
2.101955
30
0.0
11
-6.964270
21
2.101955
31
0.0
0
LINE
8
0
6
CONTINUOUS
10
-6.964270
20
1.312125
30
0.0
11
-4.608900
21
1.312125
31
0.0
0
LINE
8
0
6
CONTINUOUS
10
-8.464270
20
-0.855575
30
0.0
11
-8.464270
21
-1.645415
31
0.0
0
LINE
8
0
6
CONTINUOUS
10
-8.814310
20
-0.129455
30
0.0
11
-9.764270
21
-0.129455
31
0.0
0
LINE
8
0
6
CONTINUOUS
10
-9.764270
20
-0.150715
30
0.0
11
-8.814310
21
-0.150715
31
0.0
0
LINE
8
0
6
CONTINUOUS
10
-8.814310
20
1.312125
30
0.0
11
-9.264270
21
1.312125
31
0.0
0
LINE
8
0
6
CONTINUOUS
10
-9.264270
20
1.290875
30
0.0
11
-8.814310
21
1.290875
31
0.0
0
LINE
8
0
6
CONTINUOUS
10
-9.264270
20
-3.897395
30
0.0
11
-9.264270
21
-4.687235
31
0.0
0
LINE
8
0
6
CONTINUOUS
10
-6.964270
20
-3.128815
30
0.0
11
-6.964270
21
-3.897395
31
0.0
0
LINE
8
0
6
CONTINUOUS
10
-4.608900
20
-3.128815
30
0.0
11
-6.964270
21
-3.128815
31
0.0
0
LINE
8
0
6
CONTINUOUS
10
-9.264270
20
-3.128815
30
0.0
11
-9.264270
21
-3.897395
31
0.0
0
LINE
8
0
6
CONTINUOUS
10
-8.814310
20
-3.128815
30
0.0
11
-9.264270
21
-3.128815
31
0.0
0
LINE
8
0
6
CONTINUOUS
10
-9.264270
20
-3.897395
30
0.0
11
-8.814310
21
-3.897395
31
0.0
0
LINE
8
0
6
CONTINUOUS
10
-6.964270
20
-3.897395
30
0.0
11
-6.964270
21
-4.687235
31
0.0
0
LINE
8
0
6
CONTINUOUS
10
-4.608900
20
-3.897395
30
0.0
11
-6.964270
21
-3.897395
31
0.0
0
LINE
8
0
6
CONTINUOUS
10
-6.964270
20
-4.687235
30
0.0
11
-4.608900
21
-4.687235
31
0.0
0
LINE
8
0
6
CONTINUOUS
10
-8.814310
20
-4.687235
30
0.0
11
-9.264270
21
-4.687235
31
0.0
0
LINE
8
0
6
CONTINUOUS
10
-9.264270
20
-4.708485
30
0.0
11
-8.814310
21
-4.708485
31
0.0
0
LINE
8
0
6
CONTINUOUS
10
-14.544420
20
99.835515
30
0.0
11
-12.821240
21
96.562195
31
0.0
0
LINE
8
0
6
CONTINUOUS
10
15.165440
20
95.583665
30
0.0
11
15.165440
21
99.858915
31
0.0
0
LINE
8
0
6
CONTINUOUS
10
15.165440
20
87.033135
30
0.0
11
15.165440
21
91.308405
31
0.0
0
LINE
8
0
6
CONTINUOUS
10
15.165440
20
91.308405
30
0.0
11
15.165440
21
95.583665
31
0.0
0
LINE
8
0
6
CONTINUOUS
10
15.165440
20
99.858915
30
0.0
11
15.165440
21
101.297415
31
0.0
0
LINE
8
0
6
CONTINUOUS
10
15.165440
20
82.757895
30
0.0
11
15.165440
21
87.033135
31
0.0
0
LINE
8
0
6
CONTINUOUS
10
15.165440
20
101.297415
30
0.0
11
15.165440
21
102.009375
31
0.0
0
LINE
8
0
6
CONTINUOUS
10
-14.535880
20
102.326355
30
0.0
11
-14.974530
21
102.326355
31
0.0
0
LINE
8
0
6
CONTINUOUS
10
14.801840
20
102.326355
30
0.0
11
13.754090
21
102.326355
31
0.0
0
LINE
8
0
6
CONTINUOUS
10
4.290190
20
102.326355
30
0.0
11
0.890830
21
102.326355
31
0.0
0
LINE
8
0
6
CONTINUOUS
10
-13.473570
20
102.326355
30
0.0
11
-14.535880
21
102.326355
31
0.0
0
LINE
8
0
6
CONTINUOUS
10
-10.957180
20
102.326355
30
0.0
11
-13.473570
21
102.326355
31
0.0
0
LINE
8
0
6
CONTINUOUS
10
-2.353180
20
102.326355
30
0.0
11
-5.382700
21
102.326355
31
0.0
0
LINE
8
0
6
CONTINUOUS
10
-8.234500
20
102.326355
30
0.0
11
-10.957180
21
102.326355
31
0.0
0
LINE
8
0
6
CONTINUOUS
10
15.165440
20
102.326355
30
0.0
11
14.801840
21
102.326355
31
0.0
0
LINE
8
0
6
CONTINUOUS
10
15.165440
20
102.009375
30
0.0
11
15.165440
21
102.326355
31
0.0
0
LINE
8
0
6
CONTINUOUS
10
13.754090
20
102.326355
30
0.0
11
12.039920
21
102.326355
31
0.0
0
LINE
8
0
6
CONTINUOUS
10
0.890830
20
102.326355
30
0.0
11
-2.353180
21
102.326355
31
0.0
0
LINE
8
0
6
CONTINUOUS
10
9.801550
20
102.326355
30
0.0
11
7.165430
21
102.326355
31
0.0
0
LINE
8
0
6
CONTINUOUS
10
-5.382700
20
102.326355
30
0.0
11
-8.234500
21
102.326355
31
0.0
0
LINE
8
0
6
CONTINUOUS
10
12.039920
20
102.326355
30
0.0
11
9.801550
21
102.326355
31
0.0
0
LINE
8
0
6
CONTINUOUS
10
7.165430
20
102.326355
30
0.0
11
4.290190
21
102.326355
31
0.0
0
LINE
8
0
6
CONTINUOUS
10
-12.821240
20
96.562195
30
0.0
11
-11.206690
21
92.965605
31
0.0
0
LINE
8
0
6
CONTINUOUS
10
-11.206690
20
92.965605
30
0.0
11
-9.846270
21
88.763195
31
0.0
0
LINE
8
0
6
CONTINUOUS
10
-9.846270
20
88.763195
30
0.0
11
-8.990500
21
83.833165
31
0.0
0
LINE
8
0
6
CONTINUOUS
10
-15.185710
20
101.178355
30
0.0
11
-14.544420
21
99.835515
31
0.0
0
LINE
8
0
6
CONTINUOUS
10
-15.185710
20
102.326355
30
0.0
11
-15.185710
21
102.009375
31
0.0
0
LINE
8
0
6
CONTINUOUS
10
-14.974530
20
102.326355
30
0.0
11
-15.185710
21
102.326355
31
0.0
0
LINE
8
0
6
CONTINUOUS
10
-15.185710
20
102.009375
30
0.0
11
-15.185710
21
101.178355
31
0.0
0
LINE
8
0
6
CONTINUOUS
10
15.165440
20
78.286835
30
0.0
11
15.165440
21
82.757895
31
0.0
0
LINE
8
0
6
CONTINUOUS
10
-8.990500
20
83.833165
30
0.0
11
-8.818530
21
78.313235
31
0.0
0
LINE
8
0
6
CONTINUOUS
10
-0.988660
20
77.970945
30
0.0
11
1.594890
21
77.970945
31
0.0
0
LINE
8
0
6
CONTINUOUS
10
7.118270
20
77.970945
30
0.0
11
9.737490
21
77.970945
31
0.0
0
LINE
8
0
6
CONTINUOUS
10
1.594890
20
77.970945
30
0.0
11
4.254690
21
77.970945
31
0.0
0
LINE
8
0
6
CONTINUOUS
10
-6.976810
20
77.970945
30
0.0
11
-5.390590
21
77.970945
31
0.0
0
LINE
8
0
6
CONTINUOUS
10
-8.614530
20
77.970945
30
0.0
11
-8.561600
21
77.970945
31
0.0
0
LINE
8
0
6
CONTINUOUS
10
-8.814200
20
78.174365
30
0.0
11
-8.614530
21
77.970945
31
0.0
0
LINE
8
0
6
CONTINUOUS
10
9.737490
20
77.970945
30
0.0
11
11.951450
21
77.970945
31
0.0
0
LINE
8
0
6
CONTINUOUS
10
-8.445400
20
77.970945
30
0.0
11
-8.084170
21
77.970945
31
0.0
0
LINE
8
0
6
CONTINUOUS
10
-5.390590
20
77.970945
30
0.0
11
-3.354940
21
77.970945
31
0.0
0
LINE
8
0
6
CONTINUOUS
10
-3.354940
20
77.970945
30
0.0
11
-0.988660
21
77.970945
31
0.0
0
LINE
8
0
6
CONTINUOUS
10
14.958810
20
77.970945
30
0.0
11
15.165440
21
78.174365
31
0.0
0
LINE
8
0
6
CONTINUOUS
10
14.625910
20
77.970945
30
0.0
11
14.958810
21
77.970945
31
0.0
0
LINE
8
0
6
CONTINUOUS
10
-8.561600
20
77.970945
30
0.0
11
-8.445400
21
77.970945
31
0.0
0
LINE
8
0
6
CONTINUOUS
10
13.628020
20
77.970945
30
0.0
11
14.625910
21
77.970945
31
0.0
0
LINE
8
0
6
CONTINUOUS
10
-8.084170
20
77.970945
30
0.0
11
-6.976810
21
77.970945
31
0.0
0
LINE
8
0
6
CONTINUOUS
10
11.951450
20
77.970945
30
0.0
11
13.628020
21
77.970945
31
0.0
0
LINE
8
0
6
CONTINUOUS
10
4.254690
20
77.970945
30
0.0
11
7.118270
21
77.970945
31
0.0
0
LINE
8
0
6
CONTINUOUS
10
-8.572440
20
77.753735
30
0.0
11
-8.572440
21
77.494185
31
0.0
0
LINE
8
0
6
CONTINUOUS
10
14.943840
20
77.494185
30
0.0
11
14.943840
21
77.753735
31
0.0
0
LINE
8
0
6
CONTINUOUS
10
-8.814200
20
78.174365
30
0.0
11
-8.754540
21
78.174365
31
0.0
0
LINE
8
0
6
CONTINUOUS
10
-8.818530
20
78.313235
30
0.0
11
-8.814200
21
78.174365
31
0.0
0
LINE
8
0
6
CONTINUOUS
10
12.032730
20
78.174365
30
0.0
11
13.750870
21
78.174365
31
0.0
0
LINE
8
0
6
CONTINUOUS
10
1.584630
20
78.174365
30
0.0
11
4.262690
21
78.174365
31
0.0
0
LINE
8
0
6
CONTINUOUS
10
-8.628240
20
78.174365
30
0.0
11
-8.240990
21
78.174365
31
0.0
0
LINE
8
0
6
CONTINUOUS
10
14.801000
20
78.174365
30
0.0
11
15.165440
21
78.174365
31
0.0
0
LINE
8
0
6
CONTINUOUS
10
15.165440
20
78.174365
30
0.0
11
15.165440
21
78.286835
31
0.0
0
LINE
8
0
6
CONTINUOUS
10
-7.088020
20
78.174365
30
0.0
11
-5.468650
21
78.174365
31
0.0
0
LINE
8
0
6
CONTINUOUS
10
13.750870
20
78.174365
30
0.0
11
14.801000
21
78.174365
31
0.0
0
LINE
8
0
6
CONTINUOUS
10
9.789270
20
78.174365
30
0.0
11
12.032730
21
78.174365
31
0.0
0
LINE
8
0
6
CONTINUOUS
10
-1.018210
20
78.174365
30
0.0
11
1.584630
21
78.174365
31
0.0
0
LINE
8
0
6
CONTINUOUS
10
-5.468650
20
78.174365
30
0.0
11
-3.406240
21
78.174365
31
0.0
0
LINE
8
0
6
CONTINUOUS
10
-8.754540
20
78.174365
30
0.0
11
-8.628240
21
78.174365
31
0.0
0
LINE
8
0
6
CONTINUOUS
10
7.146390
20
78.174365
30
0.0
11
9.789270
21
78.174365
31
0.0
0
LINE
8
0
6
CONTINUOUS
10
-8.240990
20
78.174365
30
0.0
11
-7.088020
21
78.174365
31
0.0
0
LINE
8
0
6
CONTINUOUS
10
-3.406240
20
78.174365
30
0.0
11
-1.018210
21
78.174365
31
0.0
0
LINE
8
0
6
CONTINUOUS
10
4.262690
20
78.174365
30
0.0
11
7.146390
21
78.174365
31
0.0
0
LINE
8
0
6
CONTINUOUS
10
15.185710
20
-92.612385
30
0.0
11
15.185710
21
76.474205
31
0.0
0
LINE
8
0
6
CONTINUOUS
10
-8.814310
20
76.474205
30
0.0
11
-8.814310
21
62.864055
31
0.0
0
LINE
8
0
6
CONTINUOUS
10
-8.814310
20
61.284385
30
0.0
11
-8.814310
21
59.864065
31
0.0
0
LINE
8
0
6
CONTINUOUS
10
-8.814310
20
58.284395
30
0.0
11
-8.814310
21
56.864705
31
0.0
0
LINE
8
0
6
CONTINUOUS
10
-8.814310
20
55.285035
30
0.0
11
-8.814310
21
53.864705
31
0.0
0
LINE
8
0
6
CONTINUOUS
10
-8.814310
20
52.285045
30
0.0
11
-8.814310
21
50.865345
31
0.0
0
LINE
8
0
6
CONTINUOUS
10
-8.814310
20
49.285675
30
0.0
11
-8.814310
21
47.865355
31
0.0
0
LINE
8
0
6
CONTINUOUS
10
-8.814310
20
46.285695
30
0.0
11
-8.814310
21
44.865995
31
0.0
0
LINE
8
0
6
CONTINUOUS
10
-8.814310
20
43.286335
30
0.0
11
-8.814310
21
41.866005
31
0.0
0
LINE
8
0
6
CONTINUOUS
10
-8.814310
20
40.286345
30
0.0
11
-8.814310
21
38.866645
31
0.0
0
LINE
8
0
6
CONTINUOUS
10
-8.814310
20
37.286975
30
0.0
11
-8.814310
21
35.866655
31
0.0
0
LINE
8
0
6
CONTINUOUS
10
-8.814310
20
34.286985
30
0.0
11
-8.814310
21
32.867295
31
0.0
0
LINE
8
0
6
CONTINUOUS
10
-8.814310
20
31.287635
30
0.0
11
-8.814310
21
29.867305
31
0.0
0
LINE
8
0
6
CONTINUOUS
10
-8.814310
20
28.287635
30
0.0
11
-8.814310
21
26.867945
31
0.0
0
LINE
8
0
6
CONTINUOUS
10
-8.814310
20
25.288275
30
0.0
11
-8.814310
21
23.867955
31
0.0
0
LINE
8
0
6
CONTINUOUS
10
-8.814310
20
22.288285
30
0.0
11
-8.814310
21
20.868585
31
0.0
0
LINE
8
0
6
CONTINUOUS
10
-8.814310
20
19.288925
30
0.0
11
-8.814310
21
17.868595
31
0.0
0
LINE
8
0
6
CONTINUOUS
10
-8.814310
20
16.288925
30
0.0
11
-8.814310
21
14.869235
31
0.0
0
LINE
8
0
6
CONTINUOUS
10
-8.814310
20
13.289565
30
0.0
11
-8.814310
21
11.869235
31
0.0
0
LINE
8
0
6
CONTINUOUS
10
-8.814310
20
10.289575
30
0.0
11
-8.814310
21
8.869885
31
0.0
0
LINE
8
0
6
CONTINUOUS
10
-8.814310
20
7.290225
30
0.0
11
-8.814310
21
5.869895
31
0.0
0
LINE
8
0
6
CONTINUOUS
10
-8.814310
20
4.290225
30
0.0
11
-8.814310
21
2.870545
31
0.0
0
LINE
8
0
6
CONTINUOUS
10
-8.814310
20
1.290875
30
0.0
11
-8.814310
21
-0.129455
31
0.0
0
LINE
8
0
6
CONTINUOUS
10
-8.814310
20
-1.709115
30
0.0
11
-8.814310
21
-3.128815
31
0.0
0
LINE
8
0
6
CONTINUOUS
10
-8.814310
20
-4.708485
30
0.0
11
-8.814310
21
-92.612385
31
0.0
0
LINE
8
0
6
CONTINUOUS
10
-7.710720
20
77.373505
30
0.0
11
-7.710720
21
76.674365
31
0.0
0
LINE
8
0
6
CONTINUOUS
10
14.082120
20
76.674365
30
0.0
11
14.082120
21
77.373505
31
0.0
0
LINE
8
0
6
CONTINUOUS
10
13.654660
20
-101.684205
30
0.0
11
13.654660
21
-92.825815
31
0.0
0
LINE
8
0
6
CONTINUOUS
10
12.258690
20
-101.684205
30
0.0
11
13.654660
21
-101.684205
31
0.0
0
LINE
8
0
6
CONTINUOUS
10
8.420620
20
-101.684205
30
0.0
11
12.258690
21
-101.684205
31
0.0
0
LINE
8
0
6
CONTINUOUS
10
3.185700
20
-101.684205
30
0.0
11
8.420620
21
-101.684205
31
0.0
0
LINE
8
0
6
CONTINUOUS
10
-7.283260
20
-101.684205
30
0.0
11
-5.887280
21
-101.684205
31
0.0
0
LINE
8
0
6
CONTINUOUS
10
-7.283260
20
-92.825815
30
0.0
11
-7.283260
21
-101.684205
31
0.0
0
LINE
8
0
6
CONTINUOUS
10
-5.887280
20
-101.684205
30
0.0
11
-2.049190
21
-101.684205
31
0.0
0
LINE
8
0
6
CONTINUOUS
10
-2.049190
20
-101.684205
30
0.0
11
3.185700
21
-101.684205
31
0.0
0
LINE
8
0
6
CONTINUOUS
10
12.258690
20
-101.684205
30
0.0
11
8.420620
21
-101.684205
31
0.0
0
LINE
8
0
6
CONTINUOUS
10
8.088510
20
-102.326355
30
0.0
11
11.682660
21
-102.326355
31
0.0
0
LINE
8
0
6
CONTINUOUS
10
-6.618670
20
-102.326355
30
0.0
11
-5.311260
21
-102.326355
31
0.0
0
LINE
8
0
6
CONTINUOUS
10
-7.283260
20
-101.684205
30
0.0
11
-6.618670
21
-102.326355
31
0.0
0
LINE
8
0
6
CONTINUOUS
10
-5.887280
20
-101.684205
30
0.0
11
-7.283260
21
-101.684205
31
0.0
0
LINE
8
0
6
CONTINUOUS
10
3.185700
20
-102.326355
30
0.0
11
8.088510
21
-102.326355
31
0.0
0
LINE
8
0
6
CONTINUOUS
10
8.420620
20
-101.684205
30
0.0
11
3.185700
21
-101.684205
31
0.0
0
LINE
8
0
6
CONTINUOUS
10
13.654660
20
-101.684205
30
0.0
11
12.258690
21
-101.684205
31
0.0
0
LINE
8
0
6
CONTINUOUS
10
12.990070
20
-102.326355
30
0.0
11
13.654660
21
-101.684205
31
0.0
0
LINE
8
0
6
CONTINUOUS
10
11.682660
20
-102.326355
30
0.0
11
12.990070
21
-102.326355
31
0.0
0
LINE
8
0
6
CONTINUOUS
10
3.185700
20
-101.684205
30
0.0
11
-2.049190
21
-101.684205
31
0.0
0
LINE
8
0
6
CONTINUOUS
10
-1.717080
20
-102.326355
30
0.0
11
3.185700
21
-102.326355
31
0.0
0
LINE
8
0
6
CONTINUOUS
10
-2.049190
20
-101.684205
30
0.0
11
-5.887280
21
-101.684205
31
0.0
0
LINE
8
0
6
CONTINUOUS
10
-5.311260
20
-102.326355
30
0.0
11
-1.717080
21
-102.326355
31
0.0
0
LINE
8
0
6
CONTINUOUS
10
3.185700
20
77.373505
30
0.0
11
9.064790
21
77.373505
31
0.0
0
LINE
8
0
6
CONTINUOUS
10
-7.004680
20
77.373505
30
0.0
11
-2.693350
21
77.373505
31
0.0
0
LINE
8
0
6
CONTINUOUS
10
9.064790
20
77.373505
30
0.0
11
13.376090
21
77.373505
31
0.0
0
LINE
8
0
6
CONTINUOUS
10
-2.693350
20
77.373505
30
0.0
11
3.185700
21
77.373505
31
0.0
0
LINE
8
0
6
CONTINUOUS
10
-8.572440
20
77.494185
30
0.0
11
-8.572440
21
77.373505
31
0.0
0
LINE
8
0
6
CONTINUOUS
10
-8.572440
20
77.373505
30
0.0
11
-7.004680
21
77.373505
31
0.0
0
LINE
8
0
6
CONTINUOUS
10
14.943840
20
77.373505
30
0.0
11
14.943840
21
77.494185
31
0.0
0
LINE
8
0
6
CONTINUOUS
10
13.376090
20
77.373505
30
0.0
11
14.943840
21
77.373505
31
0.0
0
LINE
8
0
6
CONTINUOUS
10
15.185710
20
76.474205
30
0.0
11
15.185710
21
76.974205
31
0.0
0
LINE
8
0
6
CONTINUOUS
10
15.185710
20
76.974205
30
0.0
11
13.585710
21
76.974205
31
0.0
0
LINE
8
0
6
CONTINUOUS
10
-2.814290
20
76.974205
30
0.0
11
-7.214310
21
76.974205
31
0.0
0
LINE
8
0
6
CONTINUOUS
10
3.185700
20
76.974205
30
0.0
11
-2.814290
21
76.974205
31
0.0
0
LINE
8
0
6
CONTINUOUS
10
-8.814310
20
76.974205
30
0.0
11
-8.814310
21
76.474205
31
0.0
0
LINE
8
0
6
CONTINUOUS
10
-7.214310
20
76.974205
30
0.0
11
-8.814310
21
76.974205
31
0.0
0
LINE
8
0
6
CONTINUOUS
10
9.185720
20
76.974205
30
0.0
11
3.185700
21
76.974205
31
0.0
0
LINE
8
0
6
CONTINUOUS
10
13.585710
20
76.974205
30
0.0
11
9.185720
21
76.974205
31
0.0
0
LINE
8
0
6
CONTINUOUS
10
-2.693350
20
77.874415
30
0.0
11
-7.004680
21
77.874415
31
0.0
0
LINE
8
0
6
CONTINUOUS
10
14.943840
20
77.753735
30
0.0
11
14.943840
21
77.874415
31
0.0
0
LINE
8
0
6
CONTINUOUS
10
14.943840
20
77.874415
30
0.0
11
13.376090
21
77.874415
31
0.0
0
LINE
8
0
6
CONTINUOUS
10
13.376090
20
77.874415
30
0.0
11
9.064790
21
77.874415
31
0.0
0
LINE
8
0
6
CONTINUOUS
10
3.185700
20
77.874415
30
0.0
11
-2.693350
21
77.874415
31
0.0
0
LINE
8
0
6
CONTINUOUS
10
9.064790
20
77.874415
30
0.0
11
3.185700
21
77.874415
31
0.0
0
LINE
8
0
6
CONTINUOUS
10
-8.572440
20
77.874415
30
0.0
11
-8.572440
21
77.753735
31
0.0
0
LINE
8
0
6
CONTINUOUS
10
-7.004680
20
77.874415
30
0.0
11
-8.572440
21
77.874415
31
0.0
0
LINE
8
0
6
CONTINUOUS
10
-7.214310
20
-92.825815
30
0.0
11
-2.814290
21
-92.825815
31
0.0
0
LINE
8
0
6
CONTINUOUS
10
-2.814290
20
-92.825815
30
0.0
11
3.185700
21
-92.825815
31
0.0
0
LINE
8
0
6
CONTINUOUS
10
15.185710
20
-92.825815
30
0.0
11
15.185710
21
-92.612385
31
0.0
0
LINE
8
0
6
CONTINUOUS
10
13.585710
20
-92.825815
30
0.0
11
15.185710
21
-92.825815
31
0.0
0
LINE
8
0
6
CONTINUOUS
10
3.185700
20
-92.825815
30
0.0
11
9.185720
21
-92.825815
31
0.0
0
LINE
8
0
6
CONTINUOUS
10
-8.814310
20
-92.612385
30
0.0
11
-8.814310
21
-92.825815
31
0.0
0
LINE
8
0
6
CONTINUOUS
10
-8.814310
20
-92.825815
30
0.0
11
-7.214310
21
-92.825815
31
0.0
0
LINE
8
0
6
CONTINUOUS
10
9.185720
20
-92.825815
30
0.0
11
13.585710
21
-92.825815
31
0.0
0
ENDSEC
0
EOF
