999
Erzeugt mit innoplus bad 
0
SECTION
2
HEADER
9
$ACADVER
1
AC1009
9
$DWGCODEPAGE
3
ISO8859-1
0
ENDSEC
0
SECTION
2
TABLES
0
TABLE
2
LAYER
70
1
0
LAYER
2
0
70
0
62
7
6
CONTINUOUS
0
ENDTAB
0
ENDSEC
0
SECTION
2
ENTITIES
0
LINE
8
0
6
CONTINUOUS
10
88.213985
20
-12.005470
30
0.0
11
83.965535
21
-12.005470
31
0.0
0
LINE
8
0
6
CONTINUOUS
10
83.965535
20
-12.005470
30
0.0
11
80.879215
21
-12.005470
31
0.0
0
LINE
8
0
6
CONTINUOUS
10
80.879215
20
-12.005470
30
0.0
11
76.738135
21
-12.005460
31
0.0
0
LINE
8
0
6
CONTINUOUS
10
76.738135
20
-12.005460
30
0.0
11
72.597005
21
-12.005460
31
0.0
0
LINE
8
0
6
CONTINUOUS
10
72.597005
20
-12.005460
30
0.0
11
68.738115
21
-12.005460
31
0.0
0
LINE
8
0
6
CONTINUOUS
10
68.738115
20
-12.005460
30
0.0
11
65.424415
21
-12.005460
31
0.0
0
LINE
8
0
6
CONTINUOUS
10
65.424415
20
-12.005460
30
0.0
11
62.881715
21
-12.005470
31
0.0
0
LINE
8
0
6
CONTINUOUS
10
61.283305
20
-12.005460
30
0.0
11
60.738115
21
-12.005470
31
0.0
0
LINE
8
0
6
CONTINUOUS
10
61.283305
20
-12.005460
30
0.0
11
62.881715
21
-12.005470
31
0.0
0
LINE
8
0
6
CONTINUOUS
10
61.687495
20
-12.005460
30
0.0
11
61.283305
21
-12.005460
31
0.0
0
LINE
8
0
6
CONTINUOUS
10
60.515565
20
-11.702420
30
0.0
11
60.293015
21
-11.399370
31
0.0
0
LINE
8
0
6
CONTINUOUS
10
68.425295
20
-10.793250
30
0.0
11
60.394505
21
-10.793270
31
0.0
0
LINE
8
0
6
CONTINUOUS
10
60.515565
20
-11.702420
30
0.0
11
60.738115
21
-12.005470
31
0.0
0
LINE
8
0
6
CONTINUOUS
10
89.801545
20
-12.005470
30
0.0
11
85.413805
21
-12.005460
31
0.0
0
LINE
8
0
6
CONTINUOUS
10
85.413805
20
-12.005460
30
0.0
11
85.149575
21
-12.005460
31
0.0
0
LINE
8
0
6
CONTINUOUS
10
90.153695
20
-12.005470
30
0.0
11
88.213985
21
-12.005470
31
0.0
0
LINE
8
0
6
CONTINUOUS
10
60.293015
20
-11.399370
30
0.0
11
60.070465
21
-11.096320
31
0.0
0
LINE
8
0
6
CONTINUOUS
10
94.157475
20
-70.974530
30
0.0
11
94.157415
21
-12.106120
31
0.0
0
LINE
8
0
6
CONTINUOUS
10
59.847925
20
-12.106170
30
0.0
11
59.848005
21
-71.074080
31
0.0
0
LINE
8
0
6
CONTINUOUS
10
77.002665
20
-10.793250
30
0.0
11
68.425295
21
-10.793250
31
0.0
0
LINE
8
0
6
CONTINUOUS
10
83.965525
20
-71.744540
30
0.0
11
88.213985
21
-71.744540
31
0.0
0
LINE
8
0
6
CONTINUOUS
10
80.879225
20
-71.744540
30
0.0
11
83.965525
21
-71.744540
31
0.0
0
LINE
8
0
6
CONTINUOUS
10
76.738125
20
-71.744540
30
0.0
11
80.879225
21
-71.744540
31
0.0
0
LINE
8
0
6
CONTINUOUS
10
72.597015
20
-71.744540
30
0.0
11
76.738125
21
-71.744540
31
0.0
0
LINE
8
0
6
CONTINUOUS
10
68.738105
20
-71.744540
30
0.0
11
72.597015
21
-71.744540
31
0.0
0
LINE
8
0
6
CONTINUOUS
10
65.424405
20
-71.744530
30
0.0
11
68.738105
21
-71.744540
31
0.0
0
LINE
8
0
6
CONTINUOUS
10
62.881715
20
-71.744540
30
0.0
11
65.424405
21
-71.744530
31
0.0
0
LINE
8
0
6
CONTINUOUS
10
61.283295
20
-71.744540
30
0.0
11
62.881715
21
-71.744540
31
0.0
0
LINE
8
0
6
CONTINUOUS
10
60.738115
20
-71.744540
30
0.0
11
61.283295
21
-71.744540
31
0.0
0
LINE
8
0
6
CONTINUOUS
10
60.515585
20
-71.744540
30
0.0
11
60.738115
21
-71.744540
31
0.0
0
LINE
8
0
6
CONTINUOUS
10
60.293055
20
-71.744540
30
0.0
11
60.515585
21
-71.744540
31
0.0
0
LINE
8
0
6
CONTINUOUS
10
60.070535
20
-71.744540
30
0.0
11
60.293055
21
-71.744540
31
0.0
0
LINE
8
0
6
CONTINUOUS
10
70.734315
20
-12.005450
30
0.0
11
73.630295
21
-12.005460
31
0.0
0
LINE
8
0
6
CONTINUOUS
10
76.738095
20
-12.005450
30
0.0
11
79.845885
21
-12.005460
31
0.0
0
LINE
8
0
6
CONTINUOUS
10
84.046345
20
-12.005460
30
0.0
11
84.437985
21
-12.005460
31
0.0
0
LINE
8
0
6
CONTINUOUS
10
73.630295
20
-12.005460
30
0.0
11
76.738095
21
-12.005450
31
0.0
0
LINE
8
0
6
CONTINUOUS
10
65.139685
20
-12.005460
30
0.0
11
66.339225
21
-12.005460
31
0.0
0
LINE
8
0
6
CONTINUOUS
10
66.339225
20
-12.005460
30
0.0
11
68.247475
21
-12.005450
31
0.0
0
LINE
8
0
6
CONTINUOUS
10
79.845885
20
-12.005460
30
0.0
11
81.920435
21
-12.005460
31
0.0
0
LINE
8
0
6
CONTINUOUS
10
64.338925
20
-12.005460
30
0.0
11
64.730555
21
-12.005460
31
0.0
0
LINE
8
0
6
CONTINUOUS
10
64.730555
20
-12.005460
30
0.0
11
65.139685
21
-12.005460
31
0.0
0
LINE
8
0
6
CONTINUOUS
10
68.247475
20
-12.005450
30
0.0
11
70.734315
21
-12.005450
31
0.0
0
LINE
8
0
6
CONTINUOUS
10
94.157415
20
-12.106120
30
0.0
11
94.157395
21
-10.793220
31
0.0
0
LINE
8
0
6
CONTINUOUS
10
59.847915
20
-10.793270
30
0.0
11
59.847925
21
-12.106170
31
0.0
0
LINE
8
0
6
CONTINUOUS
10
93.519425
20
-10.793230
30
0.0
11
85.580025
21
-10.793230
31
0.0
0
LINE
8
0
6
CONTINUOUS
10
84.092615
20
-12.005460
30
0.0
11
82.339975
21
-12.005460
31
0.0
0
LINE
8
0
6
CONTINUOUS
10
82.339975
20
-12.005460
30
0.0
11
79.947285
21
-12.005460
31
0.0
0
LINE
8
0
6
CONTINUOUS
10
79.947285
20
-12.005460
30
0.0
11
76.738135
21
-12.005460
31
0.0
0
LINE
8
0
6
CONTINUOUS
10
72.705305
20
-12.005460
30
0.0
11
76.738135
21
-12.005460
31
0.0
0
LINE
8
0
6
CONTINUOUS
10
73.528975
20
-12.005450
30
0.0
11
72.705305
21
-12.005460
31
0.0
0
LINE
8
0
6
CONTINUOUS
10
76.738135
20
-12.005460
30
0.0
11
73.528975
21
-12.005450
31
0.0
0
LINE
8
0
6
CONTINUOUS
10
64.761415
20
-12.005460
30
0.0
11
61.687495
21
-12.005460
31
0.0
0
LINE
8
0
6
CONTINUOUS
10
66.000105
20
-12.005460
30
0.0
11
64.761415
21
-12.005460
31
0.0
0
LINE
8
0
6
CONTINUOUS
10
84.437985
20
-12.005460
30
0.0
11
92.030375
21
-12.005460
31
0.0
0
LINE
8
0
6
CONTINUOUS
10
61.156565
20
-12.005460
30
0.0
11
64.338925
21
-12.005460
31
0.0
0
LINE
8
0
6
CONTINUOUS
10
88.213985
20
-71.744540
30
0.0
11
90.153705
21
-71.744540
31
0.0
0
LINE
8
0
6
CONTINUOUS
10
59.818185
20
-71.744540
30
0.0
11
60.070535
21
-71.744540
31
0.0
0
LINE
8
0
6
CONTINUOUS
10
94.157395
20
-10.793220
30
0.0
11
93.519425
21
-10.793230
31
0.0
0
LINE
8
0
6
CONTINUOUS
10
93.086285
20
-11.927440
30
0.0
11
94.157395
21
-10.793220
31
0.0
0
LINE
8
0
6
CONTINUOUS
10
91.726695
20
-71.744540
30
0.0
11
92.994935
21
-71.744540
31
0.0
0
LINE
8
0
6
CONTINUOUS
10
92.030375
20
-12.005460
30
0.0
11
92.994925
21
-12.005460
31
0.0
0
LINE
8
0
6
CONTINUOUS
10
85.149575
20
-12.005460
30
0.0
11
84.092615
21
-12.005460
31
0.0
0
LINE
8
0
6
CONTINUOUS
10
59.847915
20
-10.793270
30
0.0
11
60.070465
21
-11.096320
31
0.0
0
LINE
8
0
6
CONTINUOUS
10
60.394505
20
-10.793270
30
0.0
11
59.847915
21
-10.793270
31
0.0
0
LINE
8
0
6
CONTINUOUS
10
94.157475
20
-71.744540
30
0.0
11
94.157475
21
-70.974530
31
0.0
0
LINE
8
0
6
CONTINUOUS
10
93.086755
20
-71.744540
30
0.0
11
94.157475
21
-71.744540
31
0.0
0
LINE
8
0
6
CONTINUOUS
10
85.580025
20
-10.793230
30
0.0
11
77.002665
21
-10.793250
31
0.0
0
LINE
8
0
6
CONTINUOUS
10
92.994925
20
-12.005460
30
0.0
11
92.994925
21
-13.270800
31
0.0
0
LINE
8
0
6
CONTINUOUS
10
93.086285
20
-11.927440
30
0.0
11
92.994925
21
-12.005460
31
0.0
0
LINE
8
0
6
CONTINUOUS
10
84.046345
20
-12.005460
30
0.0
11
83.722495
21
-12.005460
31
0.0
0
LINE
8
0
6
CONTINUOUS
10
92.994925
20
-13.270800
30
0.0
11
92.994935
21
-70.904020
31
0.0
0
LINE
8
0
6
CONTINUOUS
10
92.994935
20
-70.904020
30
0.0
11
92.994935
21
-71.744540
31
0.0
0
LINE
8
0
6
CONTINUOUS
10
92.994935
20
-71.744540
30
0.0
11
93.086755
21
-71.744540
31
0.0
0
LINE
8
0
6
CONTINUOUS
10
81.920435
20
-12.005460
30
0.0
11
83.722495
21
-12.005460
31
0.0
0
LINE
8
0
6
CONTINUOUS
10
-44.796855
20
-41.372100
30
0.0
11
-39.721555
21
-48.140840
31
0.0
0
LINE
8
0
6
CONTINUOUS
10
-39.721555
20
-48.140840
30
0.0
11
-32.952795
21
-53.215160
31
0.0
0
LINE
8
0
6
CONTINUOUS
10
-39.721555
20
-2.353670
30
0.0
11
-44.796855
21
-9.122420
31
0.0
0
LINE
8
0
6
CONTINUOUS
10
-16.828925
20
7.099600
30
0.0
11
-25.189375
21
5.905020
31
0.0
0
LINE
8
0
6
CONTINUOUS
10
-32.952795
20
2.721630
30
0.0
11
-39.721555
21
-2.353670
31
0.0
0
LINE
8
0
6
CONTINUOUS
10
-25.189385
20
-56.400000
30
0.0
11
-16.828925
21
-57.595090
31
0.0
0
LINE
8
0
6
CONTINUOUS
10
-25.189375
20
5.905020
30
0.0
11
-32.952795
21
2.721630
31
0.0
0
LINE
8
0
6
CONTINUOUS
10
-32.952795
20
-53.215160
30
0.0
11
-25.189385
21
-56.400000
31
0.0
0
LINE
8
0
6
CONTINUOUS
10
-47.981695
20
-16.886320
30
0.0
11
-49.176765
21
-25.247260
31
0.0
0
LINE
8
0
6
CONTINUOUS
10
-44.796855
20
-9.122420
30
0.0
11
-47.981695
21
-16.886320
31
0.0
0
LINE
8
0
6
CONTINUOUS
10
-47.981695
20
-33.608190
30
0.0
11
-44.796855
21
-41.372100
31
0.0
0
LINE
8
0
6
CONTINUOUS
10
-49.176765
20
-25.247260
30
0.0
11
-47.981695
21
-33.608190
31
0.0
0
LINE
8
0
6
CONTINUOUS
10
6.063695
20
-48.140840
30
0.0
11
11.139005
21
-41.372100
31
0.0
0
LINE
8
0
6
CONTINUOUS
10
-0.705055
20
-53.215170
30
0.0
11
6.063695
21
-48.140840
31
0.0
0
LINE
8
0
6
CONTINUOUS
10
11.138995
20
-9.122420
30
0.0
11
6.063695
21
-2.353670
31
0.0
0
LINE
8
0
6
CONTINUOUS
10
-8.468475
20
5.905020
30
0.0
11
-16.828925
21
7.099600
31
0.0
0
LINE
8
0
6
CONTINUOUS
10
6.063695
20
-2.353670
30
0.0
11
-0.705055
21
2.721620
31
0.0
0
LINE
8
0
6
CONTINUOUS
10
-16.828925
20
-57.595090
30
0.0
11
-8.468475
21
-56.400000
31
0.0
0
LINE
8
0
6
CONTINUOUS
10
-0.705055
20
2.721620
30
0.0
11
-8.468475
21
5.905020
31
0.0
0
LINE
8
0
6
CONTINUOUS
10
-8.468475
20
-56.400000
30
0.0
11
-0.705055
21
-53.215170
31
0.0
0
LINE
8
0
6
CONTINUOUS
10
15.518915
20
-25.247260
30
0.0
11
14.323835
21
-16.886320
31
0.0
0
LINE
8
0
6
CONTINUOUS
10
14.323835
20
-16.886320
30
0.0
11
11.138995
21
-9.122420
31
0.0
0
LINE
8
0
6
CONTINUOUS
10
11.139005
20
-41.372100
30
0.0
11
14.323835
21
-33.608190
31
0.0
0
LINE
8
0
6
CONTINUOUS
10
14.323835
20
-33.608190
30
0.0
11
15.518915
21
-25.247260
31
0.0
0
LINE
8
0
6
CONTINUOUS
10
-78.691755
20
83.255270
30
0.0
11
-93.456195
21
83.255250
31
0.0
0
LINE
8
0
6
CONTINUOUS
10
-45.093625
20
-8.951310
30
0.0
11
-39.964475
21
-2.110730
31
0.0
0
LINE
8
0
6
CONTINUOUS
10
-25.278095
20
6.235590
30
0.0
11
-16.828925
21
7.442850
31
0.0
0
LINE
8
0
6
CONTINUOUS
10
-39.964475
20
-2.110730
30
0.0
11
-33.123895
21
3.018420
31
0.0
0
LINE
8
0
6
CONTINUOUS
10
-39.964475
20
-48.383770
30
0.0
11
-45.093635
21
-41.543200
31
0.0
0
LINE
8
0
6
CONTINUOUS
10
-16.828925
20
-57.938340
30
0.0
11
-25.278105
21
-56.730560
31
0.0
0
LINE
8
0
6
CONTINUOUS
10
-33.123895
20
3.018420
30
0.0
11
-25.278095
21
6.235590
31
0.0
0
LINE
8
0
6
CONTINUOUS
10
-25.278105
20
-56.730560
30
0.0
11
-33.123895
21
-53.511950
31
0.0
0
LINE
8
0
6
CONTINUOUS
10
-49.520015
20
-25.247260
30
0.0
11
-48.312275
21
-16.797600
31
0.0
0
LINE
8
0
6
CONTINUOUS
10
-33.123895
20
-53.511950
30
0.0
11
-39.964475
21
-48.383770
31
0.0
0
LINE
8
0
6
CONTINUOUS
10
-48.312275
20
-16.797600
30
0.0
11
-46.702955
21
-12.874450
31
0.0
0
LINE
8
0
6
CONTINUOUS
10
-45.093635
20
-41.543200
30
0.0
11
-48.312275
21
-33.696910
31
0.0
0
LINE
8
0
6
CONTINUOUS
10
-48.312275
20
-33.696910
30
0.0
11
-49.520015
21
-25.247260
31
0.0
0
LINE
8
0
6
CONTINUOUS
10
-46.435585
20
19.976970
30
0.0
11
-48.602865
21
22.868380
31
0.0
0
LINE
8
0
6
CONTINUOUS
10
-40.228345
20
43.060840
30
0.0
11
-36.657535
21
43.571350
31
0.0
0
LINE
8
0
6
CONTINUOUS
10
-48.602865
20
36.642490
30
0.0
11
-46.435595
21
39.533910
31
0.0
0
LINE
8
0
6
CONTINUOUS
10
-43.544165
20
41.701180
30
0.0
11
-40.228345
21
43.060840
31
0.0
0
LINE
8
0
6
CONTINUOUS
10
-40.228355
20
16.449830
30
0.0
11
-43.544175
21
17.810100
31
0.0
0
LINE
8
0
6
CONTINUOUS
10
-49.963145
20
33.326460
30
0.0
11
-48.602865
21
36.642490
31
0.0
0
LINE
8
0
6
CONTINUOUS
10
-48.602865
20
22.868380
30
0.0
11
-49.963145
21
26.184410
31
0.0
0
LINE
8
0
6
CONTINUOUS
10
-50.473865
20
29.755440
30
0.0
11
-49.963145
21
33.326460
31
0.0
0
LINE
8
0
6
CONTINUOUS
10
-36.657525
20
15.939100
30
0.0
11
-40.228355
21
16.449830
31
0.0
0
LINE
8
0
6
CONTINUOUS
10
-43.544175
20
17.810100
30
0.0
11
-46.435585
21
19.976970
31
0.0
0
LINE
8
0
6
CONTINUOUS
10
-46.435595
20
39.533910
30
0.0
11
-43.544165
21
41.701180
31
0.0
0
LINE
8
0
6
CONTINUOUS
10
-24.712175
20
22.868380
30
0.0
11
-26.879475
21
19.976970
31
0.0
0
LINE
8
0
6
CONTINUOUS
10
-36.657535
20
43.571350
30
0.0
11
-33.086705
21
43.060840
31
0.0
0
LINE
8
0
6
CONTINUOUS
10
-26.879465
20
39.533910
30
0.0
11
-24.712185
21
36.642490
31
0.0
0
LINE
8
0
6
CONTINUOUS
10
-33.086705
20
43.060840
30
0.0
11
-29.770885
21
41.701180
31
0.0
0
LINE
8
0
6
CONTINUOUS
10
-29.770885
20
17.810100
30
0.0
11
-33.086715
21
16.449830
31
0.0
0
LINE
8
0
6
CONTINUOUS
10
-24.712185
20
36.642490
30
0.0
11
-23.351915
21
33.326460
31
0.0
0
LINE
8
0
6
CONTINUOUS
10
-23.351915
20
26.184410
30
0.0
11
-24.712175
21
22.868380
31
0.0
0
LINE
8
0
6
CONTINUOUS
10
-23.351915
20
33.326460
30
0.0
11
-22.841195
21
29.755440
31
0.0
0
LINE
8
0
6
CONTINUOUS
10
-33.086715
20
16.449830
30
0.0
11
-36.657525
21
15.939100
31
0.0
0
LINE
8
0
6
CONTINUOUS
10
-26.879475
20
19.976970
30
0.0
11
-29.770885
21
17.810100
31
0.0
0
LINE
8
0
6
CONTINUOUS
10
-22.841195
20
29.755440
30
0.0
11
-23.351915
21
26.184410
31
0.0
0
LINE
8
0
6
CONTINUOUS
10
-29.770885
20
41.701180
30
0.0
11
-26.879465
21
39.533910
31
0.0
0
LINE
8
0
6
CONTINUOUS
10
-49.963145
20
26.184410
30
0.0
11
-50.473865
21
29.755440
31
0.0
0
LINE
8
0
6
CONTINUOUS
10
6.306615
20
-2.110730
30
0.0
11
11.435775
21
-8.951310
31
0.0
0
LINE
8
0
6
CONTINUOUS
10
-16.828925
20
7.442850
30
0.0
11
-8.379765
21
6.235590
31
0.0
0
LINE
8
0
6
CONTINUOUS
10
-0.533965
20
3.018420
30
0.0
11
6.306615
21
-2.110730
31
0.0
0
LINE
8
0
6
CONTINUOUS
10
11.435775
20
-41.543200
30
0.0
11
6.306615
21
-48.383760
31
0.0
0
LINE
8
0
6
CONTINUOUS
10
-8.379765
20
-56.730560
30
0.0
11
-16.828925
21
-57.938340
31
0.0
0
LINE
8
0
6
CONTINUOUS
10
-8.379765
20
6.235590
30
0.0
11
-0.533965
21
3.018420
31
0.0
0
LINE
8
0
6
CONTINUOUS
10
-0.533965
20
-53.511950
30
0.0
11
-8.379765
21
-56.730560
31
0.0
0
LINE
8
0
6
CONTINUOUS
10
14.654405
20
-16.797600
30
0.0
11
15.862155
21
-25.247250
31
0.0
0
LINE
8
0
6
CONTINUOUS
10
6.306615
20
-48.383760
30
0.0
11
-0.533965
21
-53.511950
31
0.0
0
LINE
8
0
6
CONTINUOUS
10
11.435775
20
-8.951310
30
0.0
11
13.045095
21
-12.874450
31
0.0
0
LINE
8
0
6
CONTINUOUS
10
14.654405
20
-33.696910
30
0.0
11
11.435775
21
-41.543200
31
0.0
0
LINE
8
0
6
CONTINUOUS
10
15.862155
20
-25.247250
30
0.0
11
14.654405
21
-33.696910
31
0.0
0
LINE
8
0
6
CONTINUOUS
10
14.945015
20
22.868390
30
0.0
11
12.777725
21
19.976970
31
0.0
0
LINE
8
0
6
CONTINUOUS
10
2.999675
20
43.571350
30
0.0
11
6.570495
21
43.060840
31
0.0
0
LINE
8
0
6
CONTINUOUS
10
12.777735
20
39.533910
30
0.0
11
14.945015
21
36.642490
31
0.0
0
LINE
8
0
6
CONTINUOUS
10
6.570495
20
43.060840
30
0.0
11
9.886315
21
41.701180
31
0.0
0
LINE
8
0
6
CONTINUOUS
10
9.886315
20
17.810100
30
0.0
11
6.570485
21
16.449830
31
0.0
0
LINE
8
0
6
CONTINUOUS
10
14.945015
20
36.642490
30
0.0
11
16.305295
21
33.326470
31
0.0
0
LINE
8
0
6
CONTINUOUS
10
16.305285
20
26.184410
30
0.0
11
14.945015
21
22.868390
31
0.0
0
LINE
8
0
6
CONTINUOUS
10
16.305295
20
33.326470
30
0.0
11
16.816015
21
29.755440
31
0.0
0
LINE
8
0
6
CONTINUOUS
10
6.570485
20
16.449830
30
0.0
11
2.999675
21
15.939100
31
0.0
0
LINE
8
0
6
CONTINUOUS
10
12.777725
20
19.976970
30
0.0
11
9.886315
21
17.810100
31
0.0
0
LINE
8
0
6
CONTINUOUS
10
9.886315
20
41.701180
30
0.0
11
12.777735
21
39.533910
31
0.0
0
LINE
8
0
6
CONTINUOUS
10
-6.778385
20
19.976970
30
0.0
11
-8.945675
21
22.868380
31
0.0
0
LINE
8
0
6
CONTINUOUS
10
-0.571155
20
43.060840
30
0.0
11
2.999675
21
43.571350
31
0.0
0
LINE
8
0
6
CONTINUOUS
10
-8.945665
20
36.642490
30
0.0
11
-6.778395
21
39.533910
31
0.0
0
LINE
8
0
6
CONTINUOUS
10
-3.886975
20
41.701180
30
0.0
11
-0.571155
21
43.060840
31
0.0
0
LINE
8
0
6
CONTINUOUS
10
-0.571145
20
16.449830
30
0.0
11
-3.886965
21
17.810100
31
0.0
0
LINE
8
0
6
CONTINUOUS
10
-10.305945
20
33.326470
30
0.0
11
-8.945665
21
36.642490
31
0.0
0
LINE
8
0
6
CONTINUOUS
10
-8.945675
20
22.868380
30
0.0
11
-10.305945
21
26.184410
31
0.0
0
LINE
8
0
6
CONTINUOUS
10
-10.816665
20
29.755440
30
0.0
11
-10.305945
21
33.326470
31
0.0
0
LINE
8
0
6
CONTINUOUS
10
2.999675
20
15.939100
30
0.0
11
-0.571145
21
16.449830
31
0.0
0
LINE
8
0
6
CONTINUOUS
10
-3.886965
20
17.810100
30
0.0
11
-6.778385
21
19.976970
31
0.0
0
LINE
8
0
6
CONTINUOUS
10
-10.305945
20
26.184410
30
0.0
11
-10.816665
21
29.755440
31
0.0
0
LINE
8
0
6
CONTINUOUS
10
-6.778395
20
39.533910
30
0.0
11
-3.886975
21
41.701180
31
0.0
0
LINE
8
0
6
CONTINUOUS
10
16.816015
20
29.755440
30
0.0
11
16.305285
21
26.184410
31
0.0
0
LINE
8
0
6
CONTINUOUS
10
-94.157365
20
-50.602240
30
0.0
11
-94.157305
21
-71.043490
31
0.0
0
LINE
8
0
6
CONTINUOUS
10
-94.157375
20
-30.097650
30
0.0
11
-94.157365
21
-50.602240
31
0.0
0
LINE
8
0
6
CONTINUOUS
10
-32.294455
20
-71.744530
30
0.0
11
-16.828755
21
-71.744540
31
0.0
0
LINE
8
0
6
CONTINUOUS
10
-47.760165
20
-71.744540
30
0.0
11
-32.294455
21
-71.744530
31
0.0
0
LINE
8
0
6
CONTINUOUS
10
-16.828755
20
-71.744540
30
0.0
11
-1.493395
21
-71.744540
31
0.0
0
LINE
8
0
6
CONTINUOUS
10
-1.493395
20
-71.744540
30
0.0
11
13.841955
21
-71.744540
31
0.0
0
LINE
8
0
6
CONTINUOUS
10
-94.157415
20
35.026100
30
0.0
11
-94.157405
21
22.968810
31
0.0
0
LINE
8
0
6
CONTINUOUS
10
-94.157435
20
47.083390
30
0.0
11
-94.157415
21
35.026100
31
0.0
0
LINE
8
0
6
CONTINUOUS
10
-94.157445
20
59.140680
30
0.0
11
-94.157435
21
47.083390
31
0.0
0
LINE
8
0
6
CONTINUOUS
10
-94.157465
20
71.197960
30
0.0
11
-94.157445
21
59.140680
31
0.0
0
LINE
8
0
6
CONTINUOUS
10
-16.828925
20
83.255320
30
0.0
11
-32.294645
21
83.255310
31
0.0
0
LINE
8
0
6
CONTINUOUS
10
-63.226055
20
83.255270
30
0.0
11
-78.691755
21
83.255270
31
0.0
0
LINE
8
0
6
CONTINUOUS
10
29.177125
20
83.255360
30
0.0
11
13.841775
21
83.255350
31
0.0
0
LINE
8
0
6
CONTINUOUS
10
44.512485
20
83.255380
30
0.0
11
29.177125
21
83.255360
31
0.0
0
LINE
8
0
6
CONTINUOUS
10
-63.225875
20
-71.744540
30
0.0
11
-47.760165
21
-71.744540
31
0.0
0
LINE
8
0
6
CONTINUOUS
10
-78.691605
20
-71.744540
30
0.0
11
-63.225875
21
-71.744540
31
0.0
0
LINE
8
0
6
CONTINUOUS
10
13.841955
20
-71.744540
30
0.0
11
29.177305
21
-71.744540
31
0.0
0
LINE
8
0
6
CONTINUOUS
10
29.177305
20
-71.744540
30
0.0
11
44.512655
21
-71.744540
31
0.0
0
LINE
8
0
6
CONTINUOUS
10
94.157315
20
71.198160
30
0.0
11
94.157305
21
82.553640
31
0.0
0
LINE
8
0
6
CONTINUOUS
10
94.157335
20
59.140870
30
0.0
11
94.157315
21
71.198160
31
0.0
0
LINE
8
0
6
CONTINUOUS
10
94.157345
20
47.083580
30
0.0
11
94.157335
21
59.140870
31
0.0
0
LINE
8
0
6
CONTINUOUS
10
94.157365
20
35.026290
30
0.0
11
94.157345
21
47.083580
31
0.0
0
LINE
8
0
6
CONTINUOUS
10
94.157395
20
22.969010
30
0.0
11
94.157365
21
35.026290
31
0.0
0
LINE
8
0
6
CONTINUOUS
10
-93.456025
20
-71.744540
30
0.0
11
-78.691605
21
-71.744540
31
0.0
0
LINE
8
0
6
CONTINUOUS
10
-47.760345
20
83.255280
30
0.0
11
-32.294645
21
83.255310
31
0.0
0
LINE
8
0
6
CONTINUOUS
10
-63.226055
20
83.255270
30
0.0
11
-47.760345
21
83.255280
31
0.0
0
LINE
8
0
6
CONTINUOUS
10
-16.828925
20
83.255320
30
0.0
11
-1.493575
21
83.255330
31
0.0
0
LINE
8
0
6
CONTINUOUS
10
-1.493575
20
83.255340
30
0.0
11
-16.828925
21
83.255320
31
0.0
0
LINE
8
0
6
CONTINUOUS
10
-1.493575
20
83.255330
30
0.0
11
13.841775
21
83.255350
31
0.0
0
LINE
8
0
6
CONTINUOUS
10
-93.456195
20
83.255250
30
0.0
11
-94.157475
21
83.255250
31
0.0
0
LINE
8
0
6
CONTINUOUS
10
-94.157475
20
83.255250
30
0.0
11
-94.157475
21
82.553650
31
0.0
0
LINE
8
0
6
CONTINUOUS
10
-94.157375
20
10.911520
30
0.0
11
-94.157405
21
22.968810
31
0.0
0
LINE
8
0
6
CONTINUOUS
10
94.157395
20
22.969010
30
0.0
11
94.157385
21
10.911720
31
0.0
0
LINE
8
0
6
CONTINUOUS
10
93.455175
20
83.255440
30
0.0
11
85.644695
21
83.255440
31
0.0
0
LINE
8
0
6
CONTINUOUS
10
94.157305
20
82.553640
30
0.0
11
94.157305
21
83.255440
31
0.0
0
LINE
8
0
6
CONTINUOUS
10
94.157305
20
83.255440
30
0.0
11
93.455175
21
83.255440
31
0.0
0
LINE
8
0
6
CONTINUOUS
10
-94.157475
20
82.553650
30
0.0
11
-94.157465
21
71.197960
31
0.0
0
LINE
8
0
6
CONTINUOUS
10
-94.157305
20
-71.744540
30
0.0
11
-93.456025
21
-71.744540
31
0.0
0
LINE
8
0
6
CONTINUOUS
10
-94.157305
20
-71.043490
30
0.0
11
-94.157305
21
-71.744540
31
0.0
0
LINE
8
0
6
CONTINUOUS
10
59.878385
20
83.255390
30
0.0
11
59.271545
21
83.255380
31
0.0
0
LINE
8
0
6
CONTINUOUS
10
68.483665
20
83.255410
30
0.0
11
60.443735
21
83.255390
31
0.0
0
LINE
8
0
6
CONTINUOUS
10
77.064165
20
83.255430
30
0.0
11
68.483665
21
83.255410
31
0.0
0
LINE
8
0
6
CONTINUOUS
10
85.644695
20
83.255440
30
0.0
11
77.064165
21
83.255430
31
0.0
0
LINE
8
0
6
CONTINUOUS
10
60.443735
20
83.255390
30
0.0
11
59.878385
21
83.255390
31
0.0
0
LINE
8
0
6
CONTINUOUS
10
59.271545
20
83.255380
30
0.0
11
44.512485
21
83.255380
31
0.0
0
LINE
8
0
6
CONTINUOUS
10
68.425295
20
-10.793250
30
0.0
11
77.002665
21
-10.793250
31
0.0
0
LINE
8
0
6
CONTINUOUS
10
13.045095
20
-12.874450
30
0.0
11
14.654405
21
-16.797600
31
0.0
0
LINE
8
0
6
CONTINUOUS
10
-46.702955
20
-12.874450
30
0.0
11
-45.093625
21
-8.951310
31
0.0
0
LINE
8
0
6
CONTINUOUS
10
-94.157385
20
-9.621020
30
0.0
11
-94.157375
21
-30.097650
31
0.0
0
LINE
8
0
6
CONTINUOUS
10
-94.157385
20
-9.621020
30
0.0
11
-94.157375
21
10.911520
31
0.0
0
LINE
8
0
6
CONTINUOUS
10
94.157395
20
-10.793220
30
0.0
11
94.157395
21
-9.621020
31
0.0
0
LINE
8
0
6
CONTINUOUS
10
94.157395
20
-9.621020
30
0.0
11
94.157385
21
10.911720
31
0.0
0
LINE
8
0
6
CONTINUOUS
10
44.512655
20
-71.744540
30
0.0
11
59.240525
21
-71.744540
31
0.0
0
LINE
8
0
6
CONTINUOUS
10
59.816145
20
-71.744540
30
0.0
11
59.848005
21
-71.106630
31
0.0
0
LINE
8
0
6
CONTINUOUS
10
59.240525
20
-71.744540
30
0.0
11
59.816145
21
-71.744540
31
0.0
0
LINE
8
0
6
CONTINUOUS
10
86.080215
20
-72.319170
30
0.0
11
86.080215
21
-72.195420
31
0.0
0
LINE
8
0
6
CONTINUOUS
10
86.091045
20
-83.255410
30
0.0
11
86.516875
21
-83.176600
31
0.0
0
LINE
8
0
6
CONTINUOUS
10
85.638395
20
-83.255410
30
0.0
11
86.091045
21
-83.255410
31
0.0
0
LINE
8
0
6
CONTINUOUS
10
84.324785
20
-83.255410
30
0.0
11
85.638395
21
-83.255410
31
0.0
0
LINE
8
0
6
CONTINUOUS
10
82.278735
20
-83.255430
30
0.0
11
84.324785
21
-83.255410
31
0.0
0
LINE
8
0
6
CONTINUOUS
10
76.842715
20
-83.255420
30
0.0
11
79.700595
21
-83.255400
31
0.0
0
LINE
8
0
6
CONTINUOUS
10
71.406675
20
-83.255440
30
0.0
11
73.984805
21
-83.255440
31
0.0
0
LINE
8
0
6
CONTINUOUS
10
69.360665
20
-83.255440
30
0.0
11
71.406675
21
-83.255440
31
0.0
0
LINE
8
0
6
CONTINUOUS
10
68.047015
20
-83.255440
30
0.0
11
69.360665
21
-83.255440
31
0.0
0
LINE
8
0
6
CONTINUOUS
10
69.016125
20
-83.176630
30
0.0
11
67.642005
21
-83.176630
31
0.0
0
LINE
8
0
6
CONTINUOUS
10
67.594385
20
-83.255440
30
0.0
11
68.047015
21
-83.255440
31
0.0
0
LINE
8
0
6
CONTINUOUS
10
67.168505
20
-83.176630
30
0.0
11
67.594385
21
-83.255440
31
0.0
0
LINE
8
0
6
CONTINUOUS
10
67.168505
20
-83.176630
30
0.0
11
67.642005
21
-83.176630
31
0.0
0
LINE
8
0
6
CONTINUOUS
10
67.105605
20
-83.045600
30
0.0
11
67.168505
21
-83.176630
31
0.0
0
LINE
8
0
6
CONTINUOUS
10
69.016125
20
-83.176630
30
0.0
11
71.156355
21
-83.176630
31
0.0
0
LINE
8
0
6
CONTINUOUS
10
71.156355
20
-83.176630
30
0.0
11
73.853235
21
-83.176630
31
0.0
0
LINE
8
0
6
CONTINUOUS
10
73.853235
20
-83.176630
30
0.0
11
76.842715
21
-83.176610
31
0.0
0
LINE
8
0
6
CONTINUOUS
10
76.842715
20
-83.176610
30
0.0
11
79.832195
21
-83.176590
31
0.0
0
LINE
8
0
6
CONTINUOUS
10
79.832195
20
-83.176590
30
0.0
11
82.529075
21
-83.176600
31
0.0
0
LINE
8
0
6
CONTINUOUS
10
82.529075
20
-83.176600
30
0.0
11
84.669305
21
-83.176600
31
0.0
0
LINE
8
0
6
CONTINUOUS
10
84.669305
20
-83.176600
30
0.0
11
86.043435
21
-83.176600
31
0.0
0
LINE
8
0
6
CONTINUOUS
10
86.516875
20
-83.176600
30
0.0
11
86.579805
21
-83.045570
31
0.0
0
LINE
8
0
6
CONTINUOUS
10
86.043435
20
-83.176600
30
0.0
11
86.516875
21
-83.176600
31
0.0
0
LINE
8
0
6
CONTINUOUS
10
67.605205
20
-72.195470
30
0.0
11
67.605205
21
-72.319210
31
0.0
0
LINE
8
0
6
CONTINUOUS
10
66.494735
20
-82.196960
30
0.0
11
67.105605
21
-83.045600
31
0.0
0
LINE
8
0
6
CONTINUOUS
10
86.579805
20
-83.045570
30
0.0
11
87.190675
21
-82.196910
31
0.0
0
LINE
8
0
6
CONTINUOUS
10
86.170415
20
-74.281890
30
0.0
11
86.080215
21
-74.195440
31
0.0
0
LINE
8
0
6
CONTINUOUS
10
87.358145
20
-75.615110
30
0.0
11
87.358145
21
-75.420440
31
0.0
0
LINE
8
0
6
CONTINUOUS
10
67.605205
20
-74.195480
30
0.0
11
67.515005
21
-74.281920
31
0.0
0
LINE
8
0
6
CONTINUOUS
10
66.367695
20
-81.805630
30
0.0
11
66.367695
21
-82.020470
31
0.0
0
LINE
8
0
6
CONTINUOUS
10
87.317705
20
-82.020440
30
0.0
11
87.317705
21
-81.805580
31
0.0
0
LINE
8
0
6
CONTINUOUS
10
87.317705
20
-81.805580
30
0.0
11
87.358145
21
-75.615110
31
0.0
0
LINE
8
0
6
CONTINUOUS
10
66.327295
20
-75.615150
30
0.0
11
66.367695
21
-81.805630
31
0.0
0
LINE
8
0
6
CONTINUOUS
10
66.327295
20
-75.420470
30
0.0
11
66.327295
21
-75.615150
31
0.0
0
LINE
8
0
6
CONTINUOUS
10
86.348655
20
-72.195420
30
0.0
11
88.017625
21
-72.195420
31
0.0
0
LINE
8
0
6
CONTINUOUS
10
65.092695
20
-72.029700
30
0.0
11
65.092695
21
-72.195470
31
0.0
0
LINE
8
0
6
CONTINUOUS
10
65.092695
20
-72.195470
30
0.0
11
65.667795
21
-72.195470
31
0.0
0
LINE
8
0
6
CONTINUOUS
10
65.092696
20
-71.744540
30
0.0
11
65.092695
21
-72.029700
31
0.0
0
LINE
8
0
6
CONTINUOUS
10
73.211755
20
-72.195450
30
0.0
11
76.842725
21
-72.195460
31
0.0
0
LINE
8
0
6
CONTINUOUS
10
69.936235
20
-72.195470
30
0.0
11
73.211755
21
-72.195450
31
0.0
0
LINE
8
0
6
CONTINUOUS
10
80.473645
20
-72.195440
30
0.0
11
83.749195
21
-72.195440
31
0.0
0
LINE
8
0
6
CONTINUOUS
10
76.842725
20
-72.195460
30
0.0
11
80.473645
21
-72.195440
31
0.0
0
LINE
8
0
6
CONTINUOUS
10
65.667795
20
-72.195470
30
0.0
11
67.336745
21
-72.195470
31
0.0
0
LINE
8
0
6
CONTINUOUS
10
88.592695
20
-72.195420
30
0.0
11
88.592695
21
-72.029660
31
0.0
0
LINE
8
0
6
CONTINUOUS
10
88.017625
20
-72.195420
30
0.0
11
88.592695
21
-72.195420
31
0.0
0
LINE
8
0
6
CONTINUOUS
10
88.592695
20
-72.029660
30
0.0
11
88.592696
21
-71.744540
31
0.0
0
LINE
8
0
6
CONTINUOUS
10
83.749195
20
-72.195440
30
0.0
11
86.348655
21
-72.195420
31
0.0
0
LINE
8
0
6
CONTINUOUS
10
67.336745
20
-72.195470
30
0.0
11
69.936235
21
-72.195470
31
0.0
0
LINE
8
0
6
CONTINUOUS
10
79.697235
20
-74.195450
30
0.0
11
82.272385
21
-74.195440
31
0.0
0
LINE
8
0
6
CONTINUOUS
10
86.080215
20
-74.195440
30
0.0
11
86.080215
21
-74.071700
31
0.0
0
LINE
8
0
6
CONTINUOUS
10
85.628105
20
-74.195440
30
0.0
11
86.080215
21
-74.195440
31
0.0
0
LINE
8
0
6
CONTINUOUS
10
86.080215
20
-74.071700
30
0.0
11
86.080215
21
-72.319170
31
0.0
0
LINE
8
0
6
CONTINUOUS
10
76.842705
20
-74.195470
30
0.0
11
79.697235
21
-74.195450
31
0.0
0
LINE
8
0
6
CONTINUOUS
10
69.369405
20
-74.195460
30
0.0
11
71.413035
21
-74.195460
31
0.0
0
LINE
8
0
6
CONTINUOUS
10
82.272385
20
-74.195440
30
0.0
11
84.315995
21
-74.195450
31
0.0
0
LINE
8
0
6
CONTINUOUS
10
73.988165
20
-74.195460
30
0.0
11
76.842705
21
-74.195470
31
0.0
0
LINE
8
0
6
CONTINUOUS
10
71.413035
20
-74.195460
30
0.0
11
73.988165
21
-74.195460
31
0.0
0
LINE
8
0
6
CONTINUOUS
10
84.315995
20
-74.195450
30
0.0
11
85.628105
21
-74.195440
31
0.0
0
LINE
8
0
6
CONTINUOUS
10
68.057305
20
-74.195480
30
0.0
11
69.369405
21
-74.195460
31
0.0
0
LINE
8
0
6
CONTINUOUS
10
67.605205
20
-74.071730
30
0.0
11
67.605205
21
-74.195480
31
0.0
0
LINE
8
0
6
CONTINUOUS
10
67.605205
20
-74.195480
30
0.0
11
68.057305
21
-74.195480
31
0.0
0
LINE
8
0
6
CONTINUOUS
10
67.605205
20
-72.319210
30
0.0
11
67.605205
21
-74.071730
31
0.0
0
LINE
8
0
6
CONTINUOUS
10
68.335545
20
-75.420470
30
0.0
11
70.661895
21
-75.420460
31
0.0
0
LINE
8
0
6
CONTINUOUS
10
66.841935
20
-75.420470
30
0.0
11
68.335545
21
-75.420470
31
0.0
0
LINE
8
0
6
CONTINUOUS
10
87.358145
20
-75.420440
30
0.0
11
87.203225
21
-75.271930
31
0.0
0
LINE
8
0
6
CONTINUOUS
10
86.843485
20
-75.420440
30
0.0
11
87.358145
21
-75.420440
31
0.0
0
LINE
8
0
6
CONTINUOUS
10
85.349855
20
-75.420440
30
0.0
11
86.843485
21
-75.420440
31
0.0
0
LINE
8
0
6
CONTINUOUS
10
83.023545
20
-75.420450
30
0.0
11
85.349855
21
-75.420440
31
0.0
0
LINE
8
0
6
CONTINUOUS
10
80.092135
20
-75.420440
30
0.0
11
83.023545
21
-75.420450
31
0.0
0
LINE
8
0
6
CONTINUOUS
10
76.842705
20
-75.420450
30
0.0
11
80.092135
21
-75.420440
31
0.0
0
LINE
8
0
6
CONTINUOUS
10
73.593265
20
-75.420450
30
0.0
11
76.842705
21
-75.420450
31
0.0
0
LINE
8
0
6
CONTINUOUS
10
70.661895
20
-75.420460
30
0.0
11
73.593265
21
-75.420450
31
0.0
0
LINE
8
0
6
CONTINUOUS
10
66.482215
20
-75.271970
30
0.0
11
66.327295
21
-75.420470
31
0.0
0
LINE
8
0
6
CONTINUOUS
10
66.327295
20
-75.420470
30
0.0
11
66.841935
21
-75.420470
31
0.0
0
LINE
8
0
6
CONTINUOUS
10
87.203225
20
-75.271930
30
0.0
11
86.170415
21
-74.281890
31
0.0
0
LINE
8
0
6
CONTINUOUS
10
67.515005
20
-74.281920
30
0.0
11
66.482215
21
-75.271970
31
0.0
0
LINE
8
0
6
CONTINUOUS
10
68.368255
20
-82.020470
30
0.0
11
66.880385
21
-82.020470
31
0.0
0
LINE
8
0
6
CONTINUOUS
10
66.367695
20
-82.020470
30
0.0
11
66.494735
21
-82.196960
31
0.0
0
LINE
8
0
6
CONTINUOUS
10
66.880385
20
-82.020470
30
0.0
11
66.367695
21
-82.020470
31
0.0
0
LINE
8
0
6
CONTINUOUS
10
70.685665
20
-82.020450
30
0.0
11
68.368255
21
-82.020470
31
0.0
0
LINE
8
0
6
CONTINUOUS
10
73.605775
20
-82.020450
30
0.0
11
70.685665
21
-82.020450
31
0.0
0
LINE
8
0
6
CONTINUOUS
10
76.842715
20
-82.020450
30
0.0
11
73.605775
21
-82.020450
31
0.0
0
LINE
8
0
6
CONTINUOUS
10
80.079665
20
-82.020430
30
0.0
11
76.842715
21
-82.020450
31
0.0
0
LINE
8
0
6
CONTINUOUS
10
82.999775
20
-82.020440
30
0.0
11
80.079665
21
-82.020430
31
0.0
0
LINE
8
0
6
CONTINUOUS
10
85.317165
20
-82.020440
30
0.0
11
82.999775
21
-82.020440
31
0.0
0
LINE
8
0
6
CONTINUOUS
10
86.805055
20
-82.020440
30
0.0
11
85.317165
21
-82.020440
31
0.0
0
LINE
8
0
6
CONTINUOUS
10
87.190675
20
-82.196910
30
0.0
11
87.317705
21
-82.020440
31
0.0
0
LINE
8
0
6
CONTINUOUS
10
87.317705
20
-82.020440
30
0.0
11
86.805055
21
-82.020440
31
0.0
0
LINE
8
0
6
CONTINUOUS
10
-11.890135
20
-4.036408
30
0.0
11
-11.890135
21
0.535780
31
0.0
0
LINE
8
0
6
CONTINUOUS
10
-21.767745
20
0.535760
30
0.0
11
-21.767745
21
-4.034709
31
0.0
0
LINE
8
0
6
CONTINUOUS
10
-18.107195
20
0.594910
30
0.0
11
-16.828945
21
0.594910
31
0.0
0
LINE
8
0
6
CONTINUOUS
10
-21.609835
20
0.932230
30
0.0
11
-21.767745
21
0.594910
31
0.0
0
LINE
8
0
6
CONTINUOUS
10
-17.978275
20
1.088790
30
0.0
11
-19.049265
21
1.088790
31
0.0
0
LINE
8
0
6
CONTINUOUS
10
-20.674665
20
1.088790
30
0.0
11
-21.118285
21
1.088790
31
0.0
0
LINE
8
0
6
CONTINUOUS
10
-19.049265
20
1.088790
30
0.0
11
-19.968955
21
1.088790
31
0.0
0
LINE
8
0
6
CONTINUOUS
10
-19.968955
20
1.088790
30
0.0
11
-20.674665
21
1.088790
31
0.0
0
LINE
8
0
6
CONTINUOUS
10
-12.388275
20
1.088790
30
0.0
11
-12.539595
21
1.088790
31
0.0
0
LINE
8
0
6
CONTINUOUS
10
-12.048045
20
0.932240
30
0.0
11
-12.388275
21
1.088790
31
0.0
0
LINE
8
0
6
CONTINUOUS
10
-20.969325
20
0.932240
30
0.0
11
-21.446945
21
0.932230
31
0.0
0
LINE
8
0
6
CONTINUOUS
10
-14.359545
20
0.594910
30
0.0
11
-15.550685
21
0.594910
31
0.0
0
LINE
8
0
6
CONTINUOUS
10
-11.890135
20
0.535780
30
0.0
11
-11.890135
21
0.594910
31
0.0
0
LINE
8
0
6
CONTINUOUS
10
-21.767745
20
0.594910
30
0.0
11
-21.767745
21
0.535760
31
0.0
0
LINE
8
0
6
CONTINUOUS
10
-21.599465
20
0.594910
30
0.0
11
-21.767745
21
0.594910
31
0.0
0
LINE
8
0
6
CONTINUOUS
10
-21.106075
20
0.594910
30
0.0
11
-21.599465
21
0.594910
31
0.0
0
LINE
8
0
6
CONTINUOUS
10
-15.550685
20
0.594910
30
0.0
11
-16.828945
21
0.594910
31
0.0
0
LINE
8
0
6
CONTINUOUS
10
-21.269605
20
1.088790
30
0.0
11
-21.609835
21
0.932230
31
0.0
0
LINE
8
0
6
CONTINUOUS
10
-21.118285
20
1.088790
30
0.0
11
-21.269605
21
1.088790
31
0.0
0
LINE
8
0
6
CONTINUOUS
10
-21.609835
20
0.932230
30
0.0
11
-21.446945
21
0.932230
31
0.0
0
LINE
8
0
6
CONTINUOUS
10
-13.688915
20
1.088790
30
0.0
11
-14.608605
21
1.088790
31
0.0
0
LINE
8
0
6
CONTINUOUS
10
-19.219395
20
0.932240
30
0.0
11
-20.209555
21
0.932240
31
0.0
0
LINE
8
0
6
CONTINUOUS
10
-20.321195
20
0.594910
30
0.0
11
-19.298345
21
0.594910
31
0.0
0
LINE
8
0
6
CONTINUOUS
10
-13.336675
20
0.594910
30
0.0
11
-12.551815
21
0.594910
31
0.0
0
LINE
8
0
6
CONTINUOUS
10
-13.448335
20
0.932240
30
0.0
11
-14.438485
21
0.932240
31
0.0
0
LINE
8
0
6
CONTINUOUS
10
-14.359545
20
0.594910
30
0.0
11
-13.336675
21
0.594910
31
0.0
0
LINE
8
0
6
CONTINUOUS
10
-20.209555
20
0.932240
30
0.0
11
-20.969325
21
0.932240
31
0.0
0
LINE
8
0
6
CONTINUOUS
10
-21.106075
20
0.594910
30
0.0
11
-20.321195
21
0.594910
31
0.0
0
LINE
8
0
6
CONTINUOUS
10
-18.066335
20
0.932240
30
0.0
11
-19.219395
21
0.932240
31
0.0
0
LINE
8
0
6
CONTINUOUS
10
-19.298345
20
0.594910
30
0.0
11
-18.107195
21
0.594910
31
0.0
0
LINE
8
0
6
CONTINUOUS
10
-38.148115
20
-20.464160
30
0.0
11
-38.696365
21
-25.330130
31
0.0
0
LINE
8
0
6
CONTINUOUS
10
-11.962975
20
-4.010920
30
0.0
11
-16.828945
21
-3.462650
31
0.0
0
LINE
8
0
6
CONTINUOUS
10
-11.962935
20
-46.649260
30
0.0
11
-7.340975
21
-45.031960
31
0.0
0
LINE
8
0
6
CONTINUOUS
10
-7.433775
20
-44.839230
30
0.0
11
-12.010535
21
-46.440710
31
0.0
0
LINE
8
0
6
CONTINUOUS
10
2.872955
20
-34.817990
30
0.0
11
4.490255
21
-30.196040
31
0.0
0
LINE
8
0
6
CONTINUOUS
10
-37.939555
20
-20.511760
30
0.0
11
-38.482445
21
-25.330130
31
0.0
0
LINE
8
0
6
CONTINUOUS
10
-12.010585
20
-4.219470
30
0.0
11
-16.828945
21
-3.676560
31
0.0
0
LINE
8
0
6
CONTINUOUS
10
-38.696365
20
-25.330130
30
0.0
11
-38.148105
21
-30.196080
31
0.0
0
LINE
8
0
6
CONTINUOUS
10
-3.194815
20
-8.233420
30
0.0
11
-7.341005
21
-5.628200
31
0.0
0
LINE
8
0
6
CONTINUOUS
10
-30.463005
20
-42.426770
30
0.0
11
-26.316815
21
-45.031990
31
0.0
0
LINE
8
0
6
CONTINUOUS
10
-21.694925
20
-4.010930
30
0.0
11
-26.316885
21
-5.628220
31
0.0
0
LINE
8
0
6
CONTINUOUS
10
-26.224055
20
-5.820950
30
0.0
11
-21.647295
21
-4.219480
31
0.0
0
LINE
8
0
6
CONTINUOUS
10
-33.925555
20
-38.964240
30
0.0
11
-30.463005
21
-42.426770
31
0.0
0
LINE
8
0
6
CONTINUOUS
10
4.490255
20
-20.464100
30
0.0
11
2.872945
21
-15.842160
31
0.0
0
LINE
8
0
6
CONTINUOUS
10
-38.482445
20
-25.330130
30
0.0
11
-37.939515
21
-30.148480
31
0.0
0
LINE
8
0
6
CONTINUOUS
10
-33.758305
20
-38.830870
30
0.0
11
-30.329645
21
-42.259510
31
0.0
0
LINE
8
0
6
CONTINUOUS
10
2.872945
20
-15.842160
30
0.0
11
0.267715
21
-11.695950
31
0.0
0
LINE
8
0
6
CONTINUOUS
10
0.100465
20
-11.829330
30
0.0
11
2.680205
21
-15.934970
31
0.0
0
LINE
8
0
6
CONTINUOUS
10
-7.340975
20
-45.031960
30
0.0
11
-3.194785
21
-42.426720
31
0.0
0
LINE
8
0
6
CONTINUOUS
10
-3.328165
20
-42.259460
30
0.0
11
-7.433775
21
-44.839230
31
0.0
0
LINE
8
0
6
CONTINUOUS
10
-33.374345
20
-38.524680
30
0.0
11
-30.023455
21
-41.875560
31
0.0
0
LINE
8
0
6
CONTINUOUS
10
-35.895595
20
-34.512150
30
0.0
11
-33.374345
21
-38.524680
31
0.0
0
LINE
8
0
6
CONTINUOUS
10
-37.460755
20
-30.039220
30
0.0
11
-35.895595
21
-34.512150
31
0.0
0
LINE
8
0
6
CONTINUOUS
10
-37.991335
20
-25.330140
30
0.0
11
-37.460755
21
-30.039220
31
0.0
0
LINE
8
0
6
CONTINUOUS
10
-37.460775
20
-20.621040
30
0.0
11
-37.991335
21
-25.330140
31
0.0
0
LINE
8
0
6
CONTINUOUS
10
-35.895645
20
-16.148080
30
0.0
11
-37.460775
21
-20.621040
31
0.0
0
LINE
8
0
6
CONTINUOUS
10
-33.374395
20
-12.135550
30
0.0
11
-35.895645
21
-16.148080
31
0.0
0
LINE
8
0
6
CONTINUOUS
10
-21.538035
20
-4.698260
30
0.0
11
-26.010995
21
-6.263410
31
0.0
0
LINE
8
0
6
CONTINUOUS
10
-12.119865
20
-4.698250
30
0.0
11
-16.828945
21
-4.167660
31
0.0
0
LINE
8
0
6
CONTINUOUS
10
-7.646905
20
-6.263390
30
0.0
11
-12.119865
21
-4.698250
31
0.0
0
LINE
8
0
6
CONTINUOUS
10
-0.283485
20
-12.135530
30
0.0
11
-3.634385
21
-8.784630
31
0.0
0
LINE
8
0
6
CONTINUOUS
10
2.237745
20
-16.148050
30
0.0
11
-0.283485
21
-12.135530
31
0.0
0
LINE
8
0
6
CONTINUOUS
10
4.333485
20
-25.330080
30
0.0
11
3.802895
21
-20.620990
31
0.0
0
LINE
8
0
6
CONTINUOUS
10
3.802905
20
-30.039160
30
0.0
11
4.333485
21
-25.330080
31
0.0
0
LINE
8
0
6
CONTINUOUS
10
-0.283455
20
-38.524620
30
0.0
11
2.237775
21
-34.512100
31
0.0
0
LINE
8
0
6
CONTINUOUS
10
-7.646865
20
-44.396770
30
0.0
11
-3.634345
21
-41.875510
31
0.0
0
LINE
8
0
6
CONTINUOUS
10
-12.119825
20
-45.961930
30
0.0
11
-7.646865
21
-44.396770
31
0.0
0
LINE
8
0
6
CONTINUOUS
10
-21.537945
20
-45.961940
30
0.0
11
-26.010925
21
-44.396790
31
0.0
0
LINE
8
0
6
CONTINUOUS
10
-3.194785
20
-42.426720
30
0.0
11
0.267735
21
-38.964190
31
0.0
0
LINE
8
0
6
CONTINUOUS
10
-3.328195
20
-8.400670
30
0.0
11
-7.433835
21
-5.820940
31
0.0
0
LINE
8
0
6
CONTINUOUS
10
-7.646905
20
-6.263390
30
0.0
11
-3.634385
21
-8.784630
31
0.0
0
LINE
8
0
6
CONTINUOUS
10
-33.374395
20
-12.135550
30
0.0
11
-30.023505
21
-8.784670
31
0.0
0
LINE
8
0
6
CONTINUOUS
10
-30.463075
20
-8.233460
30
0.0
11
-33.925585
21
-11.695990
31
0.0
0
LINE
8
0
6
CONTINUOUS
10
-33.758345
20
-11.829360
30
0.0
11
-30.329695
21
-8.400710
31
0.0
0
LINE
8
0
6
CONTINUOUS
10
-12.119825
20
-45.961930
30
0.0
11
-16.828895
21
-46.492490
31
0.0
0
LINE
8
0
6
CONTINUOUS
10
-36.530785
20
-34.818050
30
0.0
11
-33.925555
21
-38.964240
31
0.0
0
LINE
8
0
6
CONTINUOUS
10
-33.758305
20
-38.830870
30
0.0
11
-36.338055
21
-34.725230
31
0.0
0
LINE
8
0
6
CONTINUOUS
10
-16.828895
20
-47.197530
30
0.0
11
-11.962935
21
-46.649260
31
0.0
0
LINE
8
0
6
CONTINUOUS
10
-12.010535
20
-46.440710
30
0.0
11
-16.828895
21
-46.983600
31
0.0
0
LINE
8
0
6
CONTINUOUS
10
0.267715
20
-11.695950
30
0.0
11
-3.194815
21
-8.233420
31
0.0
0
LINE
8
0
6
CONTINUOUS
10
-3.328195
20
-8.400670
30
0.0
11
0.100465
21
-11.829330
31
0.0
0
LINE
8
0
6
CONTINUOUS
10
2.237745
20
-16.148050
30
0.0
11
3.802895
21
-20.620990
31
0.0
0
LINE
8
0
6
CONTINUOUS
10
4.281695
20
-20.511710
30
0.0
11
2.680205
21
-15.934970
31
0.0
0
LINE
8
0
6
CONTINUOUS
10
-26.316815
20
-45.031990
30
0.0
11
-21.694835
21
-46.649270
31
0.0
0
LINE
8
0
6
CONTINUOUS
10
-21.647235
20
-46.440720
30
0.0
11
-26.223995
21
-44.839250
31
0.0
0
LINE
8
0
6
CONTINUOUS
10
-21.538035
20
-4.698260
30
0.0
11
-16.828945
21
-4.167660
31
0.0
0
LINE
8
0
6
CONTINUOUS
10
-26.010925
20
-44.396790
30
0.0
11
-30.023455
21
-41.875560
31
0.0
0
LINE
8
0
6
CONTINUOUS
10
-30.329645
20
-42.259510
30
0.0
11
-26.223995
21
-44.839250
31
0.0
0
LINE
8
0
6
CONTINUOUS
10
-16.828945
20
-3.462650
30
0.0
11
-21.694925
21
-4.010930
31
0.0
0
LINE
8
0
6
CONTINUOUS
10
-21.647295
20
-4.219480
30
0.0
11
-16.828945
21
-3.676560
31
0.0
0
LINE
8
0
6
CONTINUOUS
10
5.038495
20
-25.330080
30
0.0
11
4.490255
21
-20.464100
31
0.0
0
LINE
8
0
6
CONTINUOUS
10
4.281695
20
-20.511710
30
0.0
11
4.824585
21
-25.330080
31
0.0
0
LINE
8
0
6
CONTINUOUS
10
-33.925585
20
-11.695990
30
0.0
11
-36.530815
21
-15.842200
31
0.0
0
LINE
8
0
6
CONTINUOUS
10
-36.338095
20
-15.935010
30
0.0
11
-33.758345
21
-11.829360
31
0.0
0
LINE
8
0
6
CONTINUOUS
10
0.267735
20
-38.964190
30
0.0
11
2.872955
21
-34.817990
31
0.0
0
LINE
8
0
6
CONTINUOUS
10
2.680215
20
-34.725180
30
0.0
11
0.100495
21
-38.830820
31
0.0
0
LINE
8
0
6
CONTINUOUS
10
-30.023505
20
-8.784670
30
0.0
11
-26.010995
21
-6.263410
31
0.0
0
LINE
8
0
6
CONTINUOUS
10
-21.694835
20
-46.649270
30
0.0
11
-16.828895
21
-47.197530
31
0.0
0
LINE
8
0
6
CONTINUOUS
10
-16.828895
20
-46.492490
30
0.0
11
-21.537945
21
-45.961940
31
0.0
0
LINE
8
0
6
CONTINUOUS
10
-21.647235
20
-46.440720
30
0.0
11
-16.828895
21
-46.983600
31
0.0
0
LINE
8
0
6
CONTINUOUS
10
-38.148105
20
-30.196080
30
0.0
11
-36.530785
21
-34.818050
31
0.0
0
LINE
8
0
6
CONTINUOUS
10
-36.338055
20
-34.725230
30
0.0
11
-37.939515
21
-30.148480
31
0.0
0
LINE
8
0
6
CONTINUOUS
10
4.490255
20
-30.196040
30
0.0
11
5.038495
21
-25.330080
31
0.0
0
LINE
8
0
6
CONTINUOUS
10
4.824585
20
-25.330080
30
0.0
11
4.281695
21
-30.148430
31
0.0
0
LINE
8
0
6
CONTINUOUS
10
-0.283455
20
-38.524620
30
0.0
11
-3.634345
21
-41.875510
31
0.0
0
LINE
8
0
6
CONTINUOUS
10
-3.328165
20
-42.259460
30
0.0
11
0.100495
21
-38.830820
31
0.0
0
LINE
8
0
6
CONTINUOUS
10
-36.530815
20
-15.842200
30
0.0
11
-38.148115
21
-20.464160
31
0.0
0
LINE
8
0
6
CONTINUOUS
10
-37.939555
20
-20.511760
30
0.0
11
-36.338095
21
-15.935010
31
0.0
0
LINE
8
0
6
CONTINUOUS
10
3.802905
20
-30.039160
30
0.0
11
2.237775
21
-34.512100
31
0.0
0
LINE
8
0
6
CONTINUOUS
10
2.680215
20
-34.725180
30
0.0
11
4.281695
21
-30.148430
31
0.0
0
LINE
8
0
6
CONTINUOUS
10
-7.341005
20
-5.628200
30
0.0
11
-11.962975
21
-4.010920
31
0.0
0
LINE
8
0
6
CONTINUOUS
10
-12.010585
20
-4.219470
30
0.0
11
-7.433835
21
-5.820940
31
0.0
0
LINE
8
0
6
CONTINUOUS
10
-30.329695
20
-8.400710
30
0.0
11
-26.224055
21
-5.820950
31
0.0
0
LINE
8
0
6
CONTINUOUS
10
-26.316885
20
-5.628220
30
0.0
11
-30.463075
21
-8.233460
31
0.0
0
LINE
8
0
6
CONTINUOUS
10
-13.048235
20
1.088790
30
0.0
11
-16.828945
21
1.088800
31
0.0
0
LINE
8
0
6
CONTINUOUS
10
-43.440875
20
17.989280
30
0.0
11
-40.174795
21
16.649420
31
0.0
0
LINE
8
0
6
CONTINUOUS
10
-46.288915
20
39.387240
30
0.0
11
-48.423695
21
36.539190
31
0.0
0
LINE
8
0
6
CONTINUOUS
10
-48.423685
20
22.971690
30
0.0
11
-46.288915
21
20.123650
31
0.0
0
LINE
8
0
6
CONTINUOUS
10
-43.440875
20
41.522000
30
0.0
11
-46.288915
21
39.387240
31
0.0
0
LINE
8
0
6
CONTINUOUS
10
-50.266625
20
29.755440
30
0.0
11
-49.763565
21
26.237980
31
0.0
0
LINE
8
0
6
CONTINUOUS
10
-49.763565
20
26.237980
30
0.0
11
-48.423685
21
22.971690
31
0.0
0
LINE
8
0
6
CONTINUOUS
10
-49.763555
20
33.272900
30
0.0
11
-50.266625
21
29.755440
31
0.0
0
LINE
8
0
6
CONTINUOUS
10
-40.174795
20
16.649420
30
0.0
11
-36.657525
21
16.146350
31
0.0
0
LINE
8
0
6
CONTINUOUS
10
-46.288915
20
20.123650
30
0.0
11
-43.440875
21
17.989280
31
0.0
0
LINE
8
0
6
CONTINUOUS
10
-48.423695
20
36.539190
30
0.0
11
-49.763555
21
33.272900
31
0.0
0
LINE
8
0
6
CONTINUOUS
10
-40.174785
20
42.861260
30
0.0
11
-43.440875
21
41.522000
31
0.0
0
LINE
8
0
6
CONTINUOUS
10
-36.657535
20
43.364120
30
0.0
11
-40.174785
21
42.861260
31
0.0
0
LINE
8
0
6
CONTINUOUS
10
-33.140275
20
16.649420
30
0.0
11
-29.874195
21
17.989290
31
0.0
0
LINE
8
0
6
CONTINUOUS
10
-24.891365
20
36.539190
30
0.0
11
-27.026135
21
39.387240
31
0.0
0
LINE
8
0
6
CONTINUOUS
10
-27.026135
20
20.123650
30
0.0
11
-24.891365
21
22.971690
31
0.0
0
LINE
8
0
6
CONTINUOUS
10
-27.026135
20
39.387240
30
0.0
11
-29.874195
21
41.522010
31
0.0
0
LINE
8
0
6
CONTINUOUS
10
-23.551505
20
26.237980
30
0.0
11
-23.048435
21
29.755440
31
0.0
0
LINE
8
0
6
CONTINUOUS
10
-24.891365
20
22.971690
30
0.0
11
-23.551505
21
26.237980
31
0.0
0
LINE
8
0
6
CONTINUOUS
10
-23.048435
20
29.755440
30
0.0
11
-23.551495
21
33.272900
31
0.0
0
LINE
8
0
6
CONTINUOUS
10
-36.657525
20
16.146350
30
0.0
11
-33.140275
21
16.649420
31
0.0
0
LINE
8
0
6
CONTINUOUS
10
-29.874195
20
17.989290
30
0.0
11
-27.026135
21
20.123650
31
0.0
0
LINE
8
0
6
CONTINUOUS
10
-23.551495
20
33.272900
30
0.0
11
-24.891365
21
36.539190
31
0.0
0
LINE
8
0
6
CONTINUOUS
10
-29.874195
20
41.522010
30
0.0
11
-33.140265
21
42.861260
31
0.0
0
LINE
8
0
6
CONTINUOUS
10
-33.140265
20
42.861260
30
0.0
11
-36.657535
21
43.364120
31
0.0
0
LINE
8
0
6
CONTINUOUS
10
-16.828945
20
1.088800
30
0.0
11
-20.609635
21
1.088790
31
0.0
0
LINE
8
0
6
CONTINUOUS
10
-12.551815
20
0.594910
30
0.0
11
-12.058425
21
0.594910
31
0.0
0
LINE
8
0
6
CONTINUOUS
10
6.516935
20
16.649420
30
0.0
11
9.783015
21
17.989280
31
0.0
0
LINE
8
0
6
CONTINUOUS
10
14.765835
20
36.539190
30
0.0
11
12.631065
21
39.387240
31
0.0
0
LINE
8
0
6
CONTINUOUS
10
12.631055
20
20.123650
30
0.0
11
14.765835
21
22.971690
31
0.0
0
LINE
8
0
6
CONTINUOUS
10
12.631065
20
39.387240
30
0.0
11
9.783015
21
41.522010
31
0.0
0
LINE
8
0
6
CONTINUOUS
10
16.105705
20
26.237970
30
0.0
11
16.608765
21
29.755440
31
0.0
0
LINE
8
0
6
CONTINUOUS
10
14.765835
20
22.971690
30
0.0
11
16.105705
21
26.237970
31
0.0
0
LINE
8
0
6
CONTINUOUS
10
16.608765
20
29.755440
30
0.0
11
16.105705
21
33.272900
31
0.0
0
LINE
8
0
6
CONTINUOUS
10
2.999665
20
16.146350
30
0.0
11
6.516935
21
16.649420
31
0.0
0
LINE
8
0
6
CONTINUOUS
10
9.783015
20
17.989280
30
0.0
11
12.631055
21
20.123650
31
0.0
0
LINE
8
0
6
CONTINUOUS
10
16.105705
20
33.272900
30
0.0
11
14.765835
21
36.539190
31
0.0
0
LINE
8
0
6
CONTINUOUS
10
9.783015
20
41.522010
30
0.0
11
6.516935
21
42.861260
31
0.0
0
LINE
8
0
6
CONTINUOUS
10
6.516935
20
42.861260
30
0.0
11
2.999675
21
43.364120
31
0.0
0
LINE
8
0
6
CONTINUOUS
10
-16.828945
20
1.088790
30
0.0
11
-17.978275
21
1.088790
31
0.0
0
LINE
8
0
6
CONTINUOUS
10
-18.066335
20
0.932240
30
0.0
11
-16.828945
21
0.932240
31
0.0
0
LINE
8
0
6
CONTINUOUS
10
-3.783665
20
17.989290
30
0.0
11
-0.517585
21
16.649420
31
0.0
0
LINE
8
0
6
CONTINUOUS
10
-6.631715
20
39.387240
30
0.0
11
-8.766495
21
36.539190
31
0.0
0
LINE
8
0
6
CONTINUOUS
10
-8.766485
20
22.971690
30
0.0
11
-6.631715
21
20.123650
31
0.0
0
LINE
8
0
6
CONTINUOUS
10
-3.783675
20
41.522000
30
0.0
11
-6.631715
21
39.387240
31
0.0
0
LINE
8
0
6
CONTINUOUS
10
-10.609425
20
29.755440
30
0.0
11
-10.106355
21
26.237980
31
0.0
0
LINE
8
0
6
CONTINUOUS
10
-10.106355
20
26.237980
30
0.0
11
-8.766485
21
22.971690
31
0.0
0
LINE
8
0
6
CONTINUOUS
10
-10.106355
20
33.272900
30
0.0
11
-10.609425
21
29.755440
31
0.0
0
LINE
8
0
6
CONTINUOUS
10
-0.517585
20
16.649420
30
0.0
11
2.999665
21
16.146350
31
0.0
0
LINE
8
0
6
CONTINUOUS
10
-6.631715
20
20.123650
30
0.0
11
-3.783665
21
17.989290
31
0.0
0
LINE
8
0
6
CONTINUOUS
10
-8.766495
20
36.539190
30
0.0
11
-10.106355
21
33.272900
31
0.0
0
LINE
8
0
6
CONTINUOUS
10
-0.517585
20
42.861260
30
0.0
11
-3.783675
21
41.522000
31
0.0
0
LINE
8
0
6
CONTINUOUS
10
2.999675
20
43.364120
30
0.0
11
-0.517585
21
42.861260
31
0.0
0
LINE
8
0
6
CONTINUOUS
10
-12.539595
20
1.088790
30
0.0
11
-12.983215
21
1.088790
31
0.0
0
LINE
8
0
6
CONTINUOUS
10
-12.688565
20
0.932240
30
0.0
11
-12.210945
21
0.932240
31
0.0
0
LINE
8
0
6
CONTINUOUS
10
-12.983215
20
1.088790
30
0.0
11
-13.688915
21
1.088790
31
0.0
0
LINE
8
0
6
CONTINUOUS
10
-13.448335
20
0.932240
30
0.0
11
-12.688565
21
0.932240
31
0.0
0
LINE
8
0
6
CONTINUOUS
10
-15.679605
20
1.088790
30
0.0
11
-16.828945
21
1.088790
31
0.0
0
LINE
8
0
6
CONTINUOUS
10
-16.828945
20
0.932240
30
0.0
11
-15.591555
21
0.932240
31
0.0
0
LINE
8
0
6
CONTINUOUS
10
-12.048045
20
0.932240
30
0.0
11
-12.210945
21
0.932240
31
0.0
0
LINE
8
0
6
CONTINUOUS
10
-11.890135
20
0.594910
30
0.0
11
-12.048045
21
0.932240
31
0.0
0
LINE
8
0
6
CONTINUOUS
10
-12.058425
20
0.594910
30
0.0
11
-11.890135
21
0.594910
31
0.0
0
LINE
8
0
6
CONTINUOUS
10
-14.608605
20
1.088790
30
0.0
11
-15.679605
21
1.088790
31
0.0
0
LINE
8
0
6
CONTINUOUS
10
-15.591555
20
0.932240
30
0.0
11
-14.438485
21
0.932240
31
0.0
0
LINE
8
0
6
CONTINUOUS
10
90.378475
20
-12.005470
30
0.0
11
90.153695
21
-12.005470
31
0.0
0
LINE
8
0
6
CONTINUOUS
10
90.378475
20
-13.270810
30
0.0
11
90.378475
21
-12.005470
31
0.0
0
LINE
8
0
6
CONTINUOUS
10
90.378465
20
-70.904020
30
0.0
11
90.378475
21
-13.270810
31
0.0
0
LINE
8
0
6
CONTINUOUS
10
90.153705
20
-71.744540
30
0.0
11
90.378485
21
-71.744540
31
0.0
0
LINE
8
0
6
CONTINUOUS
10
90.378485
20
-71.744540
30
0.0
11
90.378465
21
-70.904020
31
0.0
0
ENDSEC
0
EOF
