999
Erzeugt mit innoplus bad 
0
SECTION
2
HEADER
9
$ACADVER
1
AC1009
9
$DWGCODEPAGE
3
ISO8859-1
0
ENDSEC
0
SECTION
2
TABLES
0
TABLE
2
LAYER
70
1
0
LAYER
2
0
70
0
62
7
6
CONTINUOUS
0
ENDTAB
0
ENDSEC
0
SECTION
2
ENTITIES
0
LINE
8
0
6
CONTINUOUS
10
-30.992340
20
-48.869080
30
0.0
11
-25.368200
21
-56.369790
31
0.0
0
LINE
8
0
6
CONTINUOUS
10
-25.368200
20
-56.369790
30
0.0
11
-17.867480
21
-61.992850
31
0.0
0
LINE
8
0
6
CONTINUOUS
10
-31.321220
20
-12.942340
30
0.0
11
-25.637400
21
-5.362040
31
0.0
0
LINE
8
0
6
CONTINUOUS
10
-9.362850
20
3.886850
30
0.0
11
0.000000
21
5.224660
31
0.0
0
LINE
8
0
6
CONTINUOUS
10
-25.637400
20
-5.362040
30
0.0
11
-18.057080
21
0.321780
31
0.0
0
LINE
8
0
6
CONTINUOUS
10
-25.637400
20
-56.638990
30
0.0
11
-31.321220
21
-49.058690
31
0.0
0
LINE
8
0
6
CONTINUOUS
10
0.000000
20
-67.226780
30
0.0
11
-9.362850
21
-65.888400
31
0.0
0
LINE
8
0
6
CONTINUOUS
10
-18.057080
20
0.321780
30
0.0
11
-9.362850
21
3.886850
31
0.0
0
LINE
8
0
6
CONTINUOUS
10
-9.362850
20
-65.888400
30
0.0
11
-18.057080
21
-62.321720
31
0.0
0
LINE
8
0
6
CONTINUOUS
10
-36.226270
20
-31.000520
30
0.0
11
-34.887910
21
-21.637120
31
0.0
0
LINE
8
0
6
CONTINUOUS
10
-18.057080
20
-62.321720
30
0.0
11
-25.637400
21
-56.638990
31
0.0
0
LINE
8
0
6
CONTINUOUS
10
-34.887910
20
-21.637120
30
0.0
11
-31.321220
21
-12.942340
31
0.0
0
LINE
8
0
6
CONTINUOUS
10
-31.321220
20
-49.058690
30
0.0
11
-34.887910
21
-40.363910
31
0.0
0
LINE
8
0
6
CONTINUOUS
10
-34.887910
20
-40.363910
30
0.0
11
-36.226270
21
-31.000520
31
0.0
0
LINE
8
0
6
CONTINUOUS
10
-33.523380
20
20.206500
30
0.0
11
-35.977380
21
23.480420
31
0.0
0
LINE
8
0
6
CONTINUOUS
10
-26.494970
20
46.344180
30
0.0
11
-22.451760
21
46.922230
31
0.0
0
LINE
8
0
6
CONTINUOUS
10
-35.977380
20
39.076740
30
0.0
11
-33.523380
21
42.350670
31
0.0
0
LINE
8
0
6
CONTINUOUS
10
-30.249450
20
44.804660
30
0.0
11
-26.494970
21
46.344180
31
0.0
0
LINE
8
0
6
CONTINUOUS
10
-26.494970
20
16.212740
30
0.0
11
-30.249450
21
17.752970
31
0.0
0
LINE
8
0
6
CONTINUOUS
10
-37.517610
20
35.322030
30
0.0
11
-35.977380
21
39.076740
31
0.0
0
LINE
8
0
6
CONTINUOUS
10
-35.977380
20
23.480420
30
0.0
11
-37.517610
21
27.235130
31
0.0
0
LINE
8
0
6
CONTINUOUS
10
-38.095890
20
31.278580
30
0.0
11
-37.517610
21
35.322030
31
0.0
0
LINE
8
0
6
CONTINUOUS
10
-22.451760
20
15.634450
30
0.0
11
-26.494970
21
16.212740
31
0.0
0
LINE
8
0
6
CONTINUOUS
10
-30.249450
20
17.752970
30
0.0
11
-33.523380
21
20.206500
31
0.0
0
LINE
8
0
6
CONTINUOUS
10
-37.806750
20
29.256860
30
0.0
11
-38.095890
21
31.278580
31
0.0
0
LINE
8
0
6
CONTINUOUS
10
-33.523380
20
42.350670
30
0.0
11
-30.249450
21
44.804660
31
0.0
0
LINE
8
0
6
CONTINUOUS
10
-22.451760
20
46.922230
30
0.0
11
-18.408550
21
46.344180
31
0.0
0
LINE
8
0
6
CONTINUOUS
10
-11.380140
20
42.350670
30
0.0
11
-8.926150
21
39.076740
31
0.0
0
LINE
8
0
6
CONTINUOUS
10
-18.408550
20
46.344180
30
0.0
11
-14.654070
21
44.804660
31
0.0
0
LINE
8
0
6
CONTINUOUS
10
-14.654080
20
17.752970
30
0.0
11
-18.408550
21
16.212740
31
0.0
0
LINE
8
0
6
CONTINUOUS
10
-8.926150
20
39.076740
30
0.0
11
-7.385920
21
35.322030
31
0.0
0
LINE
8
0
6
CONTINUOUS
10
-7.385920
20
35.322030
30
0.0
11
-6.807640
21
31.278580
31
0.0
0
LINE
8
0
6
CONTINUOUS
10
-18.408550
20
16.212740
30
0.0
11
-22.451760
21
15.634450
31
0.0
0
LINE
8
0
6
CONTINUOUS
10
-11.380150
20
20.206500
30
0.0
11
-14.654080
21
17.752970
31
0.0
0
LINE
8
0
6
CONTINUOUS
10
-6.807640
20
31.278580
30
0.0
11
-7.385920
21
27.235130
31
0.0
0
LINE
8
0
6
CONTINUOUS
10
-14.654070
20
44.804660
30
0.0
11
-11.380140
21
42.350670
31
0.0
0
LINE
8
0
6
CONTINUOUS
10
-25.368200
20
-5.631250
30
0.0
11
-30.992340
21
-13.131960
31
0.0
0
LINE
8
0
6
CONTINUOUS
10
0.000000
20
4.844290
30
0.0
11
-9.264540
21
3.520530
31
0.0
0
LINE
8
0
6
CONTINUOUS
10
-17.867480
20
-0.007110
30
0.0
11
-25.368200
21
-5.631250
31
0.0
0
LINE
8
0
6
CONTINUOUS
10
-9.264540
20
-65.522090
30
0.0
11
0.000000
21
-66.846420
31
0.0
0
LINE
8
0
6
CONTINUOUS
10
-9.264540
20
3.520530
30
0.0
11
-17.867480
21
-0.007110
31
0.0
0
LINE
8
0
6
CONTINUOUS
10
-17.867480
20
-61.992850
30
0.0
11
-9.264540
21
-65.522090
31
0.0
0
LINE
8
0
6
CONTINUOUS
10
-34.521590
20
-21.735440
30
0.0
11
-35.845890
21
-31.000520
31
0.0
0
LINE
8
0
6
CONTINUOUS
10
-30.992340
20
-13.131960
30
0.0
11
-34.521590
21
-21.735440
31
0.0
0
LINE
8
0
6
CONTINUOUS
10
-34.521590
20
-40.265600
30
0.0
11
-30.992340
21
-48.869080
31
0.0
0
LINE
8
0
6
CONTINUOUS
10
-35.845890
20
-31.000520
30
0.0
11
-34.521590
21
-40.265600
31
0.0
0
LINE
8
0
6
CONTINUOUS
10
-8.926150
20
23.480420
30
0.0
11
-11.380150
21
20.206500
31
0.0
0
LINE
8
0
6
CONTINUOUS
10
-7.385920
20
27.235130
30
0.0
11
-8.926150
21
23.480420
31
0.0
0
LINE
8
0
6
CONTINUOUS
10
-32.528070
20
-78.529770
30
0.0
11
-16.582650
21
-83.366760
31
0.0
0
LINE
8
0
6
CONTINUOUS
10
-78.529760
20
-32.528080
30
0.0
11
-70.674920
21
-47.223470
31
0.0
0
LINE
8
0
6
CONTINUOUS
10
-78.529760
20
32.528090
30
0.0
11
-83.366750
21
16.582680
31
0.0
0
LINE
8
0
6
CONTINUOUS
10
-32.528090
20
78.529750
30
0.0
11
-47.223460
21
70.674910
31
0.0
0
LINE
8
0
6
CONTINUOUS
10
-16.582650
20
-83.366760
30
0.0
11
0.000000
21
-85.000000
31
0.0
0
LINE
8
0
6
CONTINUOUS
10
-70.674920
20
-47.223470
30
0.0
11
-60.104070
21
-60.104080
31
0.0
0
LINE
8
0
6
CONTINUOUS
10
-83.366750
20
16.582680
30
0.0
11
-85.000000
21
0.000000
31
0.0
0
LINE
8
0
6
CONTINUOUS
10
-47.223460
20
70.674910
30
0.0
11
-60.104070
21
60.104070
31
0.0
0
LINE
8
0
6
CONTINUOUS
10
-60.104070
20
60.104070
30
0.0
11
-70.674920
21
47.223460
31
0.0
0
LINE
8
0
6
CONTINUOUS
10
0.000000
20
85.000000
30
0.0
11
-16.582670
21
83.366740
31
0.0
0
LINE
8
0
6
CONTINUOUS
10
-60.104070
20
-60.104080
30
0.0
11
-47.223460
21
-70.674930
31
0.0
0
LINE
8
0
6
CONTINUOUS
10
-85.000000
20
0.000000
30
0.0
11
-83.366750
21
-16.582670
31
0.0
0
LINE
8
0
6
CONTINUOUS
10
-83.366750
20
-16.582670
30
0.0
11
-78.529760
21
-32.528080
31
0.0
0
LINE
8
0
6
CONTINUOUS
10
-70.674920
20
47.223460
30
0.0
11
-78.529760
21
32.528090
31
0.0
0
LINE
8
0
6
CONTINUOUS
10
-16.582670
20
83.366740
30
0.0
11
-32.528090
21
78.529750
31
0.0
0
LINE
8
0
6
CONTINUOUS
10
-47.223460
20
-70.674930
30
0.0
11
-32.528070
21
-78.529770
31
0.0
0
LINE
8
0
6
CONTINUOUS
10
0.000000
20
84.574280
30
0.0
11
-16.499620
21
82.949210
31
0.0
0
LINE
8
0
6
CONTINUOUS
10
-31.789290
20
77.512260
30
0.0
11
-16.204010
21
82.240010
31
0.0
0
LINE
8
0
6
CONTINUOUS
10
-16.499620
20
82.949210
30
0.0
11
-32.365170
21
78.136450
31
0.0
0
LINE
8
0
6
CONTINUOUS
10
-46.160310
20
69.830770
30
0.0
11
-31.789290
21
77.512260
31
0.0
0
LINE
8
0
6
CONTINUOUS
10
-32.365170
20
78.136450
30
0.0
11
-46.986950
21
70.320940
31
0.0
0
LINE
8
0
6
CONTINUOUS
10
-58.764510
20
59.486770
30
0.0
11
-46.160310
21
69.830770
31
0.0
0
LINE
8
0
6
CONTINUOUS
10
-46.986950
20
70.320940
30
0.0
11
-59.803040
21
59.803040
31
0.0
0
LINE
8
0
6
CONTINUOUS
10
-69.113920
20
46.875990
30
0.0
11
-58.764510
21
59.486770
31
0.0
0
LINE
8
0
6
CONTINUOUS
10
-59.803040
20
59.803040
30
0.0
11
-70.320940
21
46.986940
31
0.0
0
LINE
8
0
6
CONTINUOUS
10
-76.808260
20
32.480880
30
0.0
11
-69.113920
21
46.875990
31
0.0
0
LINE
8
0
6
CONTINUOUS
10
-70.320940
20
46.986940
30
0.0
11
-78.136450
21
32.365170
31
0.0
0
LINE
8
0
6
CONTINUOUS
10
-81.548450
20
16.854620
30
0.0
11
-76.808260
21
32.480880
31
0.0
0
LINE
8
0
6
CONTINUOUS
10
-78.136450
20
32.365170
30
0.0
11
-82.949210
21
16.499630
31
0.0
0
LINE
8
0
6
CONTINUOUS
10
-83.178720
20
0.302140
30
0.0
11
-81.548450
21
16.854620
31
0.0
0
LINE
8
0
6
CONTINUOUS
10
-82.949210
20
16.499630
30
0.0
11
-84.574280
21
0.000000
31
0.0
0
LINE
8
0
6
CONTINUOUS
10
-81.518090
20
-16.558510
30
0.0
11
-83.178720
21
0.302140
31
0.0
0
LINE
8
0
6
CONTINUOUS
10
-84.574280
20
0.000000
30
0.0
11
-82.949210
21
-16.499610
31
0.0
0
LINE
8
0
6
CONTINUOUS
10
-76.766590
20
-32.222090
30
0.0
11
-81.518090
21
-16.558510
31
0.0
0
LINE
8
0
6
CONTINUOUS
10
-82.949210
20
-16.499610
30
0.0
11
-78.136450
21
-32.365160
31
0.0
0
LINE
8
0
6
CONTINUOUS
10
-69.055810
20
-46.647960
30
0.0
11
-76.766590
21
-32.222090
31
0.0
0
LINE
8
0
6
CONTINUOUS
10
-78.136450
20
-32.365160
30
0.0
11
-70.320940
21
-46.986950
31
0.0
0
LINE
8
0
6
CONTINUOUS
10
-58.691630
20
-59.276740
30
0.0
11
-69.055810
21
-46.647960
31
0.0
0
LINE
8
0
6
CONTINUOUS
10
-70.320940
20
-46.986950
30
0.0
11
-59.803040
21
-59.803050
31
0.0
0
LINE
8
0
6
CONTINUOUS
10
-46.079140
20
-69.627550
30
0.0
11
-58.691630
21
-59.276740
31
0.0
0
LINE
8
0
6
CONTINUOUS
10
-59.803040
20
-59.803050
30
0.0
11
-46.986940
21
-70.320950
31
0.0
0
LINE
8
0
6
CONTINUOUS
10
-31.716500
20
-77.304550
30
0.0
11
-46.079140
21
-69.627550
31
0.0
0
LINE
8
0
6
CONTINUOUS
10
-46.986940
20
-70.320950
30
0.0
11
-32.365160
21
-78.136470
31
0.0
0
LINE
8
0
6
CONTINUOUS
10
-16.161460
20
-82.023100
30
0.0
11
-31.716500
21
-77.304550
31
0.0
0
LINE
8
0
6
CONTINUOUS
10
-32.365160
20
-78.136470
30
0.0
11
-16.499600
21
-82.949220
31
0.0
0
LINE
8
0
6
CONTINUOUS
10
0.000000
20
-83.614860
30
0.0
11
-16.161460
21
-82.023100
31
0.0
0
LINE
8
0
6
CONTINUOUS
10
-16.499600
20
-82.949220
30
0.0
11
0.000000
21
-84.574290
31
0.0
0
LINE
8
0
6
CONTINUOUS
10
-37.517610
20
27.235130
30
0.0
11
-37.806750
21
29.256860
31
0.0
0
LINE
8
0
6
CONTINUOUS
10
25.368200
20
-56.369790
30
0.0
11
30.992340
21
-48.869080
31
0.0
0
LINE
8
0
6
CONTINUOUS
10
17.867480
20
-61.992850
30
0.0
11
25.368200
21
-56.369790
31
0.0
0
LINE
8
0
6
CONTINUOUS
10
25.637400
20
-5.362040
30
0.0
11
31.321220
21
-12.942340
31
0.0
0
LINE
8
0
6
CONTINUOUS
10
0.000000
20
5.224660
30
0.0
11
9.362850
21
3.886850
31
0.0
0
LINE
8
0
6
CONTINUOUS
10
18.057080
20
0.321780
30
0.0
11
25.637400
21
-5.362040
31
0.0
0
LINE
8
0
6
CONTINUOUS
10
31.321220
20
-49.058690
30
0.0
11
25.637400
21
-56.638990
31
0.0
0
LINE
8
0
6
CONTINUOUS
10
9.362850
20
-65.888400
30
0.0
11
0.000000
21
-67.226780
31
0.0
0
LINE
8
0
6
CONTINUOUS
10
9.362850
20
3.886850
30
0.0
11
18.057080
21
0.321780
31
0.0
0
LINE
8
0
6
CONTINUOUS
10
18.057080
20
-62.321720
30
0.0
11
9.362850
21
-65.888400
31
0.0
0
LINE
8
0
6
CONTINUOUS
10
34.887910
20
-21.637120
30
0.0
11
36.226270
21
-31.000520
31
0.0
0
LINE
8
0
6
CONTINUOUS
10
25.637400
20
-56.638990
30
0.0
11
18.057080
21
-62.321720
31
0.0
0
LINE
8
0
6
CONTINUOUS
10
31.321220
20
-12.942340
30
0.0
11
34.887910
21
-21.637120
31
0.0
0
LINE
8
0
6
CONTINUOUS
10
34.887910
20
-40.363910
30
0.0
11
31.321220
21
-49.058690
31
0.0
0
LINE
8
0
6
CONTINUOUS
10
36.226270
20
-31.000520
30
0.0
11
34.887910
21
-40.363910
31
0.0
0
LINE
8
0
6
CONTINUOUS
10
35.977380
20
23.480420
30
0.0
11
33.523380
21
20.206500
31
0.0
0
LINE
8
0
6
CONTINUOUS
10
22.451760
20
46.922230
30
0.0
11
26.494970
21
46.344180
31
0.0
0
LINE
8
0
6
CONTINUOUS
10
33.523380
20
42.350670
30
0.0
11
35.977380
21
39.076740
31
0.0
0
LINE
8
0
6
CONTINUOUS
10
26.494970
20
46.344180
30
0.0
11
30.249450
21
44.804660
31
0.0
0
LINE
8
0
6
CONTINUOUS
10
30.249450
20
17.752970
30
0.0
11
26.494970
21
16.212740
31
0.0
0
LINE
8
0
6
CONTINUOUS
10
35.977380
20
39.076740
30
0.0
11
37.517610
21
35.322030
31
0.0
0
LINE
8
0
6
CONTINUOUS
10
37.517610
20
27.235130
30
0.0
11
35.977380
21
23.480420
31
0.0
0
LINE
8
0
6
CONTINUOUS
10
37.517610
20
35.322030
30
0.0
11
38.095890
21
31.278580
31
0.0
0
LINE
8
0
6
CONTINUOUS
10
26.494970
20
16.212740
30
0.0
11
22.451760
21
15.634450
31
0.0
0
LINE
8
0
6
CONTINUOUS
10
33.523380
20
20.206500
30
0.0
11
30.249450
21
17.752970
31
0.0
0
LINE
8
0
6
CONTINUOUS
10
38.095890
20
31.278580
30
0.0
11
37.806750
21
29.256860
31
0.0
0
LINE
8
0
6
CONTINUOUS
10
30.249450
20
44.804660
30
0.0
11
33.523380
21
42.350670
31
0.0
0
LINE
8
0
6
CONTINUOUS
10
18.408550
20
46.344180
30
0.0
11
22.451760
21
46.922230
31
0.0
0
LINE
8
0
6
CONTINUOUS
10
8.926150
20
39.076740
30
0.0
11
11.380140
21
42.350670
31
0.0
0
LINE
8
0
6
CONTINUOUS
10
14.654070
20
44.804660
30
0.0
11
18.408550
21
46.344180
31
0.0
0
LINE
8
0
6
CONTINUOUS
10
18.408550
20
16.212740
30
0.0
11
14.654080
21
17.752970
31
0.0
0
LINE
8
0
6
CONTINUOUS
10
7.385920
20
35.322030
30
0.0
11
8.926150
21
39.076740
31
0.0
0
LINE
8
0
6
CONTINUOUS
10
6.807640
20
31.278580
30
0.0
11
7.385920
21
35.322030
31
0.0
0
LINE
8
0
6
CONTINUOUS
10
22.451760
20
15.634450
30
0.0
11
18.408550
21
16.212740
31
0.0
0
LINE
8
0
6
CONTINUOUS
10
14.654080
20
17.752970
30
0.0
11
11.380150
21
20.206500
31
0.0
0
LINE
8
0
6
CONTINUOUS
10
7.385920
20
27.235130
30
0.0
11
6.807640
21
31.278580
31
0.0
0
LINE
8
0
6
CONTINUOUS
10
11.380140
20
42.350670
30
0.0
11
14.654070
21
44.804660
31
0.0
0
LINE
8
0
6
CONTINUOUS
10
30.992340
20
-13.131960
30
0.0
11
25.368200
21
-5.631250
31
0.0
0
LINE
8
0
6
CONTINUOUS
10
9.264540
20
3.520530
30
0.0
11
0.000000
21
4.844290
31
0.0
0
LINE
8
0
6
CONTINUOUS
10
25.368200
20
-5.631250
30
0.0
11
17.867480
21
-0.007110
31
0.0
0
LINE
8
0
6
CONTINUOUS
10
0.000000
20
-66.846420
30
0.0
11
9.264540
21
-65.522090
31
0.0
0
LINE
8
0
6
CONTINUOUS
10
17.867480
20
-0.007110
30
0.0
11
9.264540
21
3.520530
31
0.0
0
LINE
8
0
6
CONTINUOUS
10
9.264540
20
-65.522090
30
0.0
11
17.867480
21
-61.992850
31
0.0
0
LINE
8
0
6
CONTINUOUS
10
35.845890
20
-31.000520
30
0.0
11
34.521590
21
-21.735440
31
0.0
0
LINE
8
0
6
CONTINUOUS
10
34.521590
20
-21.735440
30
0.0
11
30.992340
21
-13.131960
31
0.0
0
LINE
8
0
6
CONTINUOUS
10
30.992340
20
-48.869080
30
0.0
11
34.521590
21
-40.265600
31
0.0
0
LINE
8
0
6
CONTINUOUS
10
34.521590
20
-40.265600
30
0.0
11
35.845890
21
-31.000520
31
0.0
0
LINE
8
0
6
CONTINUOUS
10
11.380150
20
20.206500
30
0.0
11
8.926150
21
23.480420
31
0.0
0
LINE
8
0
6
CONTINUOUS
10
8.926150
20
23.480420
30
0.0
11
7.385920
21
27.235130
31
0.0
0
LINE
8
0
6
CONTINUOUS
10
16.582650
20
-83.366760
30
0.0
11
32.528070
21
-78.529770
31
0.0
0
LINE
8
0
6
CONTINUOUS
10
70.674920
20
-47.223470
30
0.0
11
78.529760
21
-32.528080
31
0.0
0
LINE
8
0
6
CONTINUOUS
10
83.366750
20
16.582680
30
0.0
11
78.529760
21
32.528090
31
0.0
0
LINE
8
0
6
CONTINUOUS
10
47.223460
20
70.674910
30
0.0
11
32.528090
21
78.529750
31
0.0
0
LINE
8
0
6
CONTINUOUS
10
0.000000
20
-85.000000
30
0.0
11
16.582650
21
-83.366760
31
0.0
0
LINE
8
0
6
CONTINUOUS
10
60.104070
20
-60.104080
30
0.0
11
70.674920
21
-47.223470
31
0.0
0
LINE
8
0
6
CONTINUOUS
10
85.000000
20
0.000000
30
0.0
11
83.366750
21
16.582680
31
0.0
0
LINE
8
0
6
CONTINUOUS
10
60.104070
20
60.104070
30
0.0
11
47.223460
21
70.674910
31
0.0
0
LINE
8
0
6
CONTINUOUS
10
70.674920
20
47.223460
30
0.0
11
60.104070
21
60.104070
31
0.0
0
LINE
8
0
6
CONTINUOUS
10
16.582670
20
83.366740
30
0.0
11
0.000000
21
85.000000
31
0.0
0
LINE
8
0
6
CONTINUOUS
10
47.223460
20
-70.674930
30
0.0
11
60.104070
21
-60.104080
31
0.0
0
LINE
8
0
6
CONTINUOUS
10
83.366750
20
-16.582670
30
0.0
11
85.000000
21
0.000000
31
0.0
0
LINE
8
0
6
CONTINUOUS
10
78.529760
20
-32.528080
30
0.0
11
83.366750
21
-16.582670
31
0.0
0
LINE
8
0
6
CONTINUOUS
10
78.529760
20
32.528090
30
0.0
11
70.674920
21
47.223460
31
0.0
0
LINE
8
0
6
CONTINUOUS
10
32.528090
20
78.529750
30
0.0
11
16.582670
21
83.366740
31
0.0
0
LINE
8
0
6
CONTINUOUS
10
32.528070
20
-78.529770
30
0.0
11
47.223460
21
-70.674930
31
0.0
0
LINE
8
0
6
CONTINUOUS
10
0.000000
20
83.835970
30
0.0
11
16.204010
21
82.240010
31
0.0
0
LINE
8
0
6
CONTINUOUS
10
16.499620
20
82.949210
30
0.0
11
0.000000
21
84.574280
31
0.0
0
LINE
8
0
6
CONTINUOUS
10
16.204010
20
82.240010
30
0.0
11
31.789290
21
77.512260
31
0.0
0
LINE
8
0
6
CONTINUOUS
10
32.365170
20
78.136450
30
0.0
11
16.499620
21
82.949210
31
0.0
0
LINE
8
0
6
CONTINUOUS
10
31.789290
20
77.512260
30
0.0
11
46.160310
21
69.830770
31
0.0
0
LINE
8
0
6
CONTINUOUS
10
46.986950
20
70.320940
30
0.0
11
32.365170
21
78.136450
31
0.0
0
LINE
8
0
6
CONTINUOUS
10
46.160310
20
69.830770
30
0.0
11
58.764510
21
59.486770
31
0.0
0
LINE
8
0
6
CONTINUOUS
10
59.803040
20
59.803040
30
0.0
11
46.986950
21
70.320940
31
0.0
0
LINE
8
0
6
CONTINUOUS
10
58.764510
20
59.486770
30
0.0
11
69.113920
21
46.875990
31
0.0
0
LINE
8
0
6
CONTINUOUS
10
70.320940
20
46.986940
30
0.0
11
59.803040
21
59.803040
31
0.0
0
LINE
8
0
6
CONTINUOUS
10
69.113920
20
46.875990
30
0.0
11
76.808260
21
32.480880
31
0.0
0
LINE
8
0
6
CONTINUOUS
10
78.136450
20
32.365170
30
0.0
11
70.320940
21
46.986940
31
0.0
0
LINE
8
0
6
CONTINUOUS
10
76.808260
20
32.480880
30
0.0
11
81.548450
21
16.854620
31
0.0
0
LINE
8
0
6
CONTINUOUS
10
82.949210
20
16.499630
30
0.0
11
78.136450
21
32.365170
31
0.0
0
LINE
8
0
6
CONTINUOUS
10
81.548450
20
16.854620
30
0.0
11
83.178720
21
0.302140
31
0.0
0
LINE
8
0
6
CONTINUOUS
10
84.574280
20
0.000000
30
0.0
11
82.949210
21
16.499630
31
0.0
0
LINE
8
0
6
CONTINUOUS
10
83.178720
20
0.302140
30
0.0
11
81.518090
21
-16.558510
31
0.0
0
LINE
8
0
6
CONTINUOUS
10
82.949210
20
-16.499610
30
0.0
11
84.574280
21
0.000000
31
0.0
0
LINE
8
0
6
CONTINUOUS
10
81.518090
20
-16.558510
30
0.0
11
76.766590
21
-32.222090
31
0.0
0
LINE
8
0
6
CONTINUOUS
10
78.136450
20
-32.365160
30
0.0
11
82.949210
21
-16.499610
31
0.0
0
LINE
8
0
6
CONTINUOUS
10
76.766590
20
-32.222090
30
0.0
11
69.055810
21
-46.647960
31
0.0
0
LINE
8
0
6
CONTINUOUS
10
70.320940
20
-46.986950
30
0.0
11
78.136450
21
-32.365160
31
0.0
0
LINE
8
0
6
CONTINUOUS
10
69.055810
20
-46.647960
30
0.0
11
58.691630
21
-59.276740
31
0.0
0
LINE
8
0
6
CONTINUOUS
10
59.803040
20
-59.803050
30
0.0
11
70.320940
21
-46.986950
31
0.0
0
LINE
8
0
6
CONTINUOUS
10
58.691630
20
-59.276740
30
0.0
11
46.079140
21
-69.627550
31
0.0
0
LINE
8
0
6
CONTINUOUS
10
46.986940
20
-70.320950
30
0.0
11
59.803040
21
-59.803050
31
0.0
0
LINE
8
0
6
CONTINUOUS
10
46.079140
20
-69.627550
30
0.0
11
31.716500
21
-77.304550
31
0.0
0
LINE
8
0
6
CONTINUOUS
10
32.365160
20
-78.136470
30
0.0
11
46.986940
21
-70.320950
31
0.0
0
LINE
8
0
6
CONTINUOUS
10
31.716500
20
-77.304550
30
0.0
11
16.161460
21
-82.023100
31
0.0
0
LINE
8
0
6
CONTINUOUS
10
16.499600
20
-82.949220
30
0.0
11
32.365160
21
-78.136470
31
0.0
0
LINE
8
0
6
CONTINUOUS
10
16.161460
20
-82.023100
30
0.0
11
0.000000
21
-83.614860
31
0.0
0
LINE
8
0
6
CONTINUOUS
10
0.000000
20
-84.574290
30
0.0
11
16.499600
21
-82.949220
31
0.0
0
LINE
8
0
6
CONTINUOUS
10
15.577680
20
80.765320
30
0.0
11
0.000000
21
82.299600
31
0.0
0
LINE
8
0
6
CONTINUOUS
10
37.806750
20
29.256860
30
0.0
11
37.517610
21
27.235130
31
0.0
0
LINE
8
0
6
CONTINUOUS
10
-15.577680
20
80.765320
30
0.0
11
0.000000
21
82.299600
31
0.0
0
LINE
8
0
6
CONTINUOUS
10
0.000000
20
83.835970
30
0.0
11
-16.204010
21
82.240010
31
0.0
0
LINE
8
0
6
CONTINUOUS
10
-30.132490
20
17.955860
30
0.0
11
-26.434320
21
16.438730
31
0.0
0
LINE
8
0
6
CONTINUOUS
10
-33.357310
20
42.184580
30
0.0
11
-35.774500
21
38.959760
31
0.0
0
LINE
8
0
6
CONTINUOUS
10
-35.774500
20
23.597390
30
0.0
11
-33.357310
21
20.372590
31
0.0
0
LINE
8
0
6
CONTINUOUS
10
-30.132490
20
44.601770
30
0.0
11
-33.357310
21
42.184580
31
0.0
0
LINE
8
0
6
CONTINUOUS
10
-37.861230
20
31.278580
30
0.0
11
-37.291620
21
27.295780
31
0.0
0
LINE
8
0
6
CONTINUOUS
10
-37.291620
20
27.295780
30
0.0
11
-35.774500
21
23.597390
31
0.0
0
LINE
8
0
6
CONTINUOUS
10
-37.291620
20
35.261370
30
0.0
11
-37.861230
21
31.278580
31
0.0
0
LINE
8
0
6
CONTINUOUS
10
-26.434320
20
16.438730
30
0.0
11
-22.451760
21
15.869110
31
0.0
0
LINE
8
0
6
CONTINUOUS
10
-33.357310
20
20.372590
30
0.0
11
-30.132490
21
17.955860
31
0.0
0
LINE
8
0
6
CONTINUOUS
10
-35.774500
20
38.959760
30
0.0
11
-37.291620
21
35.261370
31
0.0
0
LINE
8
0
6
CONTINUOUS
10
-26.434330
20
46.118200
30
0.0
11
-30.132490
21
44.601770
31
0.0
0
LINE
8
0
6
CONTINUOUS
10
-22.451760
20
46.687580
30
0.0
11
-26.434330
21
46.118200
31
0.0
0
LINE
8
0
6
CONTINUOUS
10
-18.469200
20
16.438730
30
0.0
11
-14.771040
21
17.955860
31
0.0
0
LINE
8
0
6
CONTINUOUS
10
-9.129030
20
38.959760
30
0.0
11
-11.546220
21
42.184580
31
0.0
0
LINE
8
0
6
CONTINUOUS
10
-11.546220
20
20.372590
30
0.0
11
-9.129030
21
23.597390
31
0.0
0
LINE
8
0
6
CONTINUOUS
10
-11.546220
20
42.184580
30
0.0
11
-14.771040
21
44.601770
31
0.0
0
LINE
8
0
6
CONTINUOUS
10
-7.611910
20
27.295780
30
0.0
11
-7.042300
21
31.278580
31
0.0
0
LINE
8
0
6
CONTINUOUS
10
-9.129030
20
23.597390
30
0.0
11
-7.611910
21
27.295780
31
0.0
0
LINE
8
0
6
CONTINUOUS
10
-7.042300
20
31.278580
30
0.0
11
-7.611910
21
35.261370
31
0.0
0
LINE
8
0
6
CONTINUOUS
10
-22.451760
20
15.869110
30
0.0
11
-18.469200
21
16.438730
31
0.0
0
LINE
8
0
6
CONTINUOUS
10
-14.771040
20
17.955860
30
0.0
11
-11.546220
21
20.372590
31
0.0
0
LINE
8
0
6
CONTINUOUS
10
-7.611910
20
35.261370
30
0.0
11
-9.129030
21
38.959760
31
0.0
0
LINE
8
0
6
CONTINUOUS
10
-14.771040
20
44.601770
30
0.0
11
-18.469200
21
46.118200
31
0.0
0
LINE
8
0
6
CONTINUOUS
10
-18.469200
20
46.118200
30
0.0
11
-22.451760
21
46.687580
31
0.0
0
LINE
8
0
6
CONTINUOUS
10
26.434320
20
16.438730
30
0.0
11
30.132490
21
17.955860
31
0.0
0
LINE
8
0
6
CONTINUOUS
10
35.774500
20
38.959760
30
0.0
11
33.357310
21
42.184580
31
0.0
0
LINE
8
0
6
CONTINUOUS
10
33.357310
20
20.372590
30
0.0
11
35.774500
21
23.597390
31
0.0
0
LINE
8
0
6
CONTINUOUS
10
33.357310
20
42.184580
30
0.0
11
30.132490
21
44.601770
31
0.0
0
LINE
8
0
6
CONTINUOUS
10
37.291620
20
27.295780
30
0.0
11
37.861230
21
31.278580
31
0.0
0
LINE
8
0
6
CONTINUOUS
10
35.774500
20
23.597390
30
0.0
11
37.291620
21
27.295780
31
0.0
0
LINE
8
0
6
CONTINUOUS
10
37.861230
20
31.278580
30
0.0
11
37.291620
21
35.261370
31
0.0
0
LINE
8
0
6
CONTINUOUS
10
22.451760
20
15.869110
30
0.0
11
26.434320
21
16.438730
31
0.0
0
LINE
8
0
6
CONTINUOUS
10
30.132490
20
17.955860
30
0.0
11
33.357310
21
20.372590
31
0.0
0
LINE
8
0
6
CONTINUOUS
10
37.291620
20
35.261370
30
0.0
11
35.774500
21
38.959760
31
0.0
0
LINE
8
0
6
CONTINUOUS
10
30.132490
20
44.601770
30
0.0
11
26.434330
21
46.118200
31
0.0
0
LINE
8
0
6
CONTINUOUS
10
26.434330
20
46.118200
30
0.0
11
22.451760
21
46.687580
31
0.0
0
LINE
8
0
6
CONTINUOUS
10
14.771040
20
17.955860
30
0.0
11
18.469200
21
16.438730
31
0.0
0
LINE
8
0
6
CONTINUOUS
10
11.546220
20
42.184580
30
0.0
11
9.129030
21
38.959760
31
0.0
0
LINE
8
0
6
CONTINUOUS
10
9.129030
20
23.597390
30
0.0
11
11.546220
21
20.372590
31
0.0
0
LINE
8
0
6
CONTINUOUS
10
14.771040
20
44.601770
30
0.0
11
11.546220
21
42.184580
31
0.0
0
LINE
8
0
6
CONTINUOUS
10
7.042300
20
31.278580
30
0.0
11
7.611910
21
27.295780
31
0.0
0
LINE
8
0
6
CONTINUOUS
10
7.611910
20
27.295780
30
0.0
11
9.129030
21
23.597390
31
0.0
0
LINE
8
0
6
CONTINUOUS
10
7.611910
20
35.261370
30
0.0
11
7.042300
21
31.278580
31
0.0
0
LINE
8
0
6
CONTINUOUS
10
18.469200
20
16.438730
30
0.0
11
22.451760
21
15.869110
31
0.0
0
LINE
8
0
6
CONTINUOUS
10
11.546220
20
20.372590
30
0.0
11
14.771040
21
17.955860
31
0.0
0
LINE
8
0
6
CONTINUOUS
10
9.129030
20
38.959760
30
0.0
11
7.611910
21
35.261370
31
0.0
0
LINE
8
0
6
CONTINUOUS
10
18.469200
20
46.118200
30
0.0
11
14.771040
21
44.601770
31
0.0
0
LINE
8
0
6
CONTINUOUS
10
22.451760
20
46.687580
30
0.0
11
18.469200
21
46.118200
31
0.0
0
LINE
8
0
6
CONTINUOUS
10
4.938785
20
-7.556526
30
0.0
11
4.938780
21
-4.460845
31
0.0
0
LINE
8
0
6
CONTINUOUS
10
-4.938820
20
-4.460855
30
0.0
11
-4.938817
21
-7.556501
31
0.0
0
LINE
8
0
6
CONTINUOUS
10
-1.278270
20
-4.401715
30
0.0
11
-0.000020
21
-4.401705
31
0.0
0
LINE
8
0
6
CONTINUOUS
10
-4.780910
20
-4.064385
30
0.0
11
-4.938820
21
-4.401715
31
0.0
0
LINE
8
0
6
CONTINUOUS
10
-1.149350
20
-3.907835
30
0.0
11
-2.220340
21
-3.907835
31
0.0
0
LINE
8
0
6
CONTINUOUS
10
-3.845750
20
-3.907835
30
0.0
11
-4.289370
21
-3.907835
31
0.0
0
LINE
8
0
6
CONTINUOUS
10
-2.220340
20
-3.907835
30
0.0
11
-3.140040
21
-3.907835
31
0.0
0
LINE
8
0
6
CONTINUOUS
10
-3.140040
20
-3.907835
30
0.0
11
-3.845750
21
-3.907835
31
0.0
0
LINE
8
0
6
CONTINUOUS
10
4.440640
20
-3.907835
30
0.0
11
4.289330
21
-3.907835
31
0.0
0
LINE
8
0
6
CONTINUOUS
10
4.780890
20
-4.064385
30
0.0
11
4.440640
21
-3.907835
31
0.0
0
LINE
8
0
6
CONTINUOUS
10
-4.140390
20
-4.064385
30
0.0
11
-4.618010
21
-4.064385
31
0.0
0
LINE
8
0
6
CONTINUOUS
10
2.469380
20
-4.401705
30
0.0
11
1.278240
21
-4.401705
31
0.0
0
LINE
8
0
6
CONTINUOUS
10
4.938780
20
-4.460845
30
0.0
11
4.938780
21
-4.401715
31
0.0
0
LINE
8
0
6
CONTINUOUS
10
-4.938820
20
-4.401715
30
0.0
11
-4.938820
21
-4.460855
31
0.0
0
LINE
8
0
6
CONTINUOUS
10
-4.770540
20
-4.401715
30
0.0
11
-4.938820
21
-4.401715
31
0.0
0
LINE
8
0
6
CONTINUOUS
10
-4.277150
20
-4.401715
30
0.0
11
-4.770540
21
-4.401715
31
0.0
0
LINE
8
0
6
CONTINUOUS
10
1.278240
20
-4.401705
30
0.0
11
-0.000020
21
-4.401705
31
0.0
0
LINE
8
0
6
CONTINUOUS
10
1.129880
20
-3.907835
30
0.0
11
2.182780
21
-3.907835
31
0.0
0
LINE
8
0
6
CONTINUOUS
10
-0.000020
20
-3.907835
30
0.0
11
1.129880
21
-3.907835
31
0.0
0
LINE
8
0
6
CONTINUOUS
10
-3.086950
20
-3.907835
30
0.0
11
-2.182800
21
-3.907835
31
0.0
0
LINE
8
0
6
CONTINUOUS
10
-3.780720
20
-3.907835
30
0.0
11
-3.086950
21
-3.907835
31
0.0
0
LINE
8
0
6
CONTINUOUS
10
-0.000020
20
-3.907825
30
0.0
11
-3.780720
21
-3.907835
31
0.0
0
LINE
8
0
6
CONTINUOUS
10
2.182780
20
-3.907835
30
0.0
11
3.086910
21
-3.907835
31
0.0
0
LINE
8
0
6
CONTINUOUS
10
3.780690
20
-3.907835
30
0.0
11
-0.000020
21
-3.907825
31
0.0
0
LINE
8
0
6
CONTINUOUS
10
3.086910
20
-3.907835
30
0.0
11
3.780690
21
-3.907835
31
0.0
0
LINE
8
0
6
CONTINUOUS
10
-1.129910
20
-3.907835
30
0.0
11
-0.000020
21
-3.907835
31
0.0
0
LINE
8
0
6
CONTINUOUS
10
-2.182800
20
-3.907835
30
0.0
11
-1.129910
21
-3.907835
31
0.0
0
LINE
8
0
6
CONTINUOUS
10
-2.390470
20
-4.064385
30
0.0
11
-3.380620
21
-4.064385
31
0.0
0
LINE
8
0
6
CONTINUOUS
10
-3.492280
20
-4.401715
30
0.0
11
-2.469420
21
-4.401715
31
0.0
0
LINE
8
0
6
CONTINUOUS
10
3.492250
20
-4.401705
30
0.0
11
4.277110
21
-4.401705
31
0.0
0
LINE
8
0
6
CONTINUOUS
10
3.140010
20
-3.907835
30
0.0
11
2.220320
21
-3.907835
31
0.0
0
LINE
8
0
6
CONTINUOUS
10
3.380590
20
-4.064385
30
0.0
11
2.390440
21
-4.064385
31
0.0
0
LINE
8
0
6
CONTINUOUS
10
2.469380
20
-4.401705
30
0.0
11
3.492250
21
-4.401705
31
0.0
0
LINE
8
0
6
CONTINUOUS
10
-4.440680
20
-3.907835
30
0.0
11
-4.780910
21
-4.064385
31
0.0
0
LINE
8
0
6
CONTINUOUS
10
-4.289370
20
-3.907835
30
0.0
11
-4.440680
21
-3.907835
31
0.0
0
LINE
8
0
6
CONTINUOUS
10
-4.780910
20
-4.064385
30
0.0
11
-4.618010
21
-4.064385
31
0.0
0
LINE
8
0
6
CONTINUOUS
10
-3.380620
20
-4.064385
30
0.0
11
-4.140390
21
-4.064385
31
0.0
0
LINE
8
0
6
CONTINUOUS
10
-4.277150
20
-4.401715
30
0.0
11
-3.492280
21
-4.401715
31
0.0
0
LINE
8
0
6
CONTINUOUS
10
-1.237410
20
-4.064385
30
0.0
11
-2.390470
21
-4.064385
31
0.0
0
LINE
8
0
6
CONTINUOUS
10
-2.469420
20
-4.401715
30
0.0
11
-1.278270
21
-4.401715
31
0.0
0
LINE
8
0
6
CONTINUOUS
10
2.220320
20
-3.907835
30
0.0
11
1.149310
21
-3.907835
31
0.0
0
LINE
8
0
6
CONTINUOUS
10
1.237370
20
-4.064385
30
0.0
11
2.390440
21
-4.064385
31
0.0
0
LINE
8
0
6
CONTINUOUS
10
4.780890
20
-4.064385
30
0.0
11
4.617980
21
-4.064385
31
0.0
0
LINE
8
0
6
CONTINUOUS
10
4.938780
20
-4.401715
30
0.0
11
4.780890
21
-4.064385
31
0.0
0
LINE
8
0
6
CONTINUOUS
10
4.770500
20
-4.401715
30
0.0
11
4.938780
21
-4.401715
31
0.0
0
LINE
8
0
6
CONTINUOUS
10
1.149310
20
-3.907835
30
0.0
11
-0.000020
21
-3.907835
31
0.0
0
LINE
8
0
6
CONTINUOUS
10
-0.000020
20
-4.064385
30
0.0
11
1.237370
21
-4.064385
31
0.0
0
LINE
8
0
6
CONTINUOUS
10
3.845710
20
-3.907835
30
0.0
11
3.140010
21
-3.907835
31
0.0
0
LINE
8
0
6
CONTINUOUS
10
3.380590
20
-4.064385
30
0.0
11
4.140370
21
-4.064385
31
0.0
0
LINE
8
0
6
CONTINUOUS
10
4.289330
20
-3.907835
30
0.0
11
3.845710
21
-3.907835
31
0.0
0
LINE
8
0
6
CONTINUOUS
10
-0.000020
20
-3.907835
30
0.0
11
-1.149350
21
-3.907835
31
0.0
0
LINE
8
0
6
CONTINUOUS
10
-1.237410
20
-4.064385
30
0.0
11
-0.000020
21
-4.064385
31
0.0
0
LINE
8
0
6
CONTINUOUS
10
4.617980
20
-4.064385
30
0.0
11
4.140370
21
-4.064385
31
0.0
0
LINE
8
0
6
CONTINUOUS
10
4.277110
20
-4.401705
30
0.0
11
4.770500
21
-4.401715
31
0.0
0
LINE
8
0
6
CONTINUOUS
10
5.340480
20
-7.601745
30
0.0
11
-0.000020
21
-7.000015
31
0.0
0
LINE
8
0
6
CONTINUOUS
10
5.340560
20
-54.398255
30
0.0
11
10.413260
21
-52.623215
31
0.0
0
LINE
8
0
6
CONTINUOUS
10
21.623280
20
-41.413165
30
0.0
11
23.398290
21
-36.340475
31
0.0
0
LINE
8
0
6
CONTINUOUS
10
5.288230
20
-7.830635
30
0.0
11
-0.000020
21
-7.234795
31
0.0
0
LINE
8
0
6
CONTINUOUS
10
-23.999980
20
-31.000065
30
0.0
11
-23.398260
21
-36.340545
31
0.0
0
LINE
8
0
6
CONTINUOUS
10
14.963740
20
-12.236035
30
0.0
11
10.413200
21
-9.376745
31
0.0
0
LINE
8
0
6
CONTINUOUS
10
-14.963670
20
-49.763985
30
0.0
11
-10.413150
21
-52.623265
31
0.0
0
LINE
8
0
6
CONTINUOUS
10
-5.340530
20
-7.601765
30
0.0
11
-10.413250
21
-9.376785
31
0.0
0
LINE
8
0
6
CONTINUOUS
10
-10.311370
20
-9.588315
30
0.0
11
-5.288270
21
-7.830655
31
0.0
0
LINE
8
0
6
CONTINUOUS
10
-18.763900
20
-45.963785
30
0.0
11
-14.963670
21
-49.763985
31
0.0
0
LINE
8
0
6
CONTINUOUS
10
23.398280
20
-25.659465
30
0.0
11
21.623240
21
-20.586775
31
0.0
0
LINE
8
0
6
CONTINUOUS
10
-23.765210
20
-31.000065
30
0.0
11
-23.169330
21
-36.288305
31
0.0
0
LINE
8
0
6
CONTINUOUS
10
-18.580350
20
-45.817405
30
0.0
11
-14.817320
21
-49.580415
31
0.0
0
LINE
8
0
6
CONTINUOUS
10
21.623240
20
-20.586775
30
0.0
11
18.763950
21
-16.036235
31
0.0
0
LINE
8
0
6
CONTINUOUS
10
18.580390
20
-16.182615
30
0.0
11
21.411710
21
-20.688635
31
0.0
0
LINE
8
0
6
CONTINUOUS
10
10.413260
20
-52.623215
30
0.0
11
14.963800
21
-49.763905
31
0.0
0
LINE
8
0
6
CONTINUOUS
10
14.817410
20
-49.580355
30
0.0
11
10.311400
21
-52.411685
31
0.0
0
LINE
8
0
6
CONTINUOUS
10
-18.158940
20
-45.481355
30
0.0
11
-14.481260
21
-49.159025
31
0.0
0
LINE
8
0
6
CONTINUOUS
10
-20.926070
20
-41.077525
30
0.0
11
-18.158940
21
-45.481355
31
0.0
0
LINE
8
0
6
CONTINUOUS
10
-22.643870
20
-36.168385
30
0.0
11
-20.926070
21
-41.077525
31
0.0
0
LINE
8
0
6
CONTINUOUS
10
-23.226200
20
-31.000065
30
0.0
11
-22.643870
21
-36.168385
31
0.0
0
LINE
8
0
6
CONTINUOUS
10
-22.643900
20
-25.831735
30
0.0
11
-23.226200
21
-31.000065
31
0.0
0
LINE
8
0
6
CONTINUOUS
10
-20.926130
20
-20.922565
30
0.0
11
-22.643900
21
-25.831735
31
0.0
0
LINE
8
0
6
CONTINUOUS
10
-18.159020
20
-16.518725
30
0.0
11
-20.926130
21
-20.922565
31
0.0
0
LINE
8
0
6
CONTINUOUS
10
-5.168350
20
-8.356125
30
0.0
11
-10.077530
21
-10.073915
31
0.0
0
LINE
8
0
6
CONTINUOUS
10
5.168300
20
-8.356115
30
0.0
11
-0.000020
21
-7.773785
31
0.0
0
LINE
8
0
6
CONTINUOUS
10
10.077470
20
-10.073885
30
0.0
11
5.168300
21
-8.356115
31
0.0
0
LINE
8
0
6
CONTINUOUS
10
18.158990
20
-16.518675
30
0.0
11
14.481310
21
-12.840995
31
0.0
0
LINE
8
0
6
CONTINUOUS
10
20.926090
20
-20.922505
30
0.0
11
18.158990
21
-16.518675
31
0.0
0
LINE
8
0
6
CONTINUOUS
10
23.226230
20
-30.999975
30
0.0
11
22.643900
21
-25.831645
31
0.0
0
LINE
8
0
6
CONTINUOUS
10
22.643910
20
-36.168295
30
0.0
11
23.226230
21
-30.999975
31
0.0
0
LINE
8
0
6
CONTINUOUS
10
18.159040
20
-45.481275
30
0.0
11
20.926140
21
-41.077455
31
0.0
0
LINE
8
0
6
CONTINUOUS
10
10.077530
20
-51.926085
30
0.0
11
14.481370
21
-49.158945
31
0.0
0
LINE
8
0
6
CONTINUOUS
10
-5.168230
20
-53.643905
30
0.0
11
-10.077420
21
-51.926135
31
0.0
0
LINE
8
0
6
CONTINUOUS
10
14.963800
20
-49.763905
30
0.0
11
18.763980
21
-45.963715
31
0.0
0
LINE
8
0
6
CONTINUOUS
10
14.817360
20
-12.419595
30
0.0
11
10.311320
21
-9.588285
31
0.0
0
LINE
8
0
6
CONTINUOUS
10
10.077470
20
-10.073885
30
0.0
11
14.481310
21
-12.840995
31
0.0
0
LINE
8
0
6
CONTINUOUS
10
-18.159020
20
-16.518725
30
0.0
11
-14.481340
21
-12.841055
31
0.0
0
LINE
8
0
6
CONTINUOUS
10
-14.963780
20
-12.236085
30
0.0
11
-18.763960
21
-16.036305
31
0.0
0
LINE
8
0
6
CONTINUOUS
10
-18.580410
20
-16.182685
30
0.0
11
-14.817390
21
-12.419655
31
0.0
0
LINE
8
0
6
CONTINUOUS
10
5.168370
20
-53.643885
30
0.0
11
0.000070
21
-54.226205
31
0.0
0
LINE
8
0
6
CONTINUOUS
10
-21.623210
20
-41.413265
30
0.0
11
-18.763900
21
-45.963785
31
0.0
0
LINE
8
0
6
CONTINUOUS
10
-18.580350
20
-45.817405
30
0.0
11
-21.411670
21
-41.311385
31
0.0
0
LINE
8
0
6
CONTINUOUS
10
0.000070
20
-54.999985
30
0.0
11
5.340560
21
-54.398255
31
0.0
0
LINE
8
0
6
CONTINUOUS
10
5.288320
20
-54.169355
30
0.0
11
0.000070
21
-54.765195
31
0.0
0
LINE
8
0
6
CONTINUOUS
10
18.763950
20
-16.036235
30
0.0
11
14.963740
21
-12.236035
31
0.0
0
LINE
8
0
6
CONTINUOUS
10
14.817360
20
-12.419595
30
0.0
11
18.580390
21
-16.182615
31
0.0
0
LINE
8
0
6
CONTINUOUS
10
20.926090
20
-20.922505
30
0.0
11
22.643900
21
-25.831645
31
0.0
0
LINE
8
0
6
CONTINUOUS
10
23.169380
20
-25.711715
30
0.0
11
21.411710
21
-20.688635
31
0.0
0
LINE
8
0
6
CONTINUOUS
10
-10.413150
20
-52.623265
30
0.0
11
-5.340420
21
-54.398265
31
0.0
0
LINE
8
0
6
CONTINUOUS
10
-5.288180
20
-54.169375
30
0.0
11
-10.311280
21
-52.411735
31
0.0
0
LINE
8
0
6
CONTINUOUS
10
-5.168350
20
-8.356125
30
0.0
11
-0.000020
21
-7.773785
31
0.0
0
LINE
8
0
6
CONTINUOUS
10
-10.077420
20
-51.926135
30
0.0
11
-14.481260
21
-49.159025
31
0.0
0
LINE
8
0
6
CONTINUOUS
10
-14.817320
20
-49.580415
30
0.0
11
-10.311280
21
-52.411735
31
0.0
0
LINE
8
0
6
CONTINUOUS
10
-0.000020
20
-7.000015
30
0.0
11
-5.340530
21
-7.601765
31
0.0
0
LINE
8
0
6
CONTINUOUS
10
-5.288270
20
-7.830655
30
0.0
11
-0.000020
21
-7.234795
31
0.0
0
LINE
8
0
6
CONTINUOUS
10
24.000000
20
-30.999975
30
0.0
11
23.398280
21
-25.659465
31
0.0
0
LINE
8
0
6
CONTINUOUS
10
23.169380
20
-25.711715
30
0.0
11
23.765230
21
-30.999975
31
0.0
0
LINE
8
0
6
CONTINUOUS
10
-18.763960
20
-16.036305
30
0.0
11
-21.623260
21
-20.586855
31
0.0
0
LINE
8
0
6
CONTINUOUS
10
-21.411740
20
-20.688715
30
0.0
11
-18.580410
21
-16.182685
31
0.0
0
LINE
8
0
6
CONTINUOUS
10
18.763980
20
-45.963715
30
0.0
11
21.623280
21
-41.413165
31
0.0
0
LINE
8
0
6
CONTINUOUS
10
21.411740
20
-41.311305
30
0.0
11
18.580440
21
-45.817335
31
0.0
0
LINE
8
0
6
CONTINUOUS
10
-14.481340
20
-12.841055
30
0.0
11
-10.077530
21
-10.073915
31
0.0
0
LINE
8
0
6
CONTINUOUS
10
-5.340420
20
-54.398265
30
0.0
11
0.000070
21
-54.999985
31
0.0
0
LINE
8
0
6
CONTINUOUS
10
0.000070
20
-54.226205
30
0.0
11
-5.168230
21
-53.643905
31
0.0
0
LINE
8
0
6
CONTINUOUS
10
-5.288180
20
-54.169375
30
0.0
11
0.000070
21
-54.765195
31
0.0
0
LINE
8
0
6
CONTINUOUS
10
-23.398260
20
-36.340545
30
0.0
11
-21.623210
21
-41.413265
31
0.0
0
LINE
8
0
6
CONTINUOUS
10
-21.411670
20
-41.311385
30
0.0
11
-23.169330
21
-36.288305
31
0.0
0
LINE
8
0
6
CONTINUOUS
10
23.398290
20
-36.340475
30
0.0
11
24.000000
21
-30.999975
31
0.0
0
LINE
8
0
6
CONTINUOUS
10
23.765230
20
-30.999975
30
0.0
11
23.169390
21
-36.288235
31
0.0
0
LINE
8
0
6
CONTINUOUS
10
18.159040
20
-45.481275
30
0.0
11
14.481370
21
-49.158945
31
0.0
0
LINE
8
0
6
CONTINUOUS
10
14.817410
20
-49.580355
30
0.0
11
18.580440
21
-45.817335
31
0.0
0
LINE
8
0
6
CONTINUOUS
10
-21.623260
20
-20.586855
30
0.0
11
-23.398270
21
-25.659555
31
0.0
0
LINE
8
0
6
CONTINUOUS
10
-23.169380
20
-25.711805
30
0.0
11
-21.411740
21
-20.688715
31
0.0
0
LINE
8
0
6
CONTINUOUS
10
22.643910
20
-36.168295
30
0.0
11
20.926140
21
-41.077455
31
0.0
0
LINE
8
0
6
CONTINUOUS
10
21.411740
20
-41.311305
30
0.0
11
23.169390
21
-36.288235
31
0.0
0
LINE
8
0
6
CONTINUOUS
10
10.413200
20
-9.376745
30
0.0
11
5.340480
21
-7.601745
31
0.0
0
LINE
8
0
6
CONTINUOUS
10
5.288230
20
-7.830635
30
0.0
11
10.311320
21
-9.588285
31
0.0
0
LINE
8
0
6
CONTINUOUS
10
-14.817390
20
-12.419655
30
0.0
11
-10.311370
21
-9.588315
31
0.0
0
LINE
8
0
6
CONTINUOUS
10
-10.413250
20
-9.376785
30
0.0
11
-14.963780
21
-12.236085
31
0.0
0
LINE
8
0
6
CONTINUOUS
10
-23.398270
20
-25.659555
30
0.0
11
-23.999980
21
-31.000065
31
0.0
0
LINE
8
0
6
CONTINUOUS
10
-23.765210
20
-31.000065
30
0.0
11
-23.169380
21
-25.711805
31
0.0
0
LINE
8
0
6
CONTINUOUS
10
10.077530
20
-51.926085
30
0.0
11
5.168370
21
-53.643885
31
0.0
0
LINE
8
0
6
CONTINUOUS
10
5.288320
20
-54.169355
30
0.0
11
10.311400
21
-52.411685
31
0.0
0
ENDSEC
0
EOF
