999
Erzeugt mit innoplus bad 
0
SECTION
2
HEADER
9
$ACADVER
1
AC1009
9
$DWGCODEPAGE
3
ISO8859-1
0
ENDSEC
0
SECTION
2
TABLES
0
TABLE
2
LAYER
70
1
0
LAYER
2
0
70
0
62
7
6
CONTINUOUS
0
ENDTAB
0
ENDSEC
0
SECTION
2
ENTITIES
0
LINE
8
0
6
CONTINUOUS
10
24.709070
20
30.000000
30
0.0
11
-11.541229
21
30.000000
31
0.0
0
LINE
8
0
6
CONTINUOUS
10
-17.891543
20
-28.869250
30
0.0
11
-20.308647
21
-28.805600
31
0.0
0
LINE
8
0
6
CONTINUOUS
10
-25.049830
20
29.161400
30
0.0
11
-25.050000
21
-28.223730
31
0.0
0
LINE
8
0
6
CONTINUOUS
10
-25.049830
20
30.000000
30
0.0
11
-25.049830
21
29.161400
31
0.0
0
LINE
8
0
6
CONTINUOUS
10
-24.877235
20
30.000000
30
0.0
11
-25.049830
21
30.000000
31
0.0
0
LINE
8
0
6
CONTINUOUS
10
-22.201174
20
30.000000
30
0.0
11
-24.704631
21
30.000000
31
0.0
0
LINE
8
0
6
CONTINUOUS
10
-18.920256
20
30.000000
30
0.0
11
-22.201174
21
30.000000
31
0.0
0
LINE
8
0
6
CONTINUOUS
10
-24.704631
20
30.000000
30
0.0
11
-24.877235
21
30.000000
31
0.0
0
LINE
8
0
6
CONTINUOUS
10
-11.541229
20
30.000000
30
0.0
11
-15.248278
21
30.000000
31
0.0
0
LINE
8
0
6
CONTINUOUS
10
-15.248278
20
30.000000
30
0.0
11
-18.920256
21
30.000000
31
0.0
0
LINE
8
0
6
CONTINUOUS
10
-24.877315
20
-28.685300
30
0.0
11
-24.704631
21
-28.689840
31
0.0
0
LINE
8
0
6
CONTINUOUS
10
25.049729
20
30.000000
30
0.0
11
24.709070
21
30.000000
31
0.0
0
LINE
8
0
6
CONTINUOUS
10
25.049729
20
29.161400
30
0.0
11
25.049729
21
30.000000
31
0.0
0
LINE
8
0
6
CONTINUOUS
10
-25.050000
20
-28.680750
30
0.0
11
-24.877315
21
-28.685300
31
0.0
0
LINE
8
0
6
CONTINUOUS
10
-25.050000
20
-28.223730
30
0.0
11
-25.050000
21
-28.680750
31
0.0
0
LINE
8
0
6
CONTINUOUS
10
-22.675982
20
-28.743260
30
0.0
11
-22.398849
21
-28.750560
31
0.0
0
LINE
8
0
6
CONTINUOUS
10
24.708859
20
-29.991010
30
0.0
11
-11.541229
21
-29.036460
31
0.0
0
LINE
8
0
6
CONTINUOUS
10
-22.201174
20
-28.755760
30
0.0
11
-18.920256
21
-28.842160
31
0.0
0
LINE
8
0
6
CONTINUOUS
10
-18.920256
20
-28.842160
30
0.0
11
-15.248278
21
-28.938850
31
0.0
0
LINE
8
0
6
CONTINUOUS
10
25.049729
20
-29.542970
30
0.0
11
25.049729
21
29.161400
31
0.0
0
LINE
8
0
6
CONTINUOUS
10
25.049729
20
-29.999980
30
0.0
11
25.049729
21
-29.542970
31
0.0
0
LINE
8
0
6
CONTINUOUS
10
24.708859
20
-29.991010
30
0.0
11
25.049729
21
-29.999980
31
0.0
0
LINE
8
0
6
CONTINUOUS
10
-22.201174
20
-28.755760
30
0.0
11
-24.704631
21
-28.689840
31
0.0
0
LINE
8
0
6
CONTINUOUS
10
-20.308647
20
-28.805600
30
0.0
11
-17.891543
21
-28.869250
31
0.0
0
LINE
8
0
6
CONTINUOUS
10
-11.541229
20
-29.036460
30
0.0
11
-15.248278
21
-28.938850
31
0.0
0
ENDSEC
0
EOF
