999
Erzeugt mit innoplus bad 
0
SECTION
2
HEADER
9
$ACADVER
1
AC1009
9
$DWGCODEPAGE
3
ISO8859-1
0
ENDSEC
0
SECTION
2
TABLES
0
TABLE
2
LAYER
70
1
0
LAYER
2
0
70
0
62
7
6
CONTINUOUS
0
ENDTAB
0
ENDSEC
0
SECTION
2
ENTITIES
0
LINE
8
0
6
CONTINUOUS
10
-38.682250
20
20.999995
30
0.0
11
-47.177620
21
20.999995
31
0.0
0
LINE
8
0
6
CONTINUOUS
10
-11.620110
20
20.999995
30
0.0
11
-21.268310
21
20.999995
31
0.0
0
LINE
8
0
6
CONTINUOUS
10
-10.192460
20
20.999995
30
0.0
11
-11.620110
21
20.999995
31
0.0
0
LINE
8
0
6
CONTINUOUS
10
-8.764800
20
20.999995
30
0.0
11
-10.192460
21
20.999995
31
0.0
0
LINE
8
0
6
CONTINUOUS
10
-7.337150
20
20.999995
30
0.0
11
-8.764800
21
20.999995
31
0.0
0
LINE
8
0
6
CONTINUOUS
10
29.882980
20
20.999995
30
0.0
11
-7.337150
21
20.999995
31
0.0
0
LINE
8
0
6
CONTINUOUS
10
47.500000
20
20.499995
30
0.0
11
47.500000
21
20.999995
31
0.0
0
LINE
8
0
6
CONTINUOUS
10
47.500000
20
20.999995
30
0.0
11
47.058310
21
20.999995
31
0.0
0
LINE
8
0
6
CONTINUOUS
10
47.058310
20
20.999995
30
0.0
11
45.755360
21
20.999995
31
0.0
0
LINE
8
0
6
CONTINUOUS
10
45.755360
20
20.999995
30
0.0
11
43.656520
21
20.999995
31
0.0
0
LINE
8
0
6
CONTINUOUS
10
43.656520
20
20.999995
30
0.0
11
40.867000
21
20.999995
31
0.0
0
LINE
8
0
6
CONTINUOUS
10
40.867000
20
20.999995
30
0.0
11
37.526720
21
20.999995
31
0.0
0
LINE
8
0
6
CONTINUOUS
10
37.526720
20
20.999995
30
0.0
11
33.803130
21
20.999995
31
0.0
0
LINE
8
0
6
CONTINUOUS
10
33.803130
20
20.999995
30
0.0
11
29.882980
21
20.999995
31
0.0
0
LINE
8
0
6
CONTINUOUS
10
-21.268310
20
20.999995
30
0.0
11
-24.044380
21
20.999995
31
0.0
0
LINE
8
0
6
CONTINUOUS
10
-24.044380
20
20.999995
30
0.0
11
-26.921690
21
20.999995
31
0.0
0
LINE
8
0
6
CONTINUOUS
10
-26.921690
20
20.999995
30
0.0
11
-29.858150
21
20.999995
31
0.0
0
LINE
8
0
6
CONTINUOUS
10
-35.830470
20
20.999995
30
0.0
11
-38.682250
21
20.999995
31
0.0
0
LINE
8
0
6
CONTINUOUS
10
-32.874690
20
20.999995
30
0.0
11
-35.830470
21
20.999995
31
0.0
0
LINE
8
0
6
CONTINUOUS
10
-29.858150
20
20.999995
30
0.0
11
-32.874690
21
20.999995
31
0.0
0
LINE
8
0
6
CONTINUOUS
10
-47.500000
20
20.999995
30
0.0
11
-47.490270
21
20.499995
31
0.0
0
LINE
8
0
6
CONTINUOUS
10
-47.177620
20
20.999995
30
0.0
11
-47.500000
21
20.999995
31
0.0
0
LINE
8
0
6
CONTINUOUS
10
-47.490270
20
20.499995
30
0.0
11
-46.967230
21
-6.398315
31
0.0
0
LINE
8
0
6
CONTINUOUS
10
47.500000
20
-9.424305
30
0.0
11
47.500000
21
20.499995
31
0.0
0
LINE
8
0
6
CONTINUOUS
10
-17.940470
20
-7.960635
30
0.0
11
-17.723110
21
-10.290445
31
0.0
0
LINE
8
0
6
CONTINUOUS
10
-7.337150
20
-10.002245
30
0.0
11
29.882990
21
-10.002245
31
0.0
0
LINE
8
0
6
CONTINUOUS
10
47.500000
20
-10.002245
30
0.0
11
47.500000
21
-9.424305
31
0.0
0
LINE
8
0
6
CONTINUOUS
10
47.058310
20
-10.002245
30
0.0
11
47.500000
21
-10.002245
31
0.0
0
LINE
8
0
6
CONTINUOUS
10
45.755360
20
-10.002245
30
0.0
11
47.058310
21
-10.002245
31
0.0
0
LINE
8
0
6
CONTINUOUS
10
43.656520
20
-10.002245
30
0.0
11
45.755360
21
-10.002245
31
0.0
0
LINE
8
0
6
CONTINUOUS
10
40.867010
20
-10.002245
30
0.0
11
43.656520
21
-10.002245
31
0.0
0
LINE
8
0
6
CONTINUOUS
10
37.526720
20
-10.002245
30
0.0
11
40.867010
21
-10.002245
31
0.0
0
LINE
8
0
6
CONTINUOUS
10
33.803130
20
-10.002245
30
0.0
11
37.526720
21
-10.002245
31
0.0
0
LINE
8
0
6
CONTINUOUS
10
29.882990
20
-10.002245
30
0.0
11
33.803130
21
-10.002245
31
0.0
0
LINE
8
0
6
CONTINUOUS
10
-10.250760
20
-10.666485
30
0.0
11
-8.837590
21
-10.142915
31
0.0
0
LINE
8
0
6
CONTINUOUS
10
-20.366040
20
-18.503455
30
0.0
11
-20.366040
21
-20.689895
31
0.0
0
LINE
8
0
6
CONTINUOUS
10
-16.602230
20
-20.813435
30
0.0
11
-16.442320
21
-20.626865
31
0.0
0
LINE
8
0
6
CONTINUOUS
10
-16.762140
20
-20.999995
30
0.0
11
-16.602230
21
-20.813435
31
0.0
0
LINE
8
0
6
CONTINUOUS
10
-17.100590
20
-20.999995
30
0.0
11
-16.762140
21
-20.999995
31
0.0
0
LINE
8
0
6
CONTINUOUS
10
-39.347710
20
-17.794655
30
0.0
11
-39.559560
21
-17.495105
31
0.0
0
LINE
8
0
6
CONTINUOUS
10
-39.347710
20
-18.293205
30
0.0
11
-39.347710
21
-17.794655
31
0.0
0
LINE
8
0
6
CONTINUOUS
10
-43.207570
20
-20.626865
30
0.0
11
-43.043300
21
-20.813435
31
0.0
0
LINE
8
0
6
CONTINUOUS
10
-39.559560
20
-17.495105
30
0.0
11
-40.067860
21
-16.776425
31
0.0
0
LINE
8
0
6
CONTINUOUS
10
-20.137740
20
-20.999995
30
0.0
11
-17.100590
21
-20.999995
31
0.0
0
LINE
8
0
6
CONTINUOUS
10
-46.330920
20
-14.374445
30
0.0
11
-44.939590
21
-17.920845
31
0.0
0
LINE
8
0
6
CONTINUOUS
10
-39.347710
20
-20.999995
30
0.0
11
-39.347710
21
-20.793315
31
0.0
0
LINE
8
0
6
CONTINUOUS
10
-39.582230
20
-20.999995
30
0.0
11
-39.347710
21
-20.999995
31
0.0
0
LINE
8
0
6
CONTINUOUS
10
-44.939590
20
-17.920845
30
0.0
11
-43.207570
21
-20.626865
31
0.0
0
LINE
8
0
6
CONTINUOUS
10
-40.067860
20
-16.776425
30
0.0
11
-41.285730
21
-14.184545
31
0.0
0
LINE
8
0
6
CONTINUOUS
10
-32.688360
20
1.686095
30
0.0
11
-29.858150
21
2.031655
31
0.0
0
LINE
8
0
6
CONTINUOUS
10
-37.770380
20
-0.929955
30
0.0
11
-35.375410
21
0.681975
31
0.0
0
LINE
8
0
6
CONTINUOUS
10
-41.822110
20
-8.484405
30
0.0
11
-41.171360
21
-5.675125
31
0.0
0
LINE
8
0
6
CONTINUOUS
10
-41.171360
20
-5.675125
30
0.0
11
-39.688030
21
-3.067795
31
0.0
0
LINE
8
0
6
CONTINUOUS
10
-35.375410
20
0.681975
30
0.0
11
-32.688360
21
1.686095
31
0.0
0
LINE
8
0
6
CONTINUOUS
10
-41.787530
20
-11.342695
30
0.0
11
-41.822110
21
-8.484405
31
0.0
0
LINE
8
0
6
CONTINUOUS
10
-46.903140
20
-10.405335
30
0.0
11
-46.330920
21
-14.374445
31
0.0
0
LINE
8
0
6
CONTINUOUS
10
-39.688030
20
-3.067795
30
0.0
11
-37.770380
21
-0.929955
31
0.0
0
LINE
8
0
6
CONTINUOUS
10
-41.285730
20
-14.184545
30
0.0
11
-41.787530
21
-11.342695
31
0.0
0
LINE
8
0
6
CONTINUOUS
10
-46.967230
20
-6.398315
30
0.0
11
-46.903140
21
-10.405335
31
0.0
0
LINE
8
0
6
CONTINUOUS
10
-20.366040
20
-18.004905
30
0.0
11
-20.366040
21
-18.503455
31
0.0
0
LINE
8
0
6
CONTINUOUS
10
-20.159800
20
-17.705345
30
0.0
11
-20.366040
21
-18.004905
31
0.0
0
LINE
8
0
6
CONTINUOUS
10
-39.347710
20
-20.793315
30
0.0
11
-39.347710
21
-18.293205
31
0.0
0
LINE
8
0
6
CONTINUOUS
10
-19.665010
20
-16.986675
30
0.0
11
-20.159800
21
-17.705345
31
0.0
0
LINE
8
0
6
CONTINUOUS
10
-13.544390
20
-15.097885
30
0.0
11
-12.797050
21
-13.137375
31
0.0
0
LINE
8
0
6
CONTINUOUS
10
-11.499200
20
-11.509055
30
0.0
11
-10.250760
21
-10.666485
31
0.0
0
LINE
8
0
6
CONTINUOUS
10
-42.531270
20
-20.999995
30
0.0
11
-39.582230
21
-20.999995
31
0.0
0
LINE
8
0
6
CONTINUOUS
10
-15.298480
20
-18.877405
30
0.0
11
-14.293240
21
-17.044345
31
0.0
0
LINE
8
0
6
CONTINUOUS
10
-20.366040
20
-20.999995
30
0.0
11
-20.137740
21
-20.999995
31
0.0
0
LINE
8
0
6
CONTINUOUS
10
-20.366040
20
-20.689895
30
0.0
11
-20.366040
21
-20.999995
31
0.0
0
LINE
8
0
6
CONTINUOUS
10
-43.043300
20
-20.813435
30
0.0
11
-42.879020
21
-20.999995
31
0.0
0
LINE
8
0
6
CONTINUOUS
10
-42.879020
20
-20.999995
30
0.0
11
-42.531270
21
-20.999995
31
0.0
0
LINE
8
0
6
CONTINUOUS
10
-12.797050
20
-13.137375
30
0.0
11
-11.499200
21
-11.509055
31
0.0
0
LINE
8
0
6
CONTINUOUS
10
-16.442320
20
-20.626865
30
0.0
11
-15.298480
21
-18.877405
31
0.0
0
LINE
8
0
6
CONTINUOUS
10
-18.559990
20
-14.911885
30
0.0
11
-19.665010
21
-16.986675
31
0.0
0
LINE
8
0
6
CONTINUOUS
10
-29.858150
20
2.031655
30
0.0
11
-27.103070
21
1.704825
31
0.0
0
LINE
8
0
6
CONTINUOUS
10
-24.487360
20
0.775605
30
0.0
11
-21.967750
21
-0.817595
31
0.0
0
LINE
8
0
6
CONTINUOUS
10
-18.551650
20
-5.675115
30
0.0
11
-17.940470
21
-7.960635
31
0.0
0
LINE
8
0
6
CONTINUOUS
10
-19.912780
20
-3.067795
30
0.0
11
-18.551650
21
-5.675115
31
0.0
0
LINE
8
0
6
CONTINUOUS
10
-27.103070
20
1.704825
30
0.0
11
-24.487360
21
0.775605
31
0.0
0
LINE
8
0
6
CONTINUOUS
10
-17.723110
20
-10.290445
30
0.0
11
-17.987500
21
-12.627735
31
0.0
0
LINE
8
0
6
CONTINUOUS
10
-14.293240
20
-17.044345
30
0.0
11
-13.544390
21
-15.097885
31
0.0
0
LINE
8
0
6
CONTINUOUS
10
-21.967750
20
-0.817595
30
0.0
11
-19.912780
21
-3.067795
31
0.0
0
LINE
8
0
6
CONTINUOUS
10
-17.987500
20
-12.627735
30
0.0
11
-18.559990
21
-14.911885
31
0.0
0
LINE
8
0
6
CONTINUOUS
10
-8.837590
20
-10.142915
30
0.0
11
-7.337150
21
-10.002245
31
0.0
0
ENDSEC
0
EOF
