999
Erzeugt mit innoplus bad 
0
SECTION
2
HEADER
9
$ACADVER
1
AC1009
9
$DWGCODEPAGE
3
ISO8859-1
0
ENDSEC
0
SECTION
2
TABLES
0
TABLE
2
LAYER
70
1
0
LAYER
2
0
70
0
62
7
6
CONTINUOUS
0
ENDTAB
0
ENDSEC
0
SECTION
2
ENTITIES
0
LINE
8
0
6
CONTINUOUS
10
20.999995
20
-9.464835
30
0.0
11
20.999995
21
15.471635
31
0.0
0
LINE
8
0
6
CONTINUOUS
10
20.999995
20
-13.365995
30
0.0
11
20.999995
21
-9.464835
31
0.0
0
LINE
8
0
6
CONTINUOUS
10
20.999995
20
-17.071585
30
0.0
11
20.999995
21
-13.365995
31
0.0
0
LINE
8
0
6
CONTINUOUS
10
20.999995
20
-20.395715
30
0.0
11
20.999995
21
-17.071585
31
0.0
0
LINE
8
0
6
CONTINUOUS
10
20.999995
20
-23.171725
30
0.0
11
20.999995
21
-20.395715
31
0.0
0
LINE
8
0
6
CONTINUOUS
10
20.999995
20
-25.260405
30
0.0
11
20.999995
21
-23.171725
31
0.0
0
LINE
8
0
6
CONTINUOUS
10
20.999995
20
-26.557045
30
0.0
11
20.999995
21
-25.260405
31
0.0
0
LINE
8
0
6
CONTINUOUS
10
20.999995
20
-26.996595
30
0.0
11
20.999995
21
-26.557045
31
0.0
0
LINE
8
0
6
CONTINUOUS
10
20.499995
20
-26.996595
30
0.0
11
20.999995
21
-26.996595
31
0.0
0
LINE
8
0
6
CONTINUOUS
10
20.999995
20
15.471635
30
0.0
11
20.999995
21
19.372785
31
0.0
0
LINE
8
0
6
CONTINUOUS
10
20.999995
20
19.372785
30
0.0
11
20.999995
21
23.078385
31
0.0
0
LINE
8
0
6
CONTINUOUS
10
20.999995
20
23.078385
30
0.0
11
20.999995
21
26.402505
31
0.0
0
LINE
8
0
6
CONTINUOUS
10
20.999995
20
26.402505
30
0.0
11
20.999995
21
29.178515
31
0.0
0
LINE
8
0
6
CONTINUOUS
10
20.999995
20
29.178515
30
0.0
11
20.999995
21
31.267205
31
0.0
0
LINE
8
0
6
CONTINUOUS
10
20.999995
20
31.267205
30
0.0
11
20.999995
21
32.563835
31
0.0
0
LINE
8
0
6
CONTINUOUS
10
20.999995
20
33.003385
30
0.0
11
20.499995
21
33.003385
31
0.0
0
LINE
8
0
6
CONTINUOUS
10
20.999995
20
32.563835
30
0.0
11
20.999995
21
33.003385
31
0.0
0
LINE
8
0
6
CONTINUOUS
10
20.499995
20
33.003385
30
0.0
11
-9.424305
21
33.003385
31
0.0
0
LINE
8
0
6
CONTINUOUS
10
-10.142915
20
-26.996595
30
0.0
11
-10.002245
21
-26.996595
31
0.0
0
LINE
8
0
6
CONTINUOUS
10
-11.509055
20
-26.996595
30
0.0
11
-10.666485
21
-26.996595
31
0.0
0
LINE
8
0
6
CONTINUOUS
10
-13.137375
20
-26.996595
30
0.0
11
-11.509055
21
-26.996595
31
0.0
0
LINE
8
0
6
CONTINUOUS
10
-10.666485
20
-26.996595
30
0.0
11
-10.142915
21
-26.996595
31
0.0
0
LINE
8
0
6
CONTINUOUS
10
-20.813435
20
-26.996595
30
0.0
11
-20.626865
21
-26.996595
31
0.0
0
LINE
8
0
6
CONTINUOUS
10
-20.626865
20
-26.996595
30
0.0
11
-18.877405
21
-26.996595
31
0.0
0
LINE
8
0
6
CONTINUOUS
10
-15.097885
20
-26.996595
30
0.0
11
-13.137375
21
-26.996595
31
0.0
0
LINE
8
0
6
CONTINUOUS
10
-17.044345
20
-26.996595
30
0.0
11
-15.097885
21
-26.996595
31
0.0
0
LINE
8
0
6
CONTINUOUS
10
-18.877405
20
-26.996595
30
0.0
11
-17.044345
21
-26.996595
31
0.0
0
LINE
8
0
6
CONTINUOUS
10
-20.999995
20
-26.996595
30
0.0
11
-20.813435
21
-26.996595
31
0.0
0
LINE
8
0
6
CONTINUOUS
10
-20.999995
20
-26.459295
30
0.0
11
-20.999995
21
-26.996595
31
0.0
0
LINE
8
0
6
CONTINUOUS
10
-10.002245
20
33.003385
30
0.0
11
-10.142915
21
33.003385
31
0.0
0
LINE
8
0
6
CONTINUOUS
10
-10.666485
20
33.003385
30
0.0
11
-11.509055
21
33.003385
31
0.0
0
LINE
8
0
6
CONTINUOUS
10
-11.509055
20
33.003385
30
0.0
11
-13.137375
21
33.003385
31
0.0
0
LINE
8
0
6
CONTINUOUS
10
-10.142915
20
33.003385
30
0.0
11
-10.666485
21
33.003385
31
0.0
0
LINE
8
0
6
CONTINUOUS
10
-20.626865
20
33.003385
30
0.0
11
-20.813435
21
33.003385
31
0.0
0
LINE
8
0
6
CONTINUOUS
10
-18.877405
20
33.003385
30
0.0
11
-20.626865
21
33.003385
31
0.0
0
LINE
8
0
6
CONTINUOUS
10
-13.137375
20
33.003385
30
0.0
11
-15.097885
21
33.003385
31
0.0
0
LINE
8
0
6
CONTINUOUS
10
-15.097885
20
33.003385
30
0.0
11
-17.044345
21
33.003385
31
0.0
0
LINE
8
0
6
CONTINUOUS
10
-17.044345
20
33.003385
30
0.0
11
-18.877405
21
33.003385
31
0.0
0
LINE
8
0
6
CONTINUOUS
10
-20.999995
20
33.003385
30
0.0
11
-20.999995
21
32.466095
31
0.0
0
LINE
8
0
6
CONTINUOUS
10
-20.813435
20
33.003385
30
0.0
11
-20.999995
21
33.003385
31
0.0
0
LINE
8
0
6
CONTINUOUS
10
-10.002245
20
-9.464835
30
0.0
11
-10.002245
21
-13.366025
31
0.0
0
LINE
8
0
6
CONTINUOUS
10
-10.002245
20
-13.366025
30
0.0
11
-10.002245
21
-17.071585
31
0.0
0
LINE
8
0
6
CONTINUOUS
10
-10.002245
20
-17.071585
30
0.0
11
-10.002245
21
-20.395715
31
0.0
0
LINE
8
0
6
CONTINUOUS
10
-10.002245
20
-20.395715
30
0.0
11
-10.002245
21
-23.171725
31
0.0
0
LINE
8
0
6
CONTINUOUS
10
-10.002245
20
-23.171725
30
0.0
11
-10.002245
21
-25.260415
31
0.0
0
LINE
8
0
6
CONTINUOUS
10
-10.002245
20
-25.260415
30
0.0
11
-10.002245
21
-26.557045
31
0.0
0
LINE
8
0
6
CONTINUOUS
10
-10.002245
20
-26.996595
30
0.0
11
-9.424305
21
-26.996595
31
0.0
0
LINE
8
0
6
CONTINUOUS
10
-10.002245
20
-26.557045
30
0.0
11
-10.002245
21
-26.996595
31
0.0
0
LINE
8
0
6
CONTINUOUS
10
-20.999995
20
32.466095
30
0.0
11
-20.999995
21
-26.459295
31
0.0
0
LINE
8
0
6
CONTINUOUS
10
-10.002245
20
15.471635
30
0.0
11
-10.002245
21
-9.464835
31
0.0
0
LINE
8
0
6
CONTINUOUS
10
-10.002245
20
19.372815
30
0.0
11
-10.002245
21
15.471635
31
0.0
0
LINE
8
0
6
CONTINUOUS
10
-10.002245
20
23.078375
30
0.0
11
-10.002245
21
19.372815
31
0.0
0
LINE
8
0
6
CONTINUOUS
10
-10.002245
20
26.402505
30
0.0
11
-10.002245
21
23.078375
31
0.0
0
LINE
8
0
6
CONTINUOUS
10
-10.002245
20
29.178515
30
0.0
11
-10.002245
21
26.402505
31
0.0
0
LINE
8
0
6
CONTINUOUS
10
-10.002245
20
31.267205
30
0.0
11
-10.002245
21
29.178515
31
0.0
0
LINE
8
0
6
CONTINUOUS
10
-10.002245
20
32.563835
30
0.0
11
-10.002245
21
31.267205
31
0.0
0
LINE
8
0
6
CONTINUOUS
10
-10.002245
20
33.003385
30
0.0
11
-10.002245
21
32.563835
31
0.0
0
LINE
8
0
6
CONTINUOUS
10
-9.424305
20
33.003385
30
0.0
11
-10.002245
21
33.003385
31
0.0
0
LINE
8
0
6
CONTINUOUS
10
-9.424305
20
-26.996595
30
0.0
11
20.499995
21
-26.996595
31
0.0
0
LINE
8
0
6
CONTINUOUS
10
-4.809615
20
-31.742655
30
0.0
11
-4.292785
21
-31.742655
31
0.0
0
LINE
8
0
6
CONTINUOUS
10
-4.809615
20
-26.996595
30
0.0
11
-4.809615
21
-31.742655
31
0.0
0
LINE
8
0
6
CONTINUOUS
10
5.749995
20
-31.742655
30
0.0
11
9.013085
21
-31.742655
31
0.0
0
LINE
8
0
6
CONTINUOUS
10
2.486895
20
-31.742655
30
0.0
11
5.749995
21
-31.742655
31
0.0
0
LINE
8
0
6
CONTINUOUS
10
15.792765
20
-31.742655
30
0.0
11
16.309585
21
-31.742655
31
0.0
0
LINE
8
0
6
CONTINUOUS
10
16.309585
20
-31.742655
30
0.0
11
16.309585
21
-26.996595
31
0.0
0
LINE
8
0
6
CONTINUOUS
10
-0.456785
20
-31.742655
30
0.0
11
2.486895
21
-31.742655
31
0.0
0
LINE
8
0
6
CONTINUOUS
10
-2.792905
20
-31.742655
30
0.0
11
-0.456785
21
-31.742655
31
0.0
0
LINE
8
0
6
CONTINUOUS
10
14.292885
20
-31.742655
30
0.0
11
15.792765
21
-31.742655
31
0.0
0
LINE
8
0
6
CONTINUOUS
10
-4.292785
20
-31.742655
30
0.0
11
-2.792905
21
-31.742655
31
0.0
0
LINE
8
0
6
CONTINUOUS
10
11.956765
20
-31.742655
30
0.0
11
14.292885
21
-31.742655
31
0.0
0
LINE
8
0
6
CONTINUOUS
10
9.013085
20
-31.742655
30
0.0
11
11.956765
21
-31.742655
31
0.0
0
LINE
8
0
6
CONTINUOUS
10
14.572345
20
-33.003385
30
0.0
11
15.026355
21
-33.003385
31
0.0
0
LINE
8
0
6
CONTINUOUS
10
16.309585
20
-31.742655
30
0.0
11
15.792765
21
-31.742655
31
0.0
0
LINE
8
0
6
CONTINUOUS
10
15.026355
20
-33.003385
30
0.0
11
16.309585
21
-31.742655
31
0.0
0
LINE
8
0
6
CONTINUOUS
10
11.202505
20
-33.003385
30
0.0
11
13.254735
21
-33.003385
31
0.0
0
LINE
8
0
6
CONTINUOUS
10
14.292885
20
-31.742655
30
0.0
11
11.956765
21
-31.742655
31
0.0
0
LINE
8
0
6
CONTINUOUS
10
13.254735
20
-33.003385
30
0.0
11
14.572345
21
-33.003385
31
0.0
0
LINE
8
0
6
CONTINUOUS
10
15.792765
20
-31.742655
30
0.0
11
14.292885
21
-31.742655
31
0.0
0
LINE
8
0
6
CONTINUOUS
10
-1.754755
20
-33.003385
30
0.0
11
0.297475
21
-33.003385
31
0.0
0
LINE
8
0
6
CONTINUOUS
10
-0.456785
20
-31.742655
30
0.0
11
-2.792905
21
-31.742655
31
0.0
0
LINE
8
0
6
CONTINUOUS
10
0.297475
20
-33.003385
30
0.0
11
2.883435
21
-33.003385
31
0.0
0
LINE
8
0
6
CONTINUOUS
10
2.486895
20
-31.742655
30
0.0
11
-0.456785
21
-31.742655
31
0.0
0
LINE
8
0
6
CONTINUOUS
10
2.883435
20
-33.003385
30
0.0
11
5.749995
21
-33.003385
31
0.0
0
LINE
8
0
6
CONTINUOUS
10
5.749995
20
-31.742655
30
0.0
11
2.486895
21
-31.742655
31
0.0
0
LINE
8
0
6
CONTINUOUS
10
5.749995
20
-33.003385
30
0.0
11
8.616555
21
-33.003385
31
0.0
0
LINE
8
0
6
CONTINUOUS
10
9.013085
20
-31.742655
30
0.0
11
5.749995
21
-31.742655
31
0.0
0
LINE
8
0
6
CONTINUOUS
10
-3.526385
20
-33.003385
30
0.0
11
-3.072375
21
-33.003385
31
0.0
0
LINE
8
0
6
CONTINUOUS
10
-4.809615
20
-31.742655
30
0.0
11
-3.526385
21
-33.003385
31
0.0
0
LINE
8
0
6
CONTINUOUS
10
-4.292785
20
-31.742655
30
0.0
11
-4.809615
21
-31.742655
31
0.0
0
LINE
8
0
6
CONTINUOUS
10
8.616555
20
-33.003385
30
0.0
11
11.202505
21
-33.003385
31
0.0
0
LINE
8
0
6
CONTINUOUS
10
11.956765
20
-31.742655
30
0.0
11
9.013085
21
-31.742655
31
0.0
0
LINE
8
0
6
CONTINUOUS
10
-3.072375
20
-33.003385
30
0.0
11
-1.754755
21
-33.003385
31
0.0
0
LINE
8
0
6
CONTINUOUS
10
-2.792905
20
-31.742655
30
0.0
11
-4.292785
21
-31.742655
31
0.0
0
ENDSEC
0
EOF
