999
Erzeugt mit innoplus bad 
0
SECTION
2
HEADER
9
$ACADVER
1
AC1009
9
$DWGCODEPAGE
3
ISO8859-1
0
ENDSEC
0
SECTION
2
TABLES
0
TABLE
2
LAYER
70
1
0
LAYER
2
0
70
0
62
7
6
CONTINUOUS
0
ENDTAB
0
ENDSEC
0
SECTION
2
ENTITIES
0
LINE
8
0
6
CONTINUOUS
10
-47.500000
20
-26.494915
30
0.0
11
-47.500000
21
-26.996595
31
0.0
0
LINE
8
0
6
CONTINUOUS
10
-47.500000
20
33.003385
30
0.0
11
-47.500000
21
32.501705
31
0.0
0
LINE
8
0
6
CONTINUOUS
10
-46.967230
20
33.003385
30
0.0
11
-47.490270
21
33.003385
31
0.0
0
LINE
8
0
6
CONTINUOUS
10
47.500000
20
-9.464835
30
0.0
11
47.500000
21
15.471635
31
0.0
0
LINE
8
0
6
CONTINUOUS
10
-7.337150
20
-26.996595
30
0.0
11
29.882990
21
-26.996595
31
0.0
0
LINE
8
0
6
CONTINUOUS
10
47.058310
20
-13.366025
30
0.0
11
47.500000
21
-9.464835
31
0.0
0
LINE
8
0
6
CONTINUOUS
10
45.755360
20
-17.071585
30
0.0
11
47.058310
21
-13.366025
31
0.0
0
LINE
8
0
6
CONTINUOUS
10
43.656520
20
-20.395715
30
0.0
11
45.755360
21
-17.071585
31
0.0
0
LINE
8
0
6
CONTINUOUS
10
40.867010
20
-23.171725
30
0.0
11
43.656520
21
-20.395715
31
0.0
0
LINE
8
0
6
CONTINUOUS
10
37.526720
20
-25.260415
30
0.0
11
40.867010
21
-23.171725
31
0.0
0
LINE
8
0
6
CONTINUOUS
10
33.803130
20
-26.557045
30
0.0
11
37.526720
21
-25.260415
31
0.0
0
LINE
8
0
6
CONTINUOUS
10
29.882990
20
-26.996595
30
0.0
11
33.803130
21
-26.557045
31
0.0
0
LINE
8
0
6
CONTINUOUS
10
-8.837590
20
-26.996595
30
0.0
11
-7.337150
21
-26.996595
31
0.0
0
LINE
8
0
6
CONTINUOUS
10
-11.499200
20
-26.996595
30
0.0
11
-10.250760
21
-26.996595
31
0.0
0
LINE
8
0
6
CONTINUOUS
10
-12.797050
20
-26.996595
30
0.0
11
-11.499200
21
-26.996595
31
0.0
0
LINE
8
0
6
CONTINUOUS
10
-42.531270
20
-26.996595
30
0.0
11
-39.582230
21
-26.996595
31
0.0
0
LINE
8
0
6
CONTINUOUS
10
-20.366040
20
-26.996595
30
0.0
11
-20.137740
21
-26.996595
31
0.0
0
LINE
8
0
6
CONTINUOUS
10
-20.366040
20
-26.459295
30
0.0
11
-20.366040
21
-26.996595
31
0.0
0
LINE
8
0
6
CONTINUOUS
10
-39.347710
20
-26.996595
30
0.0
11
-39.347710
21
-26.459295
31
0.0
0
LINE
8
0
6
CONTINUOUS
10
-39.582230
20
-26.996595
30
0.0
11
-39.347710
21
-26.996595
31
0.0
0
LINE
8
0
6
CONTINUOUS
10
-20.137740
20
-26.996595
30
0.0
11
-17.100590
21
-26.996595
31
0.0
0
LINE
8
0
6
CONTINUOUS
10
-43.207570
20
-26.996595
30
0.0
11
-43.043300
21
-26.996595
31
0.0
0
LINE
8
0
6
CONTINUOUS
10
-44.939590
20
-26.996595
30
0.0
11
-43.207570
21
-26.996595
31
0.0
0
LINE
8
0
6
CONTINUOUS
10
-46.967230
20
-26.996595
30
0.0
11
-46.903140
21
-26.996595
31
0.0
0
LINE
8
0
6
CONTINUOUS
10
-32.688360
20
-26.996595
30
0.0
11
-29.858150
21
-26.996595
31
0.0
0
LINE
8
0
6
CONTINUOUS
10
-46.903140
20
-26.996595
30
0.0
11
-46.330920
21
-26.996595
31
0.0
0
LINE
8
0
6
CONTINUOUS
10
-37.770380
20
-26.996595
30
0.0
11
-35.375410
21
-26.996595
31
0.0
0
LINE
8
0
6
CONTINUOUS
10
-35.375410
20
-26.996595
30
0.0
11
-32.688360
21
-26.996595
31
0.0
0
LINE
8
0
6
CONTINUOUS
10
-46.330920
20
-26.996595
30
0.0
11
-44.939590
21
-26.996595
31
0.0
0
LINE
8
0
6
CONTINUOUS
10
-39.688030
20
-26.996595
30
0.0
11
-37.770380
21
-26.996595
31
0.0
0
LINE
8
0
6
CONTINUOUS
10
-43.043300
20
-26.996595
30
0.0
11
-42.879020
21
-26.996595
31
0.0
0
LINE
8
0
6
CONTINUOUS
10
-17.100590
20
-26.996595
30
0.0
11
-16.762140
21
-26.996595
31
0.0
0
LINE
8
0
6
CONTINUOUS
10
-10.250760
20
-26.996595
30
0.0
11
-8.837590
21
-26.996595
31
0.0
0
LINE
8
0
6
CONTINUOUS
10
-16.602230
20
-26.996595
30
0.0
11
-16.442320
21
-26.996595
31
0.0
0
LINE
8
0
6
CONTINUOUS
10
-16.442320
20
-26.996595
30
0.0
11
-15.298480
21
-26.996595
31
0.0
0
LINE
8
0
6
CONTINUOUS
10
-13.544390
20
-26.996595
30
0.0
11
-12.797050
21
-26.996595
31
0.0
0
LINE
8
0
6
CONTINUOUS
10
-29.858150
20
-26.996595
30
0.0
11
-27.103070
21
-26.996595
31
0.0
0
LINE
8
0
6
CONTINUOUS
10
-14.293240
20
-26.996595
30
0.0
11
-13.544390
21
-26.996595
31
0.0
0
LINE
8
0
6
CONTINUOUS
10
-24.487360
20
-26.996595
30
0.0
11
-21.967750
21
-26.996595
31
0.0
0
LINE
8
0
6
CONTINUOUS
10
-27.103070
20
-26.996595
30
0.0
11
-24.487360
21
-26.996595
31
0.0
0
LINE
8
0
6
CONTINUOUS
10
-15.298480
20
-26.996595
30
0.0
11
-14.293240
21
-26.996595
31
0.0
0
LINE
8
0
6
CONTINUOUS
10
-21.967750
20
-26.996595
30
0.0
11
-19.912780
21
-26.996595
31
0.0
0
LINE
8
0
6
CONTINUOUS
10
-16.762140
20
-26.996595
30
0.0
11
-16.602230
21
-26.996595
31
0.0
0
LINE
8
0
6
CONTINUOUS
10
-16.762140
20
-26.459295
30
0.0
11
-16.762140
21
-26.996595
31
0.0
0
LINE
8
0
6
CONTINUOUS
10
-42.879020
20
-26.996595
30
0.0
11
-42.531270
21
-26.996595
31
0.0
0
LINE
8
0
6
CONTINUOUS
10
-42.879020
20
-26.459295
30
0.0
11
-42.879020
21
-26.996595
31
0.0
0
LINE
8
0
6
CONTINUOUS
10
29.882990
20
33.003385
30
0.0
11
-7.337150
21
33.003385
31
0.0
0
LINE
8
0
6
CONTINUOUS
10
47.500000
20
15.471635
30
0.0
11
47.058310
21
19.372815
31
0.0
0
LINE
8
0
6
CONTINUOUS
10
47.058310
20
19.372815
30
0.0
11
45.755360
21
23.078375
31
0.0
0
LINE
8
0
6
CONTINUOUS
10
45.755360
20
23.078375
30
0.0
11
43.656520
21
26.402505
31
0.0
0
LINE
8
0
6
CONTINUOUS
10
43.656520
20
26.402505
30
0.0
11
40.867010
21
29.178515
31
0.0
0
LINE
8
0
6
CONTINUOUS
10
40.867010
20
29.178515
30
0.0
11
37.526720
21
31.267205
31
0.0
0
LINE
8
0
6
CONTINUOUS
10
37.526720
20
31.267205
30
0.0
11
33.803130
21
32.563835
31
0.0
0
LINE
8
0
6
CONTINUOUS
10
33.803130
20
32.563835
30
0.0
11
29.882990
21
33.003385
31
0.0
0
LINE
8
0
6
CONTINUOUS
10
-7.337150
20
33.003385
30
0.0
11
-8.837590
21
33.003385
31
0.0
0
LINE
8
0
6
CONTINUOUS
10
-10.250760
20
33.003385
30
0.0
11
-11.499200
21
33.003385
31
0.0
0
LINE
8
0
6
CONTINUOUS
10
-11.499200
20
33.003385
30
0.0
11
-12.797050
21
33.003385
31
0.0
0
LINE
8
0
6
CONTINUOUS
10
-39.582230
20
33.003385
30
0.0
11
-42.531270
21
33.003385
31
0.0
0
LINE
8
0
6
CONTINUOUS
10
-20.366040
20
33.003385
30
0.0
11
-20.366040
21
32.466095
31
0.0
0
LINE
8
0
6
CONTINUOUS
10
-20.137740
20
33.003385
30
0.0
11
-20.366040
21
33.003385
31
0.0
0
LINE
8
0
6
CONTINUOUS
10
-39.347710
20
33.003385
30
0.0
11
-39.582230
21
33.003385
31
0.0
0
LINE
8
0
6
CONTINUOUS
10
-39.347710
20
32.466085
30
0.0
11
-39.347710
21
33.003385
31
0.0
0
LINE
8
0
6
CONTINUOUS
10
-17.100590
20
33.003385
30
0.0
11
-20.137740
21
33.003385
31
0.0
0
LINE
8
0
6
CONTINUOUS
10
-43.043300
20
33.003385
30
0.0
11
-43.207570
21
33.003385
31
0.0
0
LINE
8
0
6
CONTINUOUS
10
-43.207570
20
33.003385
30
0.0
11
-44.939590
21
33.003385
31
0.0
0
LINE
8
0
6
CONTINUOUS
10
-46.903140
20
33.003385
30
0.0
11
-46.967230
21
33.003385
31
0.0
0
LINE
8
0
6
CONTINUOUS
10
-29.858150
20
33.003385
30
0.0
11
-32.688360
21
33.003385
31
0.0
0
LINE
8
0
6
CONTINUOUS
10
-46.330920
20
33.003385
30
0.0
11
-46.903140
21
33.003385
31
0.0
0
LINE
8
0
6
CONTINUOUS
10
-35.375410
20
33.003385
30
0.0
11
-37.770380
21
33.003385
31
0.0
0
LINE
8
0
6
CONTINUOUS
10
-32.688360
20
33.003385
30
0.0
11
-35.375410
21
33.003385
31
0.0
0
LINE
8
0
6
CONTINUOUS
10
-44.939590
20
33.003385
30
0.0
11
-46.330920
21
33.003385
31
0.0
0
LINE
8
0
6
CONTINUOUS
10
-37.770380
20
33.003385
30
0.0
11
-39.688030
21
33.003385
31
0.0
0
LINE
8
0
6
CONTINUOUS
10
-42.879020
20
33.003385
30
0.0
11
-43.043300
21
33.003385
31
0.0
0
LINE
8
0
6
CONTINUOUS
10
-16.762140
20
33.003385
30
0.0
11
-17.100590
21
33.003385
31
0.0
0
LINE
8
0
6
CONTINUOUS
10
-8.837590
20
33.003385
30
0.0
11
-10.250760
21
33.003385
31
0.0
0
LINE
8
0
6
CONTINUOUS
10
-16.442320
20
33.003385
30
0.0
11
-16.602230
21
33.003385
31
0.0
0
LINE
8
0
6
CONTINUOUS
10
-15.298480
20
33.003385
30
0.0
11
-16.442320
21
33.003385
31
0.0
0
LINE
8
0
6
CONTINUOUS
10
-12.797050
20
33.003385
30
0.0
11
-13.544390
21
33.003385
31
0.0
0
LINE
8
0
6
CONTINUOUS
10
-27.103070
20
33.003385
30
0.0
11
-29.858150
21
33.003385
31
0.0
0
LINE
8
0
6
CONTINUOUS
10
-13.544390
20
33.003385
30
0.0
11
-14.293240
21
33.003385
31
0.0
0
LINE
8
0
6
CONTINUOUS
10
-21.967750
20
33.003385
30
0.0
11
-24.487360
21
33.003385
31
0.0
0
LINE
8
0
6
CONTINUOUS
10
-24.487360
20
33.003385
30
0.0
11
-27.103070
21
33.003385
31
0.0
0
LINE
8
0
6
CONTINUOUS
10
-14.293240
20
33.003385
30
0.0
11
-15.298480
21
33.003385
31
0.0
0
LINE
8
0
6
CONTINUOUS
10
-19.912780
20
33.003385
30
0.0
11
-21.967750
21
33.003385
31
0.0
0
LINE
8
0
6
CONTINUOUS
10
-16.762140
20
33.003385
30
0.0
11
-16.762140
21
32.466095
31
0.0
0
LINE
8
0
6
CONTINUOUS
10
-16.602230
20
33.003385
30
0.0
11
-16.762140
21
33.003385
31
0.0
0
LINE
8
0
6
CONTINUOUS
10
-42.879020
20
33.003385
30
0.0
11
-42.879020
21
32.466085
31
0.0
0
LINE
8
0
6
CONTINUOUS
10
-42.531270
20
33.003385
30
0.0
11
-42.879020
21
33.003385
31
0.0
0
LINE
8
0
6
CONTINUOUS
10
-47.490270
20
-26.996595
30
0.0
11
-46.967230
21
-26.996595
31
0.0
0
LINE
8
0
6
CONTINUOUS
10
-47.500000
20
32.501705
30
0.0
11
-47.500000
21
-26.494915
31
0.0
0
LINE
8
0
6
CONTINUOUS
10
-16.762140
20
32.466095
30
0.0
11
-16.762140
21
-26.459295
31
0.0
0
LINE
8
0
6
CONTINUOUS
10
-39.347710
20
-26.459295
30
0.0
11
-39.347710
21
32.466085
31
0.0
0
LINE
8
0
6
CONTINUOUS
10
-20.366040
20
32.466095
30
0.0
11
-20.366040
21
-26.459295
31
0.0
0
LINE
8
0
6
CONTINUOUS
10
-42.879020
20
-26.459295
30
0.0
11
-42.879020
21
32.466085
31
0.0
0
LINE
8
0
6
CONTINUOUS
10
13.834370
20
-31.742655
30
0.0
11
17.097470
21
-31.742655
31
0.0
0
LINE
8
0
6
CONTINUOUS
10
10.571280
20
-31.742655
30
0.0
11
13.834370
21
-31.742655
31
0.0
0
LINE
8
0
6
CONTINUOUS
10
7.627590
20
-31.742655
30
0.0
11
10.571280
21
-31.742655
31
0.0
0
LINE
8
0
6
CONTINUOUS
10
23.877140
20
-31.742655
30
0.0
11
24.393960
21
-31.742655
31
0.0
0
LINE
8
0
6
CONTINUOUS
10
24.393960
20
-31.742655
30
0.0
11
24.393960
21
-26.996595
31
0.0
0
LINE
8
0
6
CONTINUOUS
10
5.291470
20
-31.742655
30
0.0
11
7.627590
21
-31.742655
31
0.0
0
LINE
8
0
6
CONTINUOUS
10
22.377260
20
-31.742655
30
0.0
11
23.877140
21
-31.742655
31
0.0
0
LINE
8
0
6
CONTINUOUS
10
20.041150
20
-31.742655
30
0.0
11
22.377260
21
-31.742655
31
0.0
0
LINE
8
0
6
CONTINUOUS
10
3.791600
20
-31.742655
30
0.0
11
5.291470
21
-31.742655
31
0.0
0
LINE
8
0
6
CONTINUOUS
10
17.097470
20
-31.742655
30
0.0
11
20.041150
21
-31.742655
31
0.0
0
LINE
8
0
6
CONTINUOUS
10
3.274770
20
-31.742655
30
0.0
11
3.791600
21
-31.742655
31
0.0
0
LINE
8
0
6
CONTINUOUS
10
3.274770
20
-26.996595
30
0.0
11
3.274770
21
-31.742655
31
0.0
0
LINE
8
0
6
CONTINUOUS
10
5.012010
20
-33.003385
30
0.0
11
6.329620
21
-33.003385
31
0.0
0
LINE
8
0
6
CONTINUOUS
10
5.291470
20
-31.742655
30
0.0
11
3.791600
21
-31.742655
31
0.0
0
LINE
8
0
6
CONTINUOUS
10
19.286890
20
-33.003385
30
0.0
11
21.339120
21
-33.003385
31
0.0
0
LINE
8
0
6
CONTINUOUS
10
22.377260
20
-31.742655
30
0.0
11
20.041150
21
-31.742655
31
0.0
0
LINE
8
0
6
CONTINUOUS
10
6.329620
20
-33.003385
30
0.0
11
8.381850
21
-33.003385
31
0.0
0
LINE
8
0
6
CONTINUOUS
10
7.627590
20
-31.742655
30
0.0
11
5.291470
21
-31.742655
31
0.0
0
LINE
8
0
6
CONTINUOUS
10
21.339120
20
-33.003385
30
0.0
11
22.656730
21
-33.003385
31
0.0
0
LINE
8
0
6
CONTINUOUS
10
23.877140
20
-31.742655
30
0.0
11
22.377260
21
-31.742655
31
0.0
0
LINE
8
0
6
CONTINUOUS
10
22.656730
20
-33.003385
30
0.0
11
23.110740
21
-33.003385
31
0.0
0
LINE
8
0
6
CONTINUOUS
10
24.393960
20
-31.742655
30
0.0
11
23.877140
21
-31.742655
31
0.0
0
LINE
8
0
6
CONTINUOUS
10
23.110740
20
-33.003385
30
0.0
11
24.393960
21
-31.742655
31
0.0
0
LINE
8
0
6
CONTINUOUS
10
8.381850
20
-33.003385
30
0.0
11
10.967810
21
-33.003385
31
0.0
0
LINE
8
0
6
CONTINUOUS
10
10.571280
20
-31.742655
30
0.0
11
7.627590
21
-31.742655
31
0.0
0
LINE
8
0
6
CONTINUOUS
10
10.967810
20
-33.003385
30
0.0
11
13.834370
21
-33.003385
31
0.0
0
LINE
8
0
6
CONTINUOUS
10
13.834370
20
-31.742655
30
0.0
11
10.571280
21
-31.742655
31
0.0
0
LINE
8
0
6
CONTINUOUS
10
13.834370
20
-33.003385
30
0.0
11
16.700930
21
-33.003385
31
0.0
0
LINE
8
0
6
CONTINUOUS
10
17.097470
20
-31.742655
30
0.0
11
13.834370
21
-31.742655
31
0.0
0
LINE
8
0
6
CONTINUOUS
10
16.700930
20
-33.003385
30
0.0
11
19.286890
21
-33.003385
31
0.0
0
LINE
8
0
6
CONTINUOUS
10
20.041150
20
-31.742655
30
0.0
11
17.097470
21
-31.742655
31
0.0
0
LINE
8
0
6
CONTINUOUS
10
4.557990
20
-33.003385
30
0.0
11
5.012010
21
-33.003385
31
0.0
0
LINE
8
0
6
CONTINUOUS
10
3.274770
20
-31.742655
30
0.0
11
4.557990
21
-33.003385
31
0.0
0
LINE
8
0
6
CONTINUOUS
10
3.791600
20
-31.742655
30
0.0
11
3.274770
21
-31.742655
31
0.0
0
ENDSEC
0
EOF
