999
Erzeugt mit innoplus bad 
0
SECTION
2
HEADER
9
$ACADVER
1
AC1009
9
$DWGCODEPAGE
3
ISO8859-1
0
ENDSEC
0
SECTION
2
TABLES
0
TABLE
2
LAYER
70
1
0
LAYER
2
0
70
0
62
7
6
CONTINUOUS
0
ENDTAB
0
ENDSEC
0
SECTION
2
ENTITIES
0
LINE
8
0
6
CONTINUOUS
10
30.236550
20
36.533740
30
0.0
11
30.236580
21
56.783740
31
0.0
0
LINE
8
0
6
CONTINUOUS
10
-23.335930
20
66.281500
30
0.0
11
-26.120010
21
64.863100
31
0.0
0
LINE
8
0
6
CONTINUOUS
10
-20.250020
20
6.297230
30
0.0
11
-19.000171
21
6.297229
31
0.0
0
LINE
8
0
6
CONTINUOUS
10
-20.249980
20
66.770350
30
0.0
11
-23.335930
21
66.281500
31
0.0
0
LINE
8
0
6
CONTINUOUS
10
-30.236560
20
56.783780
30
0.0
11
-30.236570
21
36.533790
31
0.0
0
LINE
8
0
6
CONTINUOUS
10
29.747730
20
59.869690
30
0.0
11
28.329330
21
62.653770
31
0.0
0
LINE
8
0
6
CONTINUOUS
10
-28.329300
20
62.653820
30
0.0
11
-29.747710
21
59.869740
31
0.0
0
LINE
8
0
6
CONTINUOUS
10
26.119990
20
8.204430
30
0.0
11
28.329270
21
10.413710
31
0.0
0
LINE
8
0
6
CONTINUOUS
10
28.329330
20
62.653770
30
0.0
11
26.120050
21
64.863050
31
0.0
0
LINE
8
0
6
CONTINUOUS
10
20.250020
20
66.770320
30
0.0
11
7.877070
21
66.770326
31
0.0
0
LINE
8
0
6
CONTINUOUS
10
18.999829
20
6.297182
30
0.0
11
20.249960
21
6.297180
31
0.0
0
LINE
8
0
6
CONTINUOUS
10
29.747670
20
13.197790
30
0.0
11
30.236530
21
16.283740
31
0.0
0
LINE
8
0
6
CONTINUOUS
10
23.335970
20
66.281460
30
0.0
11
20.250020
21
66.770320
31
0.0
0
LINE
8
0
6
CONTINUOUS
10
-26.120050
20
8.204490
30
0.0
11
-23.335970
21
6.786090
31
0.0
0
LINE
8
0
6
CONTINUOUS
10
-26.120010
20
64.863100
30
0.0
11
-28.329300
21
62.653820
31
0.0
0
LINE
8
0
6
CONTINUOUS
10
-7.877030
20
66.770338
30
0.0
11
-20.249980
21
66.770350
31
0.0
0
LINE
8
0
6
CONTINUOUS
10
-24.849190
20
25.974410
30
0.0
11
-22.312240
21
21.328960
31
0.0
0
LINE
8
0
6
CONTINUOUS
10
26.528400
20
31.508040
30
0.0
11
26.998880
21
36.780520
31
0.0
0
LINE
8
0
6
CONTINUOUS
10
-22.312240
20
21.328960
30
0.0
11
-19.000170
21
17.368285
31
0.0
0
LINE
8
0
6
CONTINUOUS
10
-22.585500
20
51.329070
30
0.0
11
-25.038110
21
46.638350
31
0.0
0
LINE
8
0
6
CONTINUOUS
10
-15.204800
20
58.846000
30
0.0
11
-19.265570
21
55.450460
31
0.0
0
LINE
8
0
6
CONTINUOUS
10
22.585780
20
21.739260
30
0.0
11
25.037860
21
26.429200
31
0.0
0
LINE
8
0
6
CONTINUOUS
10
25.037860
20
26.429200
30
0.0
11
26.528400
21
31.508040
31
0.0
0
LINE
8
0
6
CONTINUOUS
10
26.432000
20
42.042280
30
0.0
11
24.849230
21
47.093190
31
0.0
0
LINE
8
0
6
CONTINUOUS
10
26.998880
20
36.780520
30
0.0
11
26.432000
21
42.042280
31
0.0
0
LINE
8
0
6
CONTINUOUS
10
22.311890
20
51.738260
30
0.0
11
18.916730
21
55.799000
31
0.0
0
LINE
8
0
6
CONTINUOUS
10
18.916730
20
55.799000
30
0.0
11
14.794500
21
59.119540
31
0.0
0
LINE
8
0
6
CONTINUOUS
10
-10.559350
20
61.382950
30
0.0
11
-15.204800
21
58.846000
31
0.0
0
LINE
8
0
6
CONTINUOUS
10
-26.528400
20
41.559480
30
0.0
11
-26.998870
21
36.287680
31
0.0
0
LINE
8
0
6
CONTINUOUS
10
-25.038110
20
46.638350
30
0.0
11
-26.528400
21
41.559480
31
0.0
0
LINE
8
0
6
CONTINUOUS
10
26.120050
20
64.863050
30
0.0
11
23.335970
21
66.281460
31
0.0
0
LINE
8
0
6
CONTINUOUS
10
-30.236580
20
16.283800
30
0.0
11
-29.747730
21
13.197850
31
0.0
0
LINE
8
0
6
CONTINUOUS
10
-30.236570
20
36.533790
30
0.0
11
-30.236580
21
16.283800
31
0.0
0
LINE
8
0
6
CONTINUOUS
10
23.335910
20
6.786030
30
0.0
11
26.119990
21
8.204430
31
0.0
0
LINE
8
0
6
CONTINUOUS
10
30.236580
20
56.783740
30
0.0
11
29.747730
21
59.869690
31
0.0
0
LINE
8
0
6
CONTINUOUS
10
-29.747710
20
59.869740
30
0.0
11
-30.236560
21
56.783780
31
0.0
0
LINE
8
0
6
CONTINUOUS
10
-29.747730
20
13.197850
30
0.0
11
-28.329330
21
10.413770
31
0.0
0
LINE
8
0
6
CONTINUOUS
10
20.249960
20
6.297180
30
0.0
11
23.335910
21
6.786030
31
0.0
0
LINE
8
0
6
CONTINUOUS
10
-28.329330
20
10.413770
30
0.0
11
-26.120050
21
8.204490
31
0.0
0
LINE
8
0
6
CONTINUOUS
10
-23.335970
20
6.786090
30
0.0
11
-20.250020
21
6.297230
31
0.0
0
LINE
8
0
6
CONTINUOUS
10
28.329270
20
10.413710
30
0.0
11
29.747670
21
13.197790
31
0.0
0
LINE
8
0
6
CONTINUOUS
10
30.236530
20
16.283740
30
0.0
11
30.236550
21
36.533740
31
0.0
0
LINE
8
0
6
CONTINUOUS
10
-19.000160
20
55.540900
30
0.0
11
-19.000160
21
54.220340
31
0.0
0
LINE
8
0
6
CONTINUOUS
10
-17.347040
20
55.541000
30
0.0
11
-19.000160
21
55.540900
31
0.0
0
LINE
8
0
6
CONTINUOUS
10
-18.880660
20
-54.877740
30
0.0
11
-17.121880
21
-54.879780
31
0.0
0
LINE
8
0
6
CONTINUOUS
10
-19.000190
20
-53.374480
30
0.0
11
-18.880660
21
-54.877740
31
0.0
0
LINE
8
0
6
CONTINUOUS
10
-0.000170
20
55.541960
30
0.0
11
-17.347040
21
55.541000
31
0.0
0
LINE
8
0
6
CONTINUOUS
10
-19.000160
20
54.220340
30
0.0
11
-19.000170
21
36.541390
31
0.0
0
LINE
8
0
6
CONTINUOUS
10
-19.000170
20
36.541390
30
0.0
11
-19.000170
21
31.853650
31
0.0
0
LINE
8
0
6
CONTINUOUS
10
-19.000170
20
31.853650
30
0.0
11
-19.000170
21
24.586580
31
0.0
0
LINE
8
0
6
CONTINUOUS
10
-19.000170
20
24.586580
30
0.0
11
-19.000170
21
17.319500
31
0.0
0
LINE
8
0
6
CONTINUOUS
10
-19.000170
20
17.319500
30
0.0
11
-19.000170
21
10.052420
31
0.0
0
LINE
8
0
6
CONTINUOUS
10
-17.121880
20
-54.879780
30
0.0
11
-0.000180
21
-54.879780
31
0.0
0
LINE
8
0
6
CONTINUOUS
10
-19.000170
20
10.052420
30
0.0
11
-19.000190
21
-53.374480
31
0.0
0
LINE
8
0
6
CONTINUOUS
10
18.999830
20
55.540900
30
0.0
11
17.346700
21
55.540990
31
0.0
0
LINE
8
0
6
CONTINUOUS
10
18.999830
20
54.220340
30
0.0
11
18.999830
21
55.540900
31
0.0
0
LINE
8
0
6
CONTINUOUS
10
18.880300
20
-54.877740
30
0.0
11
18.999820
21
-53.374480
31
0.0
0
LINE
8
0
6
CONTINUOUS
10
17.121520
20
-54.879780
30
0.0
11
18.880300
21
-54.877740
31
0.0
0
LINE
8
0
6
CONTINUOUS
10
17.346700
20
55.540990
30
0.0
11
-0.000170
21
55.541960
31
0.0
0
LINE
8
0
6
CONTINUOUS
10
18.999830
20
36.541380
30
0.0
11
18.999830
21
54.220340
31
0.0
0
LINE
8
0
6
CONTINUOUS
10
18.999830
20
31.853650
30
0.0
11
18.999830
21
36.541380
31
0.0
0
LINE
8
0
6
CONTINUOUS
10
18.999830
20
24.586570
30
0.0
11
18.999830
21
31.853650
31
0.0
0
LINE
8
0
6
CONTINUOUS
10
18.999830
20
17.319500
30
0.0
11
18.999830
21
24.586570
31
0.0
0
LINE
8
0
6
CONTINUOUS
10
18.999830
20
10.052420
30
0.0
11
18.999830
21
17.319500
31
0.0
0
LINE
8
0
6
CONTINUOUS
10
-0.000180
20
-54.879780
30
0.0
11
17.121520
21
-54.879780
31
0.0
0
LINE
8
0
6
CONTINUOUS
10
18.999820
20
-53.374480
30
0.0
11
18.999830
21
10.052420
31
0.0
0
LINE
8
0
6
CONTINUOUS
10
-3.218140
20
56.033760
30
0.0
11
-2.463050
21
56.033760
31
0.0
0
LINE
8
0
6
CONTINUOUS
10
1.333020
20
56.033760
30
0.0
11
2.463090
21
56.033760
31
0.0
0
LINE
8
0
6
CONTINUOUS
10
-3.483290
20
56.033760
30
0.0
11
-3.218140
21
56.033760
31
0.0
0
LINE
8
0
6
CONTINUOUS
10
-3.483290
20
56.077860
30
0.0
11
-3.483290
21
56.033760
31
0.0
0
LINE
8
0
6
CONTINUOUS
10
0.000020
20
56.033760
30
0.0
11
1.333020
21
56.033760
31
0.0
0
LINE
8
0
6
CONTINUOUS
10
3.483330
20
56.033760
30
0.0
11
3.483330
21
56.077860
31
0.0
0
LINE
8
0
6
CONTINUOUS
10
3.218180
20
56.033760
30
0.0
11
3.483330
21
56.033760
31
0.0
0
LINE
8
0
6
CONTINUOUS
10
-1.332990
20
56.033760
30
0.0
11
0.000020
21
56.033760
31
0.0
0
LINE
8
0
6
CONTINUOUS
10
2.463090
20
56.033760
30
0.0
11
3.218180
21
56.033760
31
0.0
0
LINE
8
0
6
CONTINUOUS
10
-2.463050
20
56.033760
30
0.0
11
-1.332990
21
56.033760
31
0.0
0
LINE
8
0
6
CONTINUOUS
10
-2.788530
20
55.976340
30
0.0
11
-2.788530
21
55.541806
31
0.0
0
LINE
8
0
6
CONTINUOUS
10
2.788560
20
55.533760
30
0.0
11
2.788560
21
55.976340
31
0.0
0
LINE
8
0
6
CONTINUOUS
10
2.463090
20
57.030900
30
0.0
11
1.333020
21
57.030900
31
0.0
0
LINE
8
0
6
CONTINUOUS
10
-3.483290
20
57.030900
30
0.0
11
-3.483290
21
56.973140
31
0.0
0
LINE
8
0
6
CONTINUOUS
10
1.333020
20
57.030900
30
0.0
11
0.000020
21
57.030900
31
0.0
0
LINE
8
0
6
CONTINUOUS
10
3.483330
20
56.973140
30
0.0
11
3.483330
21
57.030900
31
0.0
0
LINE
8
0
6
CONTINUOUS
10
0.000020
20
57.030900
30
0.0
11
-1.332990
21
57.030900
31
0.0
0
LINE
8
0
6
CONTINUOUS
10
-1.332990
20
57.030900
30
0.0
11
-2.463050
21
57.030900
31
0.0
0
LINE
8
0
6
CONTINUOUS
10
-3.483290
20
56.973140
30
0.0
11
-3.483290
21
56.077860
31
0.0
0
LINE
8
0
6
CONTINUOUS
10
3.483330
20
56.077860
30
0.0
11
3.483330
21
56.973140
31
0.0
0
LINE
8
0
6
CONTINUOUS
10
-2.788530
20
56.033760
30
0.0
11
-2.788530
21
55.976340
31
0.0
0
LINE
8
0
6
CONTINUOUS
10
2.788560
20
55.976340
30
0.0
11
2.788560
21
56.033760
31
0.0
0
LINE
8
0
6
CONTINUOUS
10
7.730620
20
57.173280
30
0.0
11
7.877070
21
57.526840
31
0.0
0
LINE
8
0
6
CONTINUOUS
10
7.377070
20
57.026830
30
0.0
11
7.730620
21
57.173280
31
0.0
0
LINE
8
0
6
CONTINUOUS
10
7.204920
20
57.026830
30
0.0
11
7.377070
21
57.026830
31
0.0
0
LINE
8
0
6
CONTINUOUS
10
7.877070
20
75.170000
30
0.0
11
7.631130
21
76.087830
31
0.0
0
LINE
8
0
6
CONTINUOUS
10
7.631130
20
76.087830
30
0.0
11
6.959230
21
76.759730
31
0.0
0
LINE
8
0
6
CONTINUOUS
10
6.959230
20
76.759730
30
0.0
11
6.041390
21
77.005670
31
0.0
0
LINE
8
0
6
CONTINUOUS
10
7.877070
20
57.526840
30
0.0
11
7.877070
21
57.698990
31
0.0
0
LINE
8
0
6
CONTINUOUS
10
7.877070
20
57.698990
30
0.0
11
7.877070
21
75.170000
31
0.0
0
LINE
8
0
6
CONTINUOUS
10
0.000020
20
57.026830
30
0.0
11
7.204920
21
57.026830
31
0.0
0
LINE
8
0
6
CONTINUOUS
10
6.041390
20
77.005670
30
0.0
11
0.000020
21
77.005670
31
0.0
0
LINE
8
0
6
CONTINUOUS
10
-7.877030
20
57.526840
30
0.0
11
-7.730580
21
57.173280
31
0.0
0
LINE
8
0
6
CONTINUOUS
10
-7.730580
20
57.173280
30
0.0
11
-7.377030
21
57.026830
31
0.0
0
LINE
8
0
6
CONTINUOUS
10
-7.377030
20
57.026830
30
0.0
11
-7.204880
21
57.026830
31
0.0
0
LINE
8
0
6
CONTINUOUS
10
-7.631090
20
76.087830
30
0.0
11
-7.877030
21
75.170000
31
0.0
0
LINE
8
0
6
CONTINUOUS
10
-6.959190
20
76.759730
30
0.0
11
-7.631090
21
76.087830
31
0.0
0
LINE
8
0
6
CONTINUOUS
10
-6.041360
20
77.005670
30
0.0
11
-6.959190
21
76.759730
31
0.0
0
LINE
8
0
6
CONTINUOUS
10
-7.877030
20
57.698990
30
0.0
11
-7.877030
21
57.526840
31
0.0
0
LINE
8
0
6
CONTINUOUS
10
-7.877030
20
75.170000
30
0.0
11
-7.877030
21
57.698990
31
0.0
0
LINE
8
0
6
CONTINUOUS
10
-7.204880
20
57.026830
30
0.0
11
0.000020
21
57.026830
31
0.0
0
LINE
8
0
6
CONTINUOUS
10
0.000020
20
77.005670
30
0.0
11
-6.041360
21
77.005670
31
0.0
0
LINE
8
0
6
CONTINUOUS
10
-13.880300
20
-54.978030
30
0.0
11
-14.000070
21
-56.805400
31
0.0
0
LINE
8
0
6
CONTINUOUS
10
-13.860757
20
-54.879780
30
0.0
11
-13.880300
21
-54.978030
31
0.0
0
LINE
8
0
6
CONTINUOUS
10
13.999920
20
-56.805400
30
0.0
11
13.880150
21
-54.978030
31
0.0
0
LINE
8
0
6
CONTINUOUS
10
13.880150
20
-54.978030
30
0.0
11
13.860607
21
-54.879780
31
0.0
0
LINE
8
0
6
CONTINUOUS
10
13.962790
20
-67.155530
30
0.0
11
13.846740
21
-67.046920
31
0.0
0
LINE
8
0
6
CONTINUOUS
10
-13.846890
20
-67.046920
30
0.0
11
-13.962940
21
-67.155530
31
0.0
0
LINE
8
0
6
CONTINUOUS
10
-14.000070
20
-76.357390
30
0.0
11
-14.000070
21
-76.505670
31
0.0
0
LINE
8
0
6
CONTINUOUS
10
13.999920
20
-76.505670
30
0.0
11
13.999920
21
-76.357390
31
0.0
0
LINE
8
0
6
CONTINUOUS
10
-13.962940
20
-67.155530
30
0.0
11
-14.000070
21
-67.305530
31
0.0
0
LINE
8
0
6
CONTINUOUS
10
13.999920
20
-67.305530
30
0.0
11
13.962790
21
-67.155530
31
0.0
0
LINE
8
0
6
CONTINUOUS
10
13.999920
20
-67.005520
30
0.0
11
13.999920
21
-66.821470
31
0.0
0
LINE
8
0
6
CONTINUOUS
10
-14.000070
20
-66.821470
30
0.0
11
-14.000070
21
-67.005520
31
0.0
0
LINE
8
0
6
CONTINUOUS
10
13.846740
20
-67.046920
30
0.0
11
13.999920
21
-67.005520
31
0.0
0
LINE
8
0
6
CONTINUOUS
10
-14.000070
20
-67.005520
30
0.0
11
-13.846890
21
-67.046920
31
0.0
0
LINE
8
0
6
CONTINUOUS
10
13.999920
20
-66.821470
30
0.0
11
13.999920
21
-56.805400
31
0.0
0
LINE
8
0
6
CONTINUOUS
10
-14.000070
20
-56.805400
30
0.0
11
-14.000070
21
-66.821470
31
0.0
0
LINE
8
0
6
CONTINUOUS
10
13.999920
20
-67.415350
30
0.0
11
13.999920
21
-67.305530
31
0.0
0
LINE
8
0
6
CONTINUOUS
10
-14.000070
20
-67.305530
30
0.0
11
-14.000070
21
-67.415350
31
0.0
0
LINE
8
0
6
CONTINUOUS
10
9.542810
20
-77.005670
30
0.0
11
11.687520
21
-77.005670
31
0.0
0
LINE
8
0
6
CONTINUOUS
10
3.492860
20
-77.005670
30
0.0
11
6.747760
21
-77.005670
31
0.0
0
LINE
8
0
6
CONTINUOUS
10
11.687520
20
-77.005670
30
0.0
11
13.035750
21
-77.005660
31
0.0
0
LINE
8
0
6
CONTINUOUS
10
-0.000080
20
-77.005670
30
0.0
11
3.492860
21
-77.005670
31
0.0
0
LINE
8
0
6
CONTINUOUS
10
-11.687680
20
-77.005670
30
0.0
11
-9.542960
21
-77.005670
31
0.0
0
LINE
8
0
6
CONTINUOUS
10
-13.035900
20
-77.005660
30
0.0
11
-11.687680
21
-77.005670
31
0.0
0
LINE
8
0
6
CONTINUOUS
10
-9.542960
20
-77.005670
30
0.0
11
-6.747910
21
-77.005670
31
0.0
0
LINE
8
0
6
CONTINUOUS
10
-13.852360
20
-76.859210
30
0.0
11
-13.495760
21
-77.005660
31
0.0
0
LINE
8
0
6
CONTINUOUS
10
-13.495760
20
-77.005660
30
0.0
11
-13.035900
21
-77.005660
31
0.0
0
LINE
8
0
6
CONTINUOUS
10
-14.000070
20
-76.505670
30
0.0
11
-13.852360
21
-76.859210
31
0.0
0
LINE
8
0
6
CONTINUOUS
10
6.747760
20
-77.005670
30
0.0
11
9.542810
21
-77.005670
31
0.0
0
LINE
8
0
6
CONTINUOUS
10
13.852210
20
-76.859210
30
0.0
11
13.999920
21
-76.505670
31
0.0
0
LINE
8
0
6
CONTINUOUS
10
13.495600
20
-77.005660
30
0.0
11
13.852210
21
-76.859210
31
0.0
0
LINE
8
0
6
CONTINUOUS
10
13.035750
20
-77.005660
30
0.0
11
13.495600
21
-77.005660
31
0.0
0
LINE
8
0
6
CONTINUOUS
10
-6.747910
20
-77.005670
30
0.0
11
-3.493020
21
-77.005670
31
0.0
0
LINE
8
0
6
CONTINUOUS
10
-3.493020
20
-77.005670
30
0.0
11
-0.000080
21
-77.005670
31
0.0
0
LINE
8
0
6
CONTINUOUS
10
-14.000070
20
-67.415350
30
0.0
11
-14.000070
21
-76.357390
31
0.0
0
LINE
8
0
6
CONTINUOUS
10
13.999920
20
-76.357390
30
0.0
11
13.999920
21
-67.415350
31
0.0
0
ENDSEC
0
EOF
