999
Erzeugt mit innoplus bad 
0
SECTION
2
HEADER
9
$ACADVER
1
AC1009
9
$DWGCODEPAGE
3
ISO8859-1
0
ENDSEC
0
SECTION
2
TABLES
0
TABLE
2
LAYER
70
1
0
LAYER
2
0
70
0
62
7
6
CONTINUOUS
0
ENDTAB
0
ENDSEC
0
SECTION
2
ENTITIES
0
LINE
8
0
6
CONTINUOUS
10
10.707510
20
-81.500015
30
0.0
11
13.351930
21
-81.500015
31
0.0
0
LINE
8
0
6
CONTINUOUS
10
66.768950
20
-80.934495
30
0.0
11
66.615070
21
-75.057885
31
0.0
0
LINE
8
0
6
CONTINUOUS
10
66.615070
20
-75.057885
30
0.0
11
66.613210
21
-74.986925
31
0.0
0
LINE
8
0
6
CONTINUOUS
10
6.452440
20
-75.057895
30
0.0
11
6.298560
21
-80.934505
31
0.0
0
LINE
8
0
6
CONTINUOUS
10
6.454290
20
-74.986935
30
0.0
11
6.452440
21
-75.057895
31
0.0
0
LINE
8
0
6
CONTINUOUS
10
66.770320
20
-80.986925
30
0.0
11
66.768950
21
-80.934495
31
0.0
0
LINE
8
0
6
CONTINUOUS
10
36.533790
20
-74.500015
30
0.0
11
16.283740
21
-74.500015
31
0.0
0
LINE
8
0
6
CONTINUOUS
10
56.783830
20
-74.500015
30
0.0
11
36.533790
21
-74.500015
31
0.0
0
LINE
8
0
6
CONTINUOUS
10
14.221830
20
-74.500015
30
0.0
11
11.684570
21
-74.500015
31
0.0
0
LINE
8
0
6
CONTINUOUS
10
26.429200
20
-74.500015
30
0.0
11
21.739260
21
-74.500015
31
0.0
0
LINE
8
0
6
CONTINUOUS
10
63.455120
20
-74.500015
30
0.0
11
61.843560
21
-74.500015
31
0.0
0
LINE
8
0
6
CONTINUOUS
10
64.459100
20
-81.500015
30
0.0
11
65.806170
21
-81.500015
31
0.0
0
LINE
8
0
6
CONTINUOUS
10
36.533910
20
-81.500015
30
0.0
11
56.783740
21
-81.500015
31
0.0
0
LINE
8
0
6
CONTINUOUS
10
42.042280
20
-74.500015
30
0.0
11
36.780520
21
-74.500015
31
0.0
0
LINE
8
0
6
CONTINUOUS
10
31.508040
20
-74.500015
30
0.0
11
26.429200
21
-74.500015
31
0.0
0
LINE
8
0
6
CONTINUOUS
10
21.739260
20
-74.500015
30
0.0
11
17.617030
21
-74.500015
31
0.0
0
LINE
8
0
6
CONTINUOUS
10
55.799000
20
-74.500015
30
0.0
11
51.738260
21
-74.500015
31
0.0
0
LINE
8
0
6
CONTINUOUS
10
16.284080
20
-81.500015
30
0.0
11
36.533910
21
-81.500015
31
0.0
0
LINE
8
0
6
CONTINUOUS
10
17.617030
20
-74.500015
30
0.0
11
14.221830
21
-74.500015
31
0.0
0
LINE
8
0
6
CONTINUOUS
10
6.297180
20
-80.986935
30
0.0
11
6.359700
21
-81.242415
31
0.0
0
LINE
8
0
6
CONTINUOUS
10
59.119540
20
-74.500015
30
0.0
11
55.799000
21
-74.500015
31
0.0
0
LINE
8
0
6
CONTINUOUS
10
65.656730
20
-74.500015
30
0.0
11
64.331590
21
-74.500015
31
0.0
0
LINE
8
0
6
CONTINUOUS
10
8.608860
20
-81.500015
30
0.0
11
10.707510
21
-81.500015
31
0.0
0
LINE
8
0
6
CONTINUOUS
10
6.298560
20
-80.934505
30
0.0
11
6.297180
21
-80.986935
31
0.0
0
LINE
8
0
6
CONTINUOUS
10
61.571450
20
-74.500015
30
0.0
11
59.119540
21
-74.500015
31
0.0
0
LINE
8
0
6
CONTINUOUS
10
51.738260
20
-74.500015
30
0.0
11
47.093190
21
-74.500015
31
0.0
0
LINE
8
0
6
CONTINUOUS
10
63.532640
20
-74.500015
30
0.0
11
63.062160
21
-74.500015
31
0.0
0
LINE
8
0
6
CONTINUOUS
10
63.062160
20
-74.500015
30
0.0
11
61.571450
21
-74.500015
31
0.0
0
LINE
8
0
6
CONTINUOUS
10
10.101970
20
-74.500015
30
0.0
11
9.534970
21
-74.500015
31
0.0
0
LINE
8
0
6
CONTINUOUS
10
10.799910
20
-74.500015
30
0.0
11
8.735930
21
-74.500015
31
0.0
0
LINE
8
0
6
CONTINUOUS
10
36.780520
20
-74.500015
30
0.0
11
31.508040
21
-74.500015
31
0.0
0
LINE
8
0
6
CONTINUOUS
10
47.093190
20
-74.500015
30
0.0
11
42.042280
21
-74.500015
31
0.0
0
LINE
8
0
6
CONTINUOUS
10
8.735930
20
-74.500015
30
0.0
11
7.410790
21
-74.500015
31
0.0
0
LINE
8
0
6
CONTINUOUS
10
16.283740
20
-74.500015
30
0.0
11
13.400700
21
-74.500015
31
0.0
0
LINE
8
0
6
CONTINUOUS
10
66.613210
20
-74.986925
30
0.0
11
66.541970
21
-74.742495
31
0.0
0
LINE
8
0
6
CONTINUOUS
10
6.525570
20
-74.742495
30
0.0
11
6.454290
21
-74.986935
31
0.0
0
LINE
8
0
6
CONTINUOUS
10
6.359700
20
-81.242415
30
0.0
11
6.543280
21
-81.430825
31
0.0
0
LINE
8
0
6
CONTINUOUS
10
61.843560
20
-74.500015
30
0.0
11
59.259100
21
-74.500015
31
0.0
0
LINE
8
0
6
CONTINUOUS
10
17.533760
20
-74.500015
30
0.0
11
16.911940
21
-74.500015
31
0.0
0
LINE
8
0
6
CONTINUOUS
10
62.267810
20
-74.500015
30
0.0
11
59.667090
21
-74.500015
31
0.0
0
LINE
8
0
6
CONTINUOUS
10
59.259100
20
-74.500015
30
0.0
11
55.800680
21
-74.500015
31
0.0
0
LINE
8
0
6
CONTINUOUS
10
56.783740
20
-81.500015
30
0.0
11
59.715550
21
-81.500015
31
0.0
0
LINE
8
0
6
CONTINUOUS
10
62.359980
20
-81.500015
30
0.0
11
64.459100
21
-81.500015
31
0.0
0
LINE
8
0
6
CONTINUOUS
10
7.261650
20
-81.500015
30
0.0
11
8.608860
21
-81.500015
31
0.0
0
LINE
8
0
6
CONTINUOUS
10
55.800680
20
-74.500015
30
0.0
11
55.533770
21
-74.500015
31
0.0
0
LINE
8
0
6
CONTINUOUS
10
11.032130
20
-74.500015
30
0.0
11
9.514710
21
-74.500015
31
0.0
0
LINE
8
0
6
CONTINUOUS
10
16.911940
20
-74.500015
30
0.0
11
13.529650
21
-74.500015
31
0.0
0
LINE
8
0
6
CONTINUOUS
10
6.954130
20
-74.500015
30
0.0
11
6.707950
21
-74.564835
31
0.0
0
LINE
8
0
6
CONTINUOUS
10
7.410790
20
-74.500015
30
0.0
11
6.954130
21
-74.500015
31
0.0
0
LINE
8
0
6
CONTINUOUS
10
9.514710
20
-74.500015
30
0.0
11
9.034900
21
-74.500015
31
0.0
0
LINE
8
0
6
CONTINUOUS
10
13.351930
20
-81.500015
30
0.0
11
16.284080
21
-81.500015
31
0.0
0
LINE
8
0
6
CONTINUOUS
10
59.715550
20
-81.500015
30
0.0
11
62.359980
21
-81.500015
31
0.0
0
LINE
8
0
6
CONTINUOUS
10
13.529650
20
-74.500015
30
0.0
11
11.032130
21
-74.500015
31
0.0
0
LINE
8
0
6
CONTINUOUS
10
64.331590
20
-74.500015
30
0.0
11
62.267810
21
-74.500015
31
0.0
0
LINE
8
0
6
CONTINUOUS
10
66.113450
20
-74.500015
30
0.0
11
65.656730
21
-74.500015
31
0.0
0
LINE
8
0
6
CONTINUOUS
10
66.359580
20
-74.564835
30
0.0
11
66.113450
21
-74.500015
31
0.0
0
LINE
8
0
6
CONTINUOUS
10
11.684570
20
-74.500015
30
0.0
11
10.101970
21
-74.500015
31
0.0
0
LINE
8
0
6
CONTINUOUS
10
6.797010
20
-81.500015
30
0.0
11
7.261650
21
-81.500015
31
0.0
0
LINE
8
0
6
CONTINUOUS
10
6.543280
20
-81.430825
30
0.0
11
6.797010
21
-81.500015
31
0.0
0
LINE
8
0
6
CONTINUOUS
10
6.707950
20
-74.564835
30
0.0
11
6.525570
21
-74.742495
31
0.0
0
LINE
8
0
6
CONTINUOUS
10
59.667090
20
-74.500015
30
0.0
11
56.783830
21
-74.500015
31
0.0
0
LINE
8
0
6
CONTINUOUS
10
66.707840
20
-81.242415
30
0.0
11
66.770320
21
-80.986925
31
0.0
0
LINE
8
0
6
CONTINUOUS
10
64.032630
20
-74.500015
30
0.0
11
63.455120
21
-74.500015
31
0.0
0
LINE
8
0
6
CONTINUOUS
10
66.541970
20
-74.742495
30
0.0
11
66.359580
21
-74.564835
31
0.0
0
LINE
8
0
6
CONTINUOUS
10
65.806170
20
-81.500015
30
0.0
11
66.270480
21
-81.500015
31
0.0
0
LINE
8
0
6
CONTINUOUS
10
66.270480
20
-81.500015
30
0.0
11
66.524250
21
-81.430825
31
0.0
0
LINE
8
0
6
CONTINUOUS
10
66.524250
20
-81.430825
30
0.0
11
66.707840
21
-81.242415
31
0.0
0
LINE
8
0
6
CONTINUOUS
10
13.400700
20
-74.500015
30
0.0
11
10.799910
21
-74.500015
31
0.0
0
LINE
8
0
6
CONTINUOUS
10
-53.055270
20
75.056795
30
0.0
11
-52.960830
21
74.723295
31
0.0
0
LINE
8
0
6
CONTINUOUS
10
-53.233750
20
75.687135
30
0.0
11
-53.322650
21
76.001045
31
0.0
0
LINE
8
0
6
CONTINUOUS
10
20.637330
20
23.499985
30
0.0
11
22.767070
21
23.499985
31
0.0
0
LINE
8
0
6
CONTINUOUS
10
21.055310
20
26.473385
30
0.0
11
20.637330
21
23.499985
31
0.0
0
LINE
8
0
6
CONTINUOUS
10
22.767070
20
23.499985
30
0.0
11
28.585630
21
23.499985
31
0.0
0
LINE
8
0
6
CONTINUOUS
10
23.129043
20
26.473385
30
0.0
11
22.767070
21
23.499985
31
0.0
0
LINE
8
0
6
CONTINUOUS
10
28.585630
20
23.499985
30
0.0
11
36.533920
21
23.499985
31
0.0
0
LINE
8
0
6
CONTINUOUS
10
28.794616
20
26.473385
30
0.0
11
28.585630
21
23.499985
31
0.0
0
LINE
8
0
6
CONTINUOUS
10
36.533920
20
23.499985
30
0.0
11
44.482210
21
23.499985
31
0.0
0
LINE
8
0
6
CONTINUOUS
10
36.533920
20
26.473358
30
0.0
11
36.533920
21
23.499985
31
0.0
0
LINE
8
0
6
CONTINUOUS
10
44.482210
20
23.499985
30
0.0
11
50.300770
21
23.499985
31
0.0
0
LINE
8
0
6
CONTINUOUS
10
44.211380
20
27.353285
30
0.0
11
44.482210
21
23.499985
31
0.0
0
LINE
8
0
6
CONTINUOUS
10
43.673584
20
29.785272
30
0.0
11
44.211380
21
27.353285
31
0.0
0
LINE
8
0
6
CONTINUOUS
10
52.430510
20
23.499985
30
0.0
11
51.888840
21
27.353285
31
0.0
0
LINE
8
0
6
CONTINUOUS
10
50.300770
20
23.499985
30
0.0
11
52.430510
21
23.499985
31
0.0
0
LINE
8
0
6
CONTINUOUS
10
49.831670
20
27.353285
30
0.0
11
50.300770
21
23.499985
31
0.0
0
LINE
8
0
6
CONTINUOUS
10
50.300770
20
30.943995
30
0.0
11
49.166508
21
32.328411
31
0.0
0
LINE
8
0
6
CONTINUOUS
10
47.890580
20
31.741386
30
0.0
11
48.456360
21
30.943995
31
0.0
0
LINE
8
0
6
CONTINUOUS
10
51.888840
20
27.353285
30
0.0
11
50.300770
21
30.943995
31
0.0
0
LINE
8
0
6
CONTINUOUS
10
48.456360
20
30.943995
30
0.0
11
49.831670
21
27.353285
31
0.0
0
LINE
8
0
6
CONTINUOUS
10
17.533930
20
45.268725
30
0.0
11
17.533930
21
27.519605
31
0.0
0
LINE
8
0
6
CONTINUOUS
10
21.162610
20
49.196145
30
0.0
11
25.366010
21
53.745585
31
0.0
0
LINE
8
0
6
CONTINUOUS
10
18.463850
20
46.275215
30
0.0
11
21.162610
21
49.196145
31
0.0
0
LINE
8
0
6
CONTINUOUS
10
15.473510
20
53.228375
30
0.0
11
17.191320
21
55.791485
31
0.0
0
LINE
8
0
6
CONTINUOUS
10
14.856330
20
52.322825
30
0.0
11
17.533930
21
45.268725
31
0.0
0
LINE
8
0
6
CONTINUOUS
10
17.533930
20
45.268725
30
0.0
11
18.463850
21
46.275215
31
0.0
0
LINE
8
0
6
CONTINUOUS
10
11.405750
20
56.965115
30
0.0
11
14.856330
21
52.322825
31
0.0
0
LINE
8
0
6
CONTINUOUS
10
6.638400
20
60.448185
30
0.0
11
11.405750
21
56.965115
31
0.0
0
LINE
8
0
6
CONTINUOUS
10
-51.806660
20
75.674875
30
0.0
11
7.276210
21
62.831495
31
0.0
0
LINE
8
0
6
CONTINUOUS
10
7.999940
20
65.505725
30
0.0
11
-52.249270
21
77.136265
31
0.0
0
LINE
8
0
6
CONTINUOUS
10
6.638400
20
60.448185
30
0.0
11
6.806020
21
61.067135
31
0.0
0
LINE
8
0
6
CONTINUOUS
10
-51.408690
20
74.377245
30
0.0
11
6.638400
21
60.448185
31
0.0
0
LINE
8
0
6
CONTINUOUS
10
-52.761920
20
78.974315
30
0.0
11
8.944640
21
68.801665
31
0.0
0
LINE
8
0
6
CONTINUOUS
10
30.662610
20
59.478245
30
0.0
11
25.366010
21
53.745585
31
0.0
0
LINE
8
0
6
CONTINUOUS
10
54.266710
20
34.692285
30
0.0
11
55.536190
21
35.280685
31
0.0
0
LINE
8
0
6
CONTINUOUS
10
55.536300
20
36.288425
30
0.0
11
55.536190
21
35.280685
31
0.0
0
LINE
8
0
6
CONTINUOUS
10
55.540900
20
66.145115
30
0.0
11
54.220340
21
66.329475
31
0.0
0
LINE
8
0
6
CONTINUOUS
10
55.540710
20
64.790395
30
0.0
11
55.540900
21
66.145115
31
0.0
0
LINE
8
0
6
CONTINUOUS
10
-53.374480
20
81.288815
30
0.0
11
-54.879780
21
81.500015
31
0.0
0
LINE
8
0
6
CONTINUOUS
10
55.540710
20
64.790395
30
0.0
11
55.540040
21
59.478245
31
0.0
0
LINE
8
0
6
CONTINUOUS
10
18.463850
20
26.473385
30
0.0
11
21.162610
21
26.473385
31
0.0
0
LINE
8
0
6
CONTINUOUS
10
25.366010
20
26.473385
30
0.0
11
30.662610
21
26.473385
31
0.0
0
LINE
8
0
6
CONTINUOUS
10
17.533930
20
26.473385
30
0.0
11
18.463850
21
26.473385
31
0.0
0
LINE
8
0
6
CONTINUOUS
10
17.533930
20
27.519605
30
0.0
11
17.533930
21
26.473385
31
0.0
0
LINE
8
0
6
CONTINUOUS
10
54.220340
20
66.329475
30
0.0
11
36.541380
21
68.787435
31
0.0
0
LINE
8
0
6
CONTINUOUS
10
30.662610
20
26.473385
30
0.0
11
36.533930
21
26.473385
31
0.0
0
LINE
8
0
6
CONTINUOUS
10
21.162610
20
26.473385
30
0.0
11
25.366010
21
26.473385
31
0.0
0
LINE
8
0
6
CONTINUOUS
10
55.540040
20
59.478245
30
0.0
11
55.536300
21
36.288425
31
0.0
0
LINE
8
0
6
CONTINUOUS
10
36.533930
20
26.473385
30
0.0
11
54.266710
21
34.692285
31
0.0
0
LINE
8
0
6
CONTINUOUS
10
31.853650
20
69.439195
30
0.0
11
36.541380
21
68.787435
31
0.0
0
LINE
8
0
6
CONTINUOUS
10
24.586570
20
70.449575
30
0.0
11
31.853650
21
69.439195
31
0.0
0
LINE
8
0
6
CONTINUOUS
10
17.319500
20
71.459935
30
0.0
11
24.586570
21
70.449575
31
0.0
0
LINE
8
0
6
CONTINUOUS
10
10.052420
20
72.470315
30
0.0
11
17.319500
21
71.459935
31
0.0
0
LINE
8
0
6
CONTINUOUS
10
-54.241480
20
79.245885
30
0.0
11
-53.731340
21
77.444355
31
0.0
0
LINE
8
0
6
CONTINUOUS
10
-53.731340
20
77.444355
30
0.0
11
-53.323400
21
76.003695
31
0.0
0
LINE
8
0
6
CONTINUOUS
10
-53.323400
20
76.003695
30
0.0
11
-53.055270
21
75.056795
31
0.0
0
LINE
8
0
6
CONTINUOUS
10
-53.055270
20
75.056795
30
0.0
11
-52.960830
21
74.723295
31
0.0
0
LINE
8
0
6
CONTINUOUS
10
-52.960830
20
74.723295
30
0.0
11
-51.408690
21
74.377245
31
0.0
0
LINE
8
0
6
CONTINUOUS
10
10.052420
20
72.470315
30
0.0
11
-53.374480
21
81.288815
31
0.0
0
LINE
8
0
6
CONTINUOUS
10
-54.877740
20
81.492805
30
0.0
11
-54.580940
21
80.444735
31
0.0
0
LINE
8
0
6
CONTINUOUS
10
-53.374480
20
81.288815
30
0.0
11
-54.877740
21
81.492805
31
0.0
0
LINE
8
0
6
CONTINUOUS
10
-54.241480
20
79.245885
30
0.0
11
-52.761920
21
78.974315
31
0.0
0
LINE
8
0
6
CONTINUOUS
10
-54.241480
20
79.245885
30
0.0
11
-54.580940
21
80.444735
31
0.0
0
LINE
8
0
6
CONTINUOUS
10
56.033760
20
-28.392115
30
0.0
11
56.033760
21
-29.147195
31
0.0
0
LINE
8
0
6
CONTINUOUS
10
56.033760
20
-32.943275
30
0.0
11
56.033760
21
-34.073345
31
0.0
0
LINE
8
0
6
CONTINUOUS
10
56.033760
20
-28.126965
30
0.0
11
56.033760
21
-28.392115
31
0.0
0
LINE
8
0
6
CONTINUOUS
10
56.077860
20
-28.126965
30
0.0
11
56.033760
21
-28.126965
31
0.0
0
LINE
8
0
6
CONTINUOUS
10
56.033760
20
-31.610265
30
0.0
11
56.033760
21
-32.943275
31
0.0
0
LINE
8
0
6
CONTINUOUS
10
56.033760
20
-30.277255
30
0.0
11
56.033760
21
-31.610265
31
0.0
0
LINE
8
0
6
CONTINUOUS
10
56.033760
20
-29.147195
30
0.0
11
56.033760
21
-30.277255
31
0.0
0
LINE
8
0
6
CONTINUOUS
10
56.033760
20
-34.828425
30
0.0
11
56.077860
21
-34.828425
31
0.0
0
LINE
8
0
6
CONTINUOUS
10
56.033760
20
-34.073345
30
0.0
11
56.033760
21
-34.828425
31
0.0
0
LINE
8
0
6
CONTINUOUS
10
55.976340
20
-28.821725
30
0.0
11
55.533760
21
-28.821725
31
0.0
0
LINE
8
0
6
CONTINUOUS
10
55.533760
20
-34.398815
30
0.0
11
55.976350
21
-34.398815
31
0.0
0
LINE
8
0
6
CONTINUOUS
10
57.030900
20
-29.147195
30
0.0
11
57.030900
21
-28.392115
31
0.0
0
LINE
8
0
6
CONTINUOUS
10
57.030900
20
-28.126965
30
0.0
11
56.973130
21
-28.126965
31
0.0
0
LINE
8
0
6
CONTINUOUS
10
57.030900
20
-28.392115
30
0.0
11
57.030900
21
-28.126965
31
0.0
0
LINE
8
0
6
CONTINUOUS
10
56.973140
20
-34.828425
30
0.0
11
57.030910
21
-34.828425
31
0.0
0
LINE
8
0
6
CONTINUOUS
10
56.973130
20
-28.126965
30
0.0
11
56.077860
21
-28.126965
31
0.0
0
LINE
8
0
6
CONTINUOUS
10
56.077860
20
-34.828425
30
0.0
11
56.973140
21
-34.828425
31
0.0
0
LINE
8
0
6
CONTINUOUS
10
56.033760
20
-28.821725
30
0.0
11
55.976340
21
-28.821725
31
0.0
0
LINE
8
0
6
CONTINUOUS
10
55.976350
20
-34.398815
30
0.0
11
56.033760
21
-34.398815
31
0.0
0
LINE
8
0
6
CONTINUOUS
10
77.005670
20
-29.104845
30
0.0
11
77.005670
21
-29.036995
31
0.0
0
LINE
8
0
6
CONTINUOUS
10
57.526840
20
-28.536995
30
0.0
11
57.173280
21
-28.683445
31
0.0
0
LINE
8
0
6
CONTINUOUS
10
57.173280
20
-28.683445
30
0.0
11
57.026830
21
-29.036995
31
0.0
0
LINE
8
0
6
CONTINUOUS
10
57.026830
20
-33.990795
30
0.0
11
57.173280
21
-34.344345
31
0.0
0
LINE
8
0
6
CONTINUOUS
10
57.173280
20
-34.344345
30
0.0
11
57.526840
21
-34.490785
31
0.0
0
LINE
8
0
6
CONTINUOUS
10
57.026830
20
-29.036995
30
0.0
11
57.026830
21
-29.104845
31
0.0
0
LINE
8
0
6
CONTINUOUS
10
75.104170
20
-34.490785
30
0.0
11
75.829010
21
-34.490785
31
0.0
0
LINE
8
0
6
CONTINUOUS
10
75.829010
20
-28.536995
30
0.0
11
75.104170
21
-28.536995
31
0.0
0
LINE
8
0
6
CONTINUOUS
10
75.829010
20
-34.490785
30
0.0
11
76.311450
21
-34.490785
31
0.0
0
LINE
8
0
6
CONTINUOUS
10
76.311450
20
-28.536995
30
0.0
11
75.829010
21
-28.536995
31
0.0
0
LINE
8
0
6
CONTINUOUS
10
76.311450
20
-34.490785
30
0.0
11
76.505670
21
-34.490785
31
0.0
0
LINE
8
0
6
CONTINUOUS
10
76.505670
20
-34.490785
30
0.0
11
76.859220
21
-34.344345
31
0.0
0
LINE
8
0
6
CONTINUOUS
10
76.859220
20
-34.344345
30
0.0
11
77.005670
21
-33.990795
31
0.0
0
LINE
8
0
6
CONTINUOUS
10
76.505670
20
-28.536995
30
0.0
11
76.311450
21
-28.536995
31
0.0
0
LINE
8
0
6
CONTINUOUS
10
76.859220
20
-28.683445
30
0.0
11
76.505670
21
-28.536995
31
0.0
0
LINE
8
0
6
CONTINUOUS
10
77.005670
20
-29.036995
30
0.0
11
76.859220
21
-28.683445
31
0.0
0
LINE
8
0
6
CONTINUOUS
10
57.698980
20
-28.536995
30
0.0
11
57.526840
21
-28.536995
31
0.0
0
LINE
8
0
6
CONTINUOUS
10
57.526840
20
-34.490785
30
0.0
11
57.698990
21
-34.490785
31
0.0
0
LINE
8
0
6
CONTINUOUS
10
77.005670
20
-33.990795
30
0.0
11
77.005670
21
-33.922935
31
0.0
0
LINE
8
0
6
CONTINUOUS
10
77.005670
20
-33.922935
30
0.0
11
77.005670
21
-29.104845
31
0.0
0
LINE
8
0
6
CONTINUOUS
10
57.026830
20
-33.922935
30
0.0
11
57.026830
21
-33.990795
31
0.0
0
LINE
8
0
6
CONTINUOUS
10
57.026830
20
-29.104845
30
0.0
11
57.026830
21
-33.922935
31
0.0
0
LINE
8
0
6
CONTINUOUS
10
75.104170
20
-28.536995
30
0.0
11
57.698980
21
-28.536995
31
0.0
0
LINE
8
0
6
CONTINUOUS
10
57.698990
20
-34.490785
30
0.0
11
75.104170
21
-34.490785
31
0.0
0
LINE
8
0
6
CONTINUOUS
10
-49.805410
20
31.424345
30
0.0
11
-51.447840
21
32.234295
31
0.0
0
LINE
8
0
6
CONTINUOUS
10
-48.282740
20
30.406935
30
0.0
11
-49.805410
21
31.424345
31
0.0
0
LINE
8
0
6
CONTINUOUS
10
-54.978040
20
33.180215
30
0.0
11
-56.805410
21
33.299985
31
0.0
0
LINE
8
0
6
CONTINUOUS
10
-53.181940
20
32.822945
30
0.0
11
-54.978040
21
33.180215
31
0.0
0
LINE
8
0
6
CONTINUOUS
10
-51.447840
20
32.234295
30
0.0
11
-53.181940
21
32.822945
31
0.0
0
LINE
8
0
6
CONTINUOUS
10
-67.155520
20
5.337125
30
0.0
11
-67.046910
21
5.453165
31
0.0
0
LINE
8
0
6
CONTINUOUS
10
-67.046920
20
33.146795
30
0.0
11
-67.155540
21
33.262845
31
0.0
0
LINE
8
0
6
CONTINUOUS
10
-49.805390
20
7.175635
30
0.0
11
-48.282730
21
8.193055
31
0.0
0
LINE
8
0
6
CONTINUOUS
10
-56.805390
20
5.299995
30
0.0
11
-54.978020
21
5.419765
31
0.0
0
LINE
8
0
6
CONTINUOUS
10
-76.357400
20
33.299975
30
0.0
11
-76.505670
21
33.299975
31
0.0
0
LINE
8
0
6
CONTINUOUS
10
-54.978020
20
5.419765
30
0.0
11
-53.181920
21
5.777035
31
0.0
0
LINE
8
0
6
CONTINUOUS
10
-53.181920
20
5.777035
30
0.0
11
-51.447830
21
6.365685
31
0.0
0
LINE
8
0
6
CONTINUOUS
10
-76.505660
20
5.299985
30
0.0
11
-76.357380
21
5.299985
31
0.0
0
LINE
8
0
6
CONTINUOUS
10
-51.447830
20
6.365685
30
0.0
11
-49.805390
21
7.175635
31
0.0
0
LINE
8
0
6
CONTINUOUS
10
-67.155540
20
33.262845
30
0.0
11
-67.305540
21
33.299975
31
0.0
0
LINE
8
0
6
CONTINUOUS
10
-66.821480
20
33.299975
30
0.0
11
-67.005530
21
33.299975
31
0.0
0
LINE
8
0
6
CONTINUOUS
10
-67.005510
20
5.299985
30
0.0
11
-66.821460
21
5.299985
31
0.0
0
LINE
8
0
6
CONTINUOUS
10
-67.305520
20
5.299985
30
0.0
11
-67.155520
21
5.337125
31
0.0
0
LINE
8
0
6
CONTINUOUS
10
-67.046910
20
5.453165
30
0.0
11
-67.005510
21
5.299985
31
0.0
0
LINE
8
0
6
CONTINUOUS
10
-67.005530
20
33.299975
30
0.0
11
-67.046920
21
33.146795
31
0.0
0
LINE
8
0
6
CONTINUOUS
10
-56.805410
20
33.299985
30
0.0
11
-66.821480
21
33.299975
31
0.0
0
LINE
8
0
6
CONTINUOUS
10
-66.821460
20
5.299985
30
0.0
11
-56.805390
21
5.299995
31
0.0
0
LINE
8
0
6
CONTINUOUS
10
-67.305540
20
33.299975
30
0.0
11
-67.415350
21
33.299975
31
0.0
0
LINE
8
0
6
CONTINUOUS
10
-67.415340
20
5.299985
30
0.0
11
-67.305520
21
5.299985
31
0.0
0
LINE
8
0
6
CONTINUOUS
10
-77.005650
20
7.612385
30
0.0
11
-77.005650
21
6.264155
31
0.0
0
LINE
8
0
6
CONTINUOUS
10
-77.005650
20
5.804305
30
0.0
11
-76.859200
21
5.447695
31
0.0
0
LINE
8
0
6
CONTINUOUS
10
-77.005650
20
6.264155
30
0.0
11
-77.005650
21
5.804305
31
0.0
0
LINE
8
0
6
CONTINUOUS
10
-76.859200
20
5.447695
30
0.0
11
-76.505660
21
5.299985
31
0.0
0
LINE
8
0
6
CONTINUOUS
10
-77.005670
20
28.842865
30
0.0
11
-77.005670
21
26.047815
31
0.0
0
LINE
8
0
6
CONTINUOUS
10
-77.005670
20
32.335795
30
0.0
11
-77.005670
21
30.987575
31
0.0
0
LINE
8
0
6
CONTINUOUS
10
-76.505670
20
33.299975
30
0.0
11
-76.859220
21
33.152255
31
0.0
0
LINE
8
0
6
CONTINUOUS
10
-77.005670
20
32.795665
30
0.0
11
-77.005670
21
32.335795
31
0.0
0
LINE
8
0
6
CONTINUOUS
10
-76.859220
20
33.152255
30
0.0
11
-77.005670
21
32.795665
31
0.0
0
LINE
8
0
6
CONTINUOUS
10
-77.005660
20
9.757095
30
0.0
11
-77.005650
21
7.612385
31
0.0
0
LINE
8
0
6
CONTINUOUS
10
-77.005660
20
12.552135
30
0.0
11
-77.005660
21
9.757095
31
0.0
0
LINE
8
0
6
CONTINUOUS
10
-77.005670
20
30.987575
30
0.0
11
-77.005670
21
28.842865
31
0.0
0
LINE
8
0
6
CONTINUOUS
10
-77.005660
20
22.792915
30
0.0
11
-77.005660
21
19.299975
31
0.0
0
LINE
8
0
6
CONTINUOUS
10
-77.005660
20
19.299975
30
0.0
11
-77.005660
21
15.807035
31
0.0
0
LINE
8
0
6
CONTINUOUS
10
-77.005660
20
15.807035
30
0.0
11
-77.005660
21
12.552135
31
0.0
0
LINE
8
0
6
CONTINUOUS
10
-67.415350
20
33.299975
30
0.0
11
-76.357400
21
33.299975
31
0.0
0
LINE
8
0
6
CONTINUOUS
10
-76.357380
20
5.299985
30
0.0
11
-67.415340
21
5.299985
31
0.0
0
LINE
8
0
6
CONTINUOUS
10
17.258060
20
-24.002845
30
0.0
11
17.533760
21
-28.000015
31
0.0
0
LINE
8
0
6
CONTINUOUS
10
55.533760
20
-28.000015
30
0.0
11
55.533770
21
-18.627775
31
0.0
0
LINE
8
0
6
CONTINUOUS
10
15.748070
20
-17.737955
30
0.0
11
17.258060
21
-24.002845
31
0.0
0
LINE
8
0
6
CONTINUOUS
10
6.781580
20
-4.976595
30
0.0
11
12.590710
21
-11.485885
31
0.0
0
LINE
8
0
6
CONTINUOUS
10
12.590710
20
-11.485885
30
0.0
11
15.748070
21
-17.737955
31
0.0
0
LINE
8
0
6
CONTINUOUS
10
55.533770
20
1.978745
30
0.0
11
55.533770
21
22.774735
31
0.0
0
LINE
8
0
6
CONTINUOUS
10
-1.847430
20
0.341805
30
0.0
11
6.781580
21
-4.976595
31
0.0
0
LINE
8
0
6
CONTINUOUS
10
-11.119860
20
2.752615
30
0.0
11
-1.847430
21
0.341805
31
0.0
0
LINE
8
0
6
CONTINUOUS
10
54.709430
20
23.499985
30
0.0
11
31.259140
21
23.499985
31
0.0
0
LINE
8
0
6
CONTINUOUS
10
8.664050
20
23.499985
30
0.0
11
-6.927900
21
23.499985
31
0.0
0
LINE
8
0
6
CONTINUOUS
10
31.259140
20
23.499985
30
0.0
11
8.664050
21
23.499985
31
0.0
0
LINE
8
0
6
CONTINUOUS
10
55.533770
20
-18.627775
30
0.0
11
55.533770
21
1.978745
31
0.0
0
LINE
8
0
6
CONTINUOUS
10
55.533770
20
22.774735
30
0.0
11
55.533770
21
23.499985
31
0.0
0
LINE
8
0
6
CONTINUOUS
10
55.533770
20
23.499985
30
0.0
11
54.709430
21
23.499985
31
0.0
0
LINE
8
0
6
CONTINUOUS
10
17.533760
20
-67.342475
30
0.0
11
17.533760
21
-74.500015
31
0.0
0
LINE
8
0
6
CONTINUOUS
10
17.533760
20
-28.000015
30
0.0
11
17.533760
21
-33.005695
31
0.0
0
LINE
8
0
6
CONTINUOUS
10
55.533770
20
-74.500015
30
0.0
11
55.533770
21
-67.342475
31
0.0
0
LINE
8
0
6
CONTINUOUS
10
55.533760
20
-34.139925
30
0.0
11
55.533760
21
-28.000015
31
0.0
0
LINE
8
0
6
CONTINUOUS
10
17.533760
20
-53.218875
30
0.0
11
17.533760
21
-59.971335
31
0.0
0
LINE
8
0
6
CONTINUOUS
10
17.533760
20
-39.758165
30
0.0
11
17.533760
21
-53.218875
31
0.0
0
LINE
8
0
6
CONTINUOUS
10
55.533770
20
-60.693125
30
0.0
11
55.533770
21
-54.043765
31
0.0
0
LINE
8
0
6
CONTINUOUS
10
55.533770
20
-54.043765
30
0.0
11
55.533770
21
-40.789285
31
0.0
0
LINE
8
0
6
CONTINUOUS
10
17.533760
20
-33.005695
30
0.0
11
17.533760
21
-39.758165
31
0.0
0
LINE
8
0
6
CONTINUOUS
10
55.533770
20
-40.789285
30
0.0
11
55.533760
21
-34.139925
31
0.0
0
LINE
8
0
6
CONTINUOUS
10
17.533760
20
-59.971335
30
0.0
11
17.533760
21
-67.342475
31
0.0
0
LINE
8
0
6
CONTINUOUS
10
55.533770
20
-67.342475
30
0.0
11
55.533770
21
-60.693125
31
0.0
0
LINE
8
0
6
CONTINUOUS
10
-12.504180
20
2.926155
30
0.0
11
-11.119860
21
2.752615
31
0.0
0
LINE
8
0
6
CONTINUOUS
10
-6.927900
20
23.499985
30
0.0
11
-12.490660
21
23.482525
31
0.0
0
LINE
8
0
6
CONTINUOUS
10
-43.529750
20
33.219845
30
0.0
11
-47.968550
21
33.307855
31
0.0
0
LINE
8
0
6
CONTINUOUS
10
-17.657450
20
3.253675
30
0.0
11
-12.504180
21
2.926155
31
0.0
0
LINE
8
0
6
CONTINUOUS
10
-22.808720
20
3.595875
30
0.0
11
-17.657450
21
3.253675
31
0.0
0
LINE
8
0
6
CONTINUOUS
10
-27.959990
20
3.937985
30
0.0
11
-22.808720
21
3.595875
31
0.0
0
LINE
8
0
6
CONTINUOUS
10
-33.111270
20
4.279965
30
0.0
11
-27.959990
21
3.937985
31
0.0
0
LINE
8
0
6
CONTINUOUS
10
-38.262550
20
4.622065
30
0.0
11
-33.111270
21
4.279965
31
0.0
0
LINE
8
0
6
CONTINUOUS
10
-43.413830
20
4.964325
30
0.0
11
-38.262550
21
4.622065
31
0.0
0
LINE
8
0
6
CONTINUOUS
10
-12.490660
20
23.482525
30
0.0
11
-17.669650
21
23.877675
31
0.0
0
LINE
8
0
6
CONTINUOUS
10
-17.652580
20
23.481305
30
0.0
11
-22.897460
21
23.582585
31
0.0
0
LINE
8
0
6
CONTINUOUS
10
-12.490660
20
23.482525
30
0.0
11
-17.652580
21
23.481305
31
0.0
0
LINE
8
0
6
CONTINUOUS
10
-12.490660
20
23.482525
30
0.0
11
-17.796780
21
24.102775
31
0.0
0
LINE
8
0
6
CONTINUOUS
10
-17.796780
20
24.102775
30
0.0
11
-23.190070
21
25.807175
31
0.0
0
LINE
8
0
6
CONTINUOUS
10
-23.190070
20
25.807175
30
0.0
11
-28.385510
21
28.123015
31
0.0
0
LINE
8
0
6
CONTINUOUS
10
-28.385510
20
28.123015
30
0.0
11
-33.454660
21
30.451265
31
0.0
0
LINE
8
0
6
CONTINUOUS
10
-33.454660
20
30.451265
30
0.0
11
-38.565900
21
32.297725
31
0.0
0
LINE
8
0
6
CONTINUOUS
10
-38.565900
20
32.297725
30
0.0
11
-43.529750
21
33.219845
31
0.0
0
LINE
8
0
6
CONTINUOUS
10
-12.490660
20
23.482525
30
0.0
11
-17.749090
21
24.069045
31
0.0
0
LINE
8
0
6
CONTINUOUS
10
-12.490660
20
23.482525
30
0.0
11
-17.696290
21
23.992335
31
0.0
0
LINE
8
0
6
CONTINUOUS
10
-12.490660
20
23.482525
30
0.0
11
-17.661010
21
23.691945
31
0.0
0
LINE
8
0
6
CONTINUOUS
10
-47.975610
20
5.236915
30
0.0
11
-43.413830
21
4.964325
31
0.0
0
LINE
8
0
6
CONTINUOUS
10
-48.443100
20
17.029545
30
0.0
11
-48.443100
21
14.433255
31
0.0
0
LINE
8
0
6
CONTINUOUS
10
-48.443100
20
6.833025
30
0.0
11
-48.443100
21
6.017015
31
0.0
0
LINE
8
0
6
CONTINUOUS
10
-48.443100
20
14.433255
30
0.0
11
-48.443100
21
12.035755
31
0.0
0
LINE
8
0
6
CONTINUOUS
10
-48.443100
20
5.740535
30
0.0
11
-48.306180
21
5.396135
31
0.0
0
LINE
8
0
6
CONTINUOUS
10
-48.443100
20
6.017015
30
0.0
11
-48.443100
21
5.740535
31
0.0
0
LINE
8
0
6
CONTINUOUS
10
-48.306180
20
5.396135
30
0.0
11
-47.975610
21
5.236915
31
0.0
0
LINE
8
0
6
CONTINUOUS
10
-48.443100
20
19.698955
30
0.0
11
-48.443100
21
17.029545
31
0.0
0
LINE
8
0
6
CONTINUOUS
10
-48.443100
20
12.035755
30
0.0
11
-48.443100
21
9.909465
31
0.0
0
LINE
8
0
6
CONTINUOUS
10
-48.443100
20
9.909465
30
0.0
11
-48.443100
21
8.149845
31
0.0
0
LINE
8
0
6
CONTINUOUS
10
-48.443100
20
8.149845
30
0.0
11
-48.443100
21
6.833025
31
0.0
0
LINE
8
0
6
CONTINUOUS
10
-48.443100
20
22.362355
30
0.0
11
-48.443100
21
19.698955
31
0.0
0
LINE
8
0
6
CONTINUOUS
10
-48.443100
20
27.200055
30
0.0
11
-48.443100
21
24.388835
31
0.0
0
LINE
8
0
6
CONTINUOUS
10
-48.443100
20
24.388835
30
0.0
11
-48.443100
21
23.388405
31
0.0
0
LINE
8
0
6
CONTINUOUS
10
-48.443100
20
23.388405
30
0.0
11
-48.443100
21
22.362355
31
0.0
0
LINE
8
0
6
CONTINUOUS
10
-47.968550
20
33.307855
30
0.0
11
-48.304120
21
33.174605
31
0.0
0
LINE
8
0
6
CONTINUOUS
10
-48.443100
20
32.839445
30
0.0
11
-48.443100
21
32.381885
31
0.0
0
LINE
8
0
6
CONTINUOUS
10
-48.304120
20
33.174605
30
0.0
11
-48.443100
21
32.839445
31
0.0
0
LINE
8
0
6
CONTINUOUS
10
-48.443100
20
31.405565
30
0.0
11
-48.443100
21
29.586275
31
0.0
0
LINE
8
0
6
CONTINUOUS
10
-48.443100
20
32.381885
30
0.0
11
-48.443100
21
31.405565
31
0.0
0
LINE
8
0
6
CONTINUOUS
10
-48.443100
20
29.586275
30
0.0
11
-48.443100
21
27.200055
31
0.0
0
ENDSEC
0
EOF
