999
Erzeugt mit innoplus bad 
0
SECTION
2
HEADER
9
$ACADVER
1
AC1009
9
$DWGCODEPAGE
3
ISO8859-1
0
ENDSEC
0
SECTION
2
TABLES
0
TABLE
2
LAYER
70
1
0
LAYER
2
0
70
0
62
7
6
CONTINUOUS
0
ENDTAB
0
ENDSEC
0
SECTION
2
ENTITIES
0
LINE
8
0
6
CONTINUOUS
10
27.924870
20
-167.500025
30
0.0
11
29.272080
21
-167.500025
31
0.0
0
LINE
8
0
6
CONTINUOUS
10
-30.081320
20
-161.057905
30
0.0
11
-30.235200
21
-166.934515
31
0.0
0
LINE
8
0
6
CONTINUOUS
10
30.081270
20
-161.057905
30
0.0
11
30.079420
21
-160.986945
31
0.0
0
LINE
8
0
6
CONTINUOUS
10
-30.235200
20
-166.934515
30
0.0
11
-30.236580
21
-166.986945
31
0.0
0
LINE
8
0
6
CONTINUOUS
10
-20.250020
20
-167.500025
30
0.0
11
-0.000190
21
-167.500025
31
0.0
0
LINE
8
0
6
CONTINUOUS
10
-23.181830
20
-167.500025
30
0.0
11
-20.250020
21
-167.500025
31
0.0
0
LINE
8
0
6
CONTINUOUS
10
30.174030
20
-167.242425
30
0.0
11
30.236530
21
-166.986945
31
0.0
0
LINE
8
0
6
CONTINUOUS
10
-29.736750
20
-167.500025
30
0.0
11
-29.272450
21
-167.500025
31
0.0
0
LINE
8
0
6
CONTINUOUS
10
-29.990520
20
-167.430835
30
0.0
11
-29.736750
21
-167.500025
31
0.0
0
LINE
8
0
6
CONTINUOUS
10
-30.079470
20
-160.986945
30
0.0
11
-30.081320
21
-161.057905
31
0.0
0
LINE
8
0
6
CONTINUOUS
10
-29.272450
20
-167.500025
30
0.0
11
-27.925370
21
-167.500025
31
0.0
0
LINE
8
0
6
CONTINUOUS
10
-0.000060
20
-160.500025
30
0.0
11
-20.250110
21
-160.500025
31
0.0
0
LINE
8
0
6
CONTINUOUS
10
-20.250110
20
-160.500025
30
0.0
11
-23.133370
21
-160.500025
31
0.0
0
LINE
8
0
6
CONTINUOUS
10
-0.000190
20
-167.500025
30
0.0
11
20.249640
21
-167.500025
31
0.0
0
LINE
8
0
6
CONTINUOUS
10
20.249980
20
-160.500025
30
0.0
11
-0.000060
21
-160.500025
31
0.0
0
LINE
8
0
6
CONTINUOUS
10
25.826230
20
-167.500025
30
0.0
11
27.924870
21
-167.500025
31
0.0
0
LINE
8
0
6
CONTINUOUS
10
-27.797830
20
-160.500025
30
0.0
11
-29.122970
21
-160.500025
31
0.0
0
LINE
8
0
6
CONTINUOUS
10
-25.734080
20
-160.500025
30
0.0
11
-27.797830
21
-160.500025
31
0.0
0
LINE
8
0
6
CONTINUOUS
10
-29.825840
20
-160.564855
30
0.0
11
-30.008220
21
-160.742505
31
0.0
0
LINE
8
0
6
CONTINUOUS
10
-23.133370
20
-160.500025
30
0.0
11
-25.734080
21
-160.500025
31
0.0
0
LINE
8
0
6
CONTINUOUS
10
27.797830
20
-160.500025
30
0.0
11
25.733850
21
-160.500025
31
0.0
0
LINE
8
0
6
CONTINUOUS
10
25.733850
20
-160.500025
30
0.0
11
23.133070
21
-160.500025
31
0.0
0
LINE
8
0
6
CONTINUOUS
10
29.579610
20
-160.500025
30
0.0
11
29.122980
21
-160.500025
31
0.0
0
LINE
8
0
6
CONTINUOUS
10
29.825830
20
-160.564845
30
0.0
11
29.579610
21
-160.500025
31
0.0
0
LINE
8
0
6
CONTINUOUS
10
29.990460
20
-167.430835
30
0.0
11
30.174030
21
-167.242425
31
0.0
0
LINE
8
0
6
CONTINUOUS
10
23.181800
20
-167.500025
30
0.0
11
25.826230
21
-167.500025
31
0.0
0
LINE
8
0
6
CONTINUOUS
10
-25.826250
20
-167.500025
30
0.0
11
-23.181830
21
-167.500025
31
0.0
0
LINE
8
0
6
CONTINUOUS
10
-27.925370
20
-167.500025
30
0.0
11
-25.826250
21
-167.500025
31
0.0
0
LINE
8
0
6
CONTINUOUS
10
-30.174110
20
-167.242425
30
0.0
11
-29.990520
21
-167.430835
31
0.0
0
LINE
8
0
6
CONTINUOUS
10
23.133070
20
-160.500025
30
0.0
11
20.249980
21
-160.500025
31
0.0
0
LINE
8
0
6
CONTINUOUS
10
29.272080
20
-167.500025
30
0.0
11
29.736720
21
-167.500025
31
0.0
0
LINE
8
0
6
CONTINUOUS
10
29.736720
20
-167.500025
30
0.0
11
29.990460
21
-167.430835
31
0.0
0
LINE
8
0
6
CONTINUOUS
10
-29.579680
20
-160.500025
30
0.0
11
-29.825840
21
-160.564855
31
0.0
0
LINE
8
0
6
CONTINUOUS
10
-29.122970
20
-160.500025
30
0.0
11
-29.579680
21
-160.500025
31
0.0
0
LINE
8
0
6
CONTINUOUS
10
30.008210
20
-160.742505
30
0.0
11
29.825830
21
-160.564845
31
0.0
0
LINE
8
0
6
CONTINUOUS
10
20.249640
20
-167.500025
30
0.0
11
23.181800
21
-167.500025
31
0.0
0
LINE
8
0
6
CONTINUOUS
10
-30.236580
20
-166.986945
30
0.0
11
-30.174110
21
-167.242425
31
0.0
0
LINE
8
0
6
CONTINUOUS
10
-30.008220
20
-160.742505
30
0.0
11
-30.079470
21
-160.986945
31
0.0
0
LINE
8
0
6
CONTINUOUS
10
30.079420
20
-160.986945
30
0.0
11
30.008210
21
-160.742505
31
0.0
0
LINE
8
0
6
CONTINUOUS
10
29.122980
20
-160.500025
30
0.0
11
27.797830
21
-160.500025
31
0.0
0
LINE
8
0
6
CONTINUOUS
10
-7.948460
20
109.499995
30
0.0
11
-7.739474
21
112.473395
31
0.0
0
LINE
8
0
6
CONTINUOUS
10
-13.767020
20
109.499995
30
0.0
11
-13.405047
21
112.473395
31
0.0
0
LINE
8
0
6
CONTINUOUS
10
-15.478788
20
112.473395
30
0.0
11
-15.896760
21
109.499995
31
0.0
0
LINE
8
0
6
CONTINUOUS
10
-15.371500
20
139.745595
30
0.0
11
-11.168090
21
135.196155
31
0.0
0
LINE
8
0
6
CONTINUOUS
10
-11.168090
20
135.196155
30
0.0
11
-5.871500
21
132.275225
31
0.0
0
LINE
8
0
6
CONTINUOUS
10
-11.168090
20
141.791495
30
0.0
11
-5.871500
21
139.228385
31
0.0
0
LINE
8
0
6
CONTINUOUS
10
-5.871500
20
132.275225
30
0.0
11
-0.000170
21
131.268735
31
0.0
0
LINE
8
0
6
CONTINUOUS
10
-15.371510
20
163.136275
30
0.0
11
-15.371500
21
151.505735
31
0.0
0
LINE
8
0
6
CONTINUOUS
10
-11.168100
20
148.831505
30
0.0
11
-11.168110
21
161.674885
31
0.0
0
LINE
8
0
6
CONTINUOUS
10
-5.871500
20
147.067145
30
0.0
11
-0.000170
21
146.448195
31
0.0
0
LINE
8
0
6
CONTINUOUS
10
-18.070250
20
154.801675
30
0.0
11
-18.070260
21
164.974325
31
0.0
0
LINE
8
0
6
CONTINUOUS
10
-15.371500
20
139.745595
30
0.0
11
-18.070240
21
145.478255
31
0.0
0
LINE
8
0
6
CONTINUOUS
10
-18.995290
20
150.964545
30
0.0
11
-19.000170
21
145.478255
31
0.0
0
LINE
8
0
6
CONTINUOUS
10
-19.000170
20
145.478255
30
0.0
11
-19.000170
21
113.519615
31
0.0
0
LINE
8
0
6
CONTINUOUS
10
-19.000160
20
152.145125
30
0.0
11
-19.000160
21
150.790405
31
0.0
0
LINE
8
0
6
CONTINUOUS
10
-19.000160
20
152.329485
30
0.0
11
-19.000160
21
152.145125
31
0.0
0
LINE
8
0
6
CONTINUOUS
10
-19.000160
20
150.790405
30
0.0
11
-19.000170
21
145.478255
31
0.0
0
LINE
8
0
6
CONTINUOUS
10
-11.168090
20
112.473395
30
0.0
11
-5.871500
21
112.473395
31
0.0
0
LINE
8
0
6
CONTINUOUS
10
-18.070240
20
112.473395
30
0.0
11
-15.371490
21
112.473395
31
0.0
0
LINE
8
0
6
CONTINUOUS
10
-5.871500
20
112.473395
30
0.0
11
-0.000170
21
112.473395
31
0.0
0
LINE
8
0
6
CONTINUOUS
10
-19.000170
20
154.787445
30
0.0
11
-19.000160
21
152.329485
31
0.0
0
LINE
8
0
6
CONTINUOUS
10
-19.000170
20
113.519615
30
0.0
11
-19.000170
21
112.473395
31
0.0
0
LINE
8
0
6
CONTINUOUS
10
-19.000170
20
112.473395
30
0.0
11
-18.070240
21
112.473395
31
0.0
0
LINE
8
0
6
CONTINUOUS
10
-15.371490
20
112.473395
30
0.0
11
-11.168090
21
112.473395
31
0.0
0
LINE
8
0
6
CONTINUOUS
10
-19.000170
20
155.439205
30
0.0
11
-19.000170
21
154.787445
31
0.0
0
LINE
8
0
6
CONTINUOUS
10
-19.000170
20
156.449585
30
0.0
11
-19.000170
21
155.439205
31
0.0
0
LINE
8
0
6
CONTINUOUS
10
-19.000170
20
157.459945
30
0.0
11
-19.000170
21
156.449585
31
0.0
0
LINE
8
0
6
CONTINUOUS
10
-19.000170
20
158.470325
30
0.0
11
-19.000170
21
157.459945
31
0.0
0
LINE
8
0
6
CONTINUOUS
10
-15.371510
20
163.444365
30
0.0
11
-18.070260
21
165.245895
31
0.0
0
LINE
8
0
6
CONTINUOUS
10
-11.168110
20
162.003705
30
0.0
11
-15.371510
21
163.444365
31
0.0
0
LINE
8
0
6
CONTINUOUS
10
-5.871510
20
161.056805
30
0.0
11
-11.168110
21
162.003705
31
0.0
0
LINE
8
0
6
CONTINUOUS
10
-0.000180
20
160.723305
30
0.0
11
-5.871510
21
161.056805
31
0.0
0
LINE
8
0
6
CONTINUOUS
10
-0.000180
20
167.500025
30
0.0
11
-17.121880
21
167.500025
31
0.0
0
LINE
8
0
6
CONTINUOUS
10
-19.000190
20
167.288825
30
0.0
11
-19.000170
21
158.470325
31
0.0
0
LINE
8
0
6
CONTINUOUS
10
-18.880660
20
167.492815
30
0.0
11
-19.000190
21
167.288825
31
0.0
0
LINE
8
0
6
CONTINUOUS
10
-18.880660
20
167.492815
30
0.0
11
-18.538650
21
166.444745
31
0.0
0
LINE
8
0
6
CONTINUOUS
10
-17.121880
20
167.500025
30
0.0
11
-18.880660
21
167.492815
31
0.0
0
LINE
8
0
6
CONTINUOUS
10
-18.070260
20
164.974325
30
0.0
11
-18.070260
21
165.245895
31
0.0
0
LINE
8
0
6
CONTINUOUS
10
-18.538650
20
166.444745
30
0.0
11
-18.070260
21
165.245895
31
0.0
0
LINE
8
0
6
CONTINUOUS
10
-0.000170
20
112.473395
30
0.0
11
-0.000170
21
109.499995
31
0.0
0
LINE
8
0
6
CONTINUOUS
10
7.739134
20
112.473395
30
0.0
11
7.948120
21
109.499995
31
0.0
0
LINE
8
0
6
CONTINUOUS
10
15.896420
20
109.499995
30
0.0
11
15.478448
21
112.473395
31
0.0
0
LINE
8
0
6
CONTINUOUS
10
13.404699
20
112.473395
30
0.0
11
13.766680
21
109.499995
31
0.0
0
LINE
8
0
6
CONTINUOUS
10
11.167750
20
135.196155
30
0.0
11
15.371150
21
139.745595
31
0.0
0
LINE
8
0
6
CONTINUOUS
10
5.871150
20
132.275225
30
0.0
11
11.167750
21
135.196155
31
0.0
0
LINE
8
0
6
CONTINUOUS
10
5.871150
20
139.228385
30
0.0
11
11.167750
21
141.791495
31
0.0
0
LINE
8
0
6
CONTINUOUS
10
-0.000170
20
131.268735
30
0.0
11
5.871150
21
132.275225
31
0.0
0
LINE
8
0
6
CONTINUOUS
10
11.167750
20
161.674885
30
0.0
11
11.167750
21
148.831505
31
0.0
0
LINE
8
0
6
CONTINUOUS
10
15.371150
20
151.505735
30
0.0
11
15.371150
21
163.136275
31
0.0
0
LINE
8
0
6
CONTINUOUS
10
-0.000170
20
146.448195
30
0.0
11
5.871150
21
147.067145
31
0.0
0
LINE
8
0
6
CONTINUOUS
10
18.069900
20
164.974325
30
0.0
11
18.069900
21
154.801675
31
0.0
0
LINE
8
0
6
CONTINUOUS
10
18.069900
20
145.478255
30
0.0
11
15.371150
21
139.745595
31
0.0
0
LINE
8
0
6
CONTINUOUS
10
18.999830
20
145.478255
30
0.0
11
18.994950
21
150.964545
31
0.0
0
LINE
8
0
6
CONTINUOUS
10
18.999830
20
113.519615
30
0.0
11
18.999830
21
145.478255
31
0.0
0
LINE
8
0
6
CONTINUOUS
10
18.999830
20
152.145125
30
0.0
11
18.999830
21
152.329485
31
0.0
0
LINE
8
0
6
CONTINUOUS
10
18.999830
20
150.790405
30
0.0
11
18.999830
21
152.145125
31
0.0
0
LINE
8
0
6
CONTINUOUS
10
18.999830
20
145.478255
30
0.0
11
18.999830
21
150.790405
31
0.0
0
LINE
8
0
6
CONTINUOUS
10
5.871150
20
112.473395
30
0.0
11
11.167750
21
112.473395
31
0.0
0
LINE
8
0
6
CONTINUOUS
10
15.371150
20
112.473395
30
0.0
11
18.069900
21
112.473395
31
0.0
0
LINE
8
0
6
CONTINUOUS
10
-0.000170
20
112.473395
30
0.0
11
5.871150
21
112.473395
31
0.0
0
LINE
8
0
6
CONTINUOUS
10
18.999830
20
152.329485
30
0.0
11
18.999830
21
154.787445
31
0.0
0
LINE
8
0
6
CONTINUOUS
10
18.069900
20
112.473395
30
0.0
11
18.999830
21
112.473395
31
0.0
0
LINE
8
0
6
CONTINUOUS
10
18.999830
20
112.473395
30
0.0
11
18.999830
21
113.519615
31
0.0
0
LINE
8
0
6
CONTINUOUS
10
11.167750
20
112.473395
30
0.0
11
15.371150
21
112.473395
31
0.0
0
LINE
8
0
6
CONTINUOUS
10
18.999830
20
154.787445
30
0.0
11
18.999830
21
155.439205
31
0.0
0
LINE
8
0
6
CONTINUOUS
10
18.999830
20
155.439205
30
0.0
11
18.999830
21
156.449585
31
0.0
0
LINE
8
0
6
CONTINUOUS
10
18.999830
20
156.449585
30
0.0
11
18.999830
21
157.459945
31
0.0
0
LINE
8
0
6
CONTINUOUS
10
18.999830
20
157.459945
30
0.0
11
18.999830
21
158.470325
31
0.0
0
LINE
8
0
6
CONTINUOUS
10
18.069900
20
165.245895
30
0.0
11
15.371150
21
163.444365
31
0.0
0
LINE
8
0
6
CONTINUOUS
10
15.371150
20
163.444365
30
0.0
11
11.167750
21
162.003705
31
0.0
0
LINE
8
0
6
CONTINUOUS
10
11.167750
20
162.003705
30
0.0
11
5.871150
21
161.056805
31
0.0
0
LINE
8
0
6
CONTINUOUS
10
5.871150
20
161.056805
30
0.0
11
-0.000180
21
160.723305
31
0.0
0
LINE
8
0
6
CONTINUOUS
10
17.121520
20
167.500025
30
0.0
11
-0.000180
21
167.500025
31
0.0
0
LINE
8
0
6
CONTINUOUS
10
18.999830
20
158.470325
30
0.0
11
18.999820
21
167.288825
31
0.0
0
LINE
8
0
6
CONTINUOUS
10
18.999820
20
167.288825
30
0.0
11
18.880300
21
167.492815
31
0.0
0
LINE
8
0
6
CONTINUOUS
10
18.880300
20
167.492815
30
0.0
11
17.121520
21
167.500025
31
0.0
0
LINE
8
0
6
CONTINUOUS
10
18.538290
20
166.444745
30
0.0
11
18.880300
21
167.492815
31
0.0
0
LINE
8
0
6
CONTINUOUS
10
18.069900
20
165.245895
30
0.0
11
18.069900
21
164.974325
31
0.0
0
LINE
8
0
6
CONTINUOUS
10
18.069900
20
165.245895
30
0.0
11
18.538290
21
166.444745
31
0.0
0
LINE
8
0
6
CONTINUOUS
10
-19.000000
20
44.499995
30
0.0
11
-19.000000
21
-160.500025
31
0.0
0
LINE
8
0
6
CONTINUOUS
10
-18.999990
20
87.978755
30
0.0
11
-18.999990
21
67.372235
31
0.0
0
LINE
8
0
6
CONTINUOUS
10
-18.999990
20
67.372235
30
0.0
11
-19.000000
21
43.599095
31
0.0
0
LINE
8
0
6
CONTINUOUS
10
-8.402360
20
82.582445
30
0.0
11
-5.516700
21
81.712285
31
0.0
0
LINE
8
0
6
CONTINUOUS
10
-11.873770
20
85.868405
30
0.0
11
-11.188040
21
84.665645
31
0.0
0
LINE
8
0
6
CONTINUOUS
10
-11.188040
20
84.665645
30
0.0
11
-10.056370
21
83.523465
31
0.0
0
LINE
8
0
6
CONTINUOUS
10
-10.056370
20
83.523465
30
0.0
11
-8.402360
21
82.582445
31
0.0
0
LINE
8
0
6
CONTINUOUS
10
-12.970490
20
89.695595
30
0.0
11
-12.821390
21
88.464745
31
0.0
0
LINE
8
0
6
CONTINUOUS
10
-12.382250
20
87.242835
30
0.0
11
-11.873770
21
85.868405
31
0.0
0
LINE
8
0
6
CONTINUOUS
10
-12.821390
20
88.464745
30
0.0
11
-12.382250
21
87.242835
31
0.0
0
LINE
8
0
6
CONTINUOUS
10
-13.751360
20
109.495475
30
0.0
11
-14.392290
21
109.465355
31
0.0
0
LINE
8
0
6
CONTINUOUS
10
-13.083250
20
90.784725
30
0.0
11
-13.063180
21
90.590885
31
0.0
0
LINE
8
0
6
CONTINUOUS
10
-18.822660
20
109.499995
30
0.0
11
-18.993970
21
109.499995
31
0.0
0
LINE
8
0
6
CONTINUOUS
10
-16.953870
20
109.499995
30
0.0
11
-17.848900
21
109.499995
31
0.0
0
LINE
8
0
6
CONTINUOUS
10
-17.848900
20
109.499995
30
0.0
11
-18.822660
21
109.499995
31
0.0
0
LINE
8
0
6
CONTINUOUS
10
0.000000
20
109.499995
30
0.0
11
-16.433360
21
109.499995
31
0.0
0
LINE
8
0
6
CONTINUOUS
10
-0.000040
20
109.495475
30
0.0
11
-13.329170
21
109.495475
31
0.0
0
LINE
8
0
6
CONTINUOUS
10
-13.281540
20
106.728235
30
0.0
11
-13.264890
21
103.210205
31
0.0
0
LINE
8
0
6
CONTINUOUS
10
-13.264890
20
103.210205
30
0.0
11
-13.201150
21
98.541435
31
0.0
0
LINE
8
0
6
CONTINUOUS
10
-16.433360
20
109.499995
30
0.0
11
-16.953870
21
109.499995
31
0.0
0
LINE
8
0
6
CONTINUOUS
10
-13.201150
20
98.541435
30
0.0
11
-13.083250
21
90.784725
31
0.0
0
LINE
8
0
6
CONTINUOUS
10
-13.329170
20
109.495475
30
0.0
11
-13.751360
21
109.495475
31
0.0
0
LINE
8
0
6
CONTINUOUS
10
-13.063180
20
90.590885
30
0.0
11
-12.970490
21
89.695595
31
0.0
0
LINE
8
0
6
CONTINUOUS
10
-18.999990
20
109.499995
30
0.0
11
-18.999990
21
109.253985
31
0.0
0
LINE
8
0
6
CONTINUOUS
10
-18.999990
20
109.253985
30
0.0
11
-18.999990
21
106.957845
31
0.0
0
LINE
8
0
6
CONTINUOUS
10
-18.999990
20
99.676725
30
0.0
11
-18.999990
21
87.978755
31
0.0
0
LINE
8
0
6
CONTINUOUS
10
-18.999990
20
106.957845
30
0.0
11
-18.999990
21
99.676725
31
0.0
0
LINE
8
0
6
CONTINUOUS
10
19.000000
20
-160.500025
30
0.0
11
19.000000
21
44.499995
31
0.0
0
LINE
8
0
6
CONTINUOUS
10
18.999990
20
67.372235
30
0.0
11
18.999990
21
87.978755
31
0.0
0
LINE
8
0
6
CONTINUOUS
10
19.000000
20
43.599095
30
0.0
11
18.999990
21
67.372235
31
0.0
0
LINE
8
0
6
CONTINUOUS
10
5.516620
20
81.712285
30
0.0
11
8.402290
21
82.582445
31
0.0
0
LINE
8
0
6
CONTINUOUS
10
11.187960
20
84.665645
30
0.0
11
11.873690
21
85.868405
31
0.0
0
LINE
8
0
6
CONTINUOUS
10
10.056290
20
83.523465
30
0.0
11
11.187960
21
84.665645
31
0.0
0
LINE
8
0
6
CONTINUOUS
10
8.402290
20
82.582445
30
0.0
11
10.056290
21
83.523465
31
0.0
0
LINE
8
0
6
CONTINUOUS
10
12.821310
20
88.464745
30
0.0
11
12.970420
21
89.695595
31
0.0
0
LINE
8
0
6
CONTINUOUS
10
12.382170
20
87.242835
30
0.0
11
12.821310
21
88.464745
31
0.0
0
LINE
8
0
6
CONTINUOUS
10
11.873690
20
85.868405
30
0.0
11
12.382170
21
87.242835
31
0.0
0
LINE
8
0
6
CONTINUOUS
10
14.392220
20
109.465355
30
0.0
11
13.751280
21
109.495475
31
0.0
0
LINE
8
0
6
CONTINUOUS
10
13.063110
20
90.590885
30
0.0
11
13.083170
21
90.784725
31
0.0
0
LINE
8
0
6
CONTINUOUS
10
18.993970
20
109.499995
30
0.0
11
18.822660
21
109.499995
31
0.0
0
LINE
8
0
6
CONTINUOUS
10
17.848900
20
109.499995
30
0.0
11
16.953870
21
109.499995
31
0.0
0
LINE
8
0
6
CONTINUOUS
10
18.822660
20
109.499995
30
0.0
11
17.848900
21
109.499995
31
0.0
0
LINE
8
0
6
CONTINUOUS
10
16.433360
20
109.499995
30
0.0
11
0.000000
21
109.499995
31
0.0
0
LINE
8
0
6
CONTINUOUS
10
13.329100
20
109.495475
30
0.0
11
-0.000040
21
109.495475
31
0.0
0
LINE
8
0
6
CONTINUOUS
10
13.264820
20
103.210205
30
0.0
11
13.281460
21
106.728235
31
0.0
0
LINE
8
0
6
CONTINUOUS
10
13.201070
20
98.541435
30
0.0
11
13.264820
21
103.210205
31
0.0
0
LINE
8
0
6
CONTINUOUS
10
16.953870
20
109.499995
30
0.0
11
16.433360
21
109.499995
31
0.0
0
LINE
8
0
6
CONTINUOUS
10
13.083170
20
90.784725
30
0.0
11
13.201070
21
98.541435
31
0.0
0
LINE
8
0
6
CONTINUOUS
10
13.751280
20
109.495475
30
0.0
11
13.329100
21
109.495475
31
0.0
0
LINE
8
0
6
CONTINUOUS
10
12.970420
20
89.695595
30
0.0
11
13.063110
21
90.590885
31
0.0
0
LINE
8
0
6
CONTINUOUS
10
18.999990
20
109.253985
30
0.0
11
18.999990
21
109.499995
31
0.0
0
LINE
8
0
6
CONTINUOUS
10
18.999990
20
106.957845
30
0.0
11
18.999990
21
109.253985
31
0.0
0
LINE
8
0
6
CONTINUOUS
10
18.999990
20
87.978755
30
0.0
11
18.999990
21
99.676725
31
0.0
0
LINE
8
0
6
CONTINUOUS
10
18.999990
20
99.676725
30
0.0
11
18.999990
21
106.957845
31
0.0
0
LINE
8
0
6
CONTINUOUS
10
-2.975620
20
81.326415
30
0.0
11
-0.000040
21
81.252425
31
0.0
0
LINE
8
0
6
CONTINUOUS
10
-5.516700
20
81.712285
30
0.0
11
-2.975620
21
81.326415
31
0.0
0
LINE
8
0
6
CONTINUOUS
10
-0.000040
20
81.252425
30
0.0
11
2.975550
21
81.326415
31
0.0
0
LINE
8
0
6
CONTINUOUS
10
2.975550
20
81.326415
30
0.0
11
5.516620
21
81.712285
31
0.0
0
LINE
8
0
6
CONTINUOUS
10
-8.839060
20
84.570455
30
0.0
11
-8.406450
21
85.527635
31
0.0
0
LINE
8
0
6
CONTINUOUS
10
-8.406450
20
85.527635
30
0.0
11
-7.150960
21
86.391115
31
0.0
0
LINE
8
0
6
CONTINUOUS
10
-7.150960
20
86.391115
30
0.0
11
-5.195490
21
87.076345
31
0.0
0
LINE
8
0
6
CONTINUOUS
10
-5.195490
20
87.076345
30
0.0
11
-2.731450
21
87.516315
31
0.0
0
LINE
8
0
6
CONTINUOUS
10
-2.731450
20
87.516315
30
0.0
11
-0.000040
21
87.667925
31
0.0
0
LINE
8
0
6
CONTINUOUS
10
8.406380
20
85.527635
30
0.0
11
8.838990
21
84.570455
31
0.0
0
LINE
8
0
6
CONTINUOUS
10
7.150880
20
86.391115
30
0.0
11
8.406380
21
85.527635
31
0.0
0
LINE
8
0
6
CONTINUOUS
10
5.195410
20
87.076345
30
0.0
11
7.150880
21
86.391115
31
0.0
0
LINE
8
0
6
CONTINUOUS
10
2.731370
20
87.516315
30
0.0
11
5.195410
21
87.076345
31
0.0
0
LINE
8
0
6
CONTINUOUS
10
-0.000040
20
87.667925
30
0.0
11
2.731370
21
87.516315
31
0.0
0
ENDSEC
0
EOF
