999
Erzeugt mit innoplus bad 
0
SECTION
2
HEADER
9
$ACADVER
1
AC1009
9
$DWGCODEPAGE
3
ISO8859-1
0
ENDSEC
0
SECTION
2
TABLES
0
TABLE
2
LAYER
70
1
0
LAYER
2
0
70
0
62
7
6
CONTINUOUS
0
ENDTAB
0
ENDSEC
0
SECTION
2
ENTITIES
0
LINE
8
0
6
CONTINUOUS
10
1.349655
20
59.994685
30
0.0
11
1.349655
21
59.089015
31
0.0
0
LINE
8
0
6
CONTINUOUS
10
2.043195
20
59.994675
30
0.0
11
1.349655
21
59.994685
31
0.0
0
LINE
8
0
6
CONTINUOUS
10
8.349655
20
59.994675
30
0.0
11
7.656135
21
59.994675
31
0.0
0
LINE
8
0
6
CONTINUOUS
10
8.349655
20
59.089015
30
0.0
11
8.349655
21
59.994675
31
0.0
0
LINE
8
0
6
CONTINUOUS
10
7.656135
20
59.994675
30
0.0
11
2.043195
21
59.994675
31
0.0
0
LINE
8
0
6
CONTINUOUS
10
8.349655
20
-59.032795
30
0.0
11
8.349655
21
59.089015
31
0.0
0
LINE
8
0
6
CONTINUOUS
10
1.349655
20
59.089015
30
0.0
11
1.349655
21
-59.032795
31
0.0
0
LINE
8
0
6
CONTINUOUS
10
1.349655
20
-59.938465
30
0.0
11
2.043205
21
-59.938465
31
0.0
0
LINE
8
0
6
CONTINUOUS
10
1.349655
20
-59.032795
30
0.0
11
1.349655
21
-59.938465
31
0.0
0
LINE
8
0
6
CONTINUOUS
10
8.349655
20
-59.938465
30
0.0
11
8.349655
21
-59.032795
31
0.0
0
LINE
8
0
6
CONTINUOUS
10
7.656135
20
-59.938465
30
0.0
11
8.349655
21
-59.938465
31
0.0
0
LINE
8
0
6
CONTINUOUS
10
2.043205
20
-59.938465
30
0.0
11
7.656135
21
-59.938465
31
0.0
0
LINE
8
0
6
CONTINUOUS
10
0.126395
20
126.465375
30
0.0
11
0.133065
21
126.385885
31
0.0
0
LINE
8
0
6
CONTINUOUS
10
0.188685
20
126.117855
30
0.0
11
0.126395
21
126.465375
31
0.0
0
LINE
8
0
6
CONTINUOUS
10
0.133065
20
126.385885
30
0.0
11
0.157865
21
126.088925
31
0.0
0
LINE
8
0
6
CONTINUOUS
10
0.083505
20
125.843575
30
0.0
11
0.094875
21
125.708785
31
0.0
0
LINE
8
0
6
CONTINUOUS
10
0.188685
20
126.117855
30
0.0
11
0.083505
21
125.843575
31
0.0
0
LINE
8
0
6
CONTINUOUS
10
0.200355
20
125.978815
30
0.0
11
0.188685
21
126.117855
31
0.0
0
LINE
8
0
6
CONTINUOUS
10
0.750175
20
115.931105
30
0.0
11
0.810625
21
114.668405
31
0.0
0
LINE
8
0
6
CONTINUOUS
10
0.937545
20
114.584935
30
0.0
11
0.875015
21
115.888035
31
0.0
0
LINE
8
0
6
CONTINUOUS
10
0.369665
20
122.179725
30
0.0
11
0.448975
21
121.042775
31
0.0
0
LINE
8
0
6
CONTINUOUS
10
0.564435
20
121.163305
30
0.0
11
0.482825
21
122.336645
31
0.0
0
LINE
8
0
6
CONTINUOUS
10
1.001765
20
109.460955
30
0.0
11
1.009175
21
109.188735
31
0.0
0
LINE
8
0
6
CONTINUOUS
10
0.529315
20
119.819295
30
0.0
11
0.607865
21
118.538335
31
0.0
0
LINE
8
0
6
CONTINUOUS
10
0.728115
20
118.578725
30
0.0
11
0.647155
21
119.900685
31
0.0
0
LINE
8
0
6
CONTINUOUS
10
0.968435
20
110.584355
30
0.0
11
0.988365
21
109.930075
31
0.0
0
LINE
8
0
6
CONTINUOUS
10
0.682135
20
117.231315
30
0.0
11
0.750175
21
115.931105
31
0.0
0
LINE
8
0
6
CONTINUOUS
10
0.875015
20
115.888035
30
0.0
11
0.804745
21
117.229865
31
0.0
0
LINE
8
0
6
CONTINUOUS
10
0.862715
20
113.474645
30
0.0
11
0.906215
21
112.378345
31
0.0
0
LINE
8
0
6
CONTINUOUS
10
0.988365
20
109.930075
30
0.0
11
1.001765
21
109.460955
31
0.0
0
LINE
8
0
6
CONTINUOUS
10
0.941275
20
111.407245
30
0.0
11
0.968435
21
110.584355
31
0.0
0
LINE
8
0
6
CONTINUOUS
10
0.094875
20
125.708785
30
0.0
11
0.123495
21
125.365485
31
0.0
0
LINE
8
0
6
CONTINUOUS
10
0.229755
20
125.624555
30
0.0
11
0.200355
21
125.978815
31
0.0
0
LINE
8
0
6
CONTINUOUS
10
0.607865
20
118.538335
30
0.0
11
0.682135
21
117.231315
31
0.0
0
LINE
8
0
6
CONTINUOUS
10
0.804745
20
117.229865
30
0.0
11
0.728115
21
118.578725
31
0.0
0
LINE
8
0
6
CONTINUOUS
10
0.123495
20
125.365485
30
0.0
11
0.167935
21
124.822675
31
0.0
0
LINE
8
0
6
CONTINUOUS
10
0.275425
20
125.064365
30
0.0
11
0.229755
21
125.624555
31
0.0
0
LINE
8
0
6
CONTINUOUS
10
0.226845
20
124.082725
30
0.0
11
0.294565
21
123.201435
31
0.0
0
LINE
8
0
6
CONTINUOUS
10
0.405595
20
123.391045
30
0.0
11
0.335955
21
124.300855
31
0.0
0
LINE
8
0
6
CONTINUOUS
10
0.294565
20
123.201435
30
0.0
11
0.369665
21
122.179725
31
0.0
0
LINE
8
0
6
CONTINUOUS
10
0.482825
20
122.336645
30
0.0
11
0.405595
21
123.391045
31
0.0
0
LINE
8
0
6
CONTINUOUS
10
0.167935
20
124.822675
30
0.0
11
0.226845
21
124.082725
31
0.0
0
LINE
8
0
6
CONTINUOUS
10
0.335955
20
124.300855
30
0.0
11
0.275425
21
125.064365
31
0.0
0
LINE
8
0
6
CONTINUOUS
10
1.011015
20
109.120245
30
0.0
11
1.145875
21
108.859285
31
0.0
0
LINE
8
0
6
CONTINUOUS
10
1.009175
20
109.188735
30
0.0
11
1.011015
21
109.120245
31
0.0
0
LINE
8
0
6
CONTINUOUS
10
0.906215
20
112.378345
30
0.0
11
0.941275
21
111.407245
31
0.0
0
LINE
8
0
6
CONTINUOUS
10
0.448975
20
121.042775
30
0.0
11
0.529315
21
119.819295
31
0.0
0
LINE
8
0
6
CONTINUOUS
10
0.647155
20
119.900685
30
0.0
11
0.564435
21
121.163305
31
0.0
0
LINE
8
0
6
CONTINUOUS
10
0.810625
20
114.668405
30
0.0
11
0.862715
21
113.474645
31
0.0
0
LINE
8
0
6
CONTINUOUS
10
0.854865
20
110.829165
30
0.0
11
0.891305
21
110.175565
31
0.0
0
LINE
8
0
6
CONTINUOUS
10
0.914025
20
109.772115
30
0.0
11
0.922225
21
109.632455
31
0.0
0
LINE
8
0
6
CONTINUOUS
10
0.053915
20
125.403805
30
0.0
11
0.060485
21
125.274995
31
0.0
0
LINE
8
0
6
CONTINUOUS
10
0.290575
20
121.059595
30
0.0
11
0.364975
21
119.704865
31
0.0
0
LINE
8
0
6
CONTINUOUS
10
0.505655
20
119.811355
30
0.0
11
0.427915
21
121.226995
31
0.0
0
LINE
8
0
6
CONTINUOUS
10
0.060485
20
125.274995
30
0.0
11
0.081635
21
124.881985
31
0.0
0
LINE
8
0
6
CONTINUOUS
10
0.081635
20
124.881985
30
0.0
11
0.116605
21
124.238175
31
0.0
0
LINE
8
0
6
CONTINUOUS
10
0.364975
20
119.704865
30
0.0
11
0.443625
21
118.274675
31
0.0
0
LINE
8
0
6
CONTINUOUS
10
0.587835
20
118.316845
30
0.0
11
0.505655
21
119.811355
31
0.0
0
LINE
8
0
6
CONTINUOUS
10
0.805915
20
111.710495
30
0.0
11
0.854865
21
110.829165
31
0.0
0
LINE
8
0
6
CONTINUOUS
10
0.891305
20
110.175565
30
0.0
11
0.914025
21
109.772115
31
0.0
0
LINE
8
0
6
CONTINUOUS
10
0.677605
20
114.029875
30
0.0
11
0.746175
21
112.789565
31
0.0
0
LINE
8
0
6
CONTINUOUS
10
0.832345
20
113.881155
30
0.0
11
0.903985
21
112.585065
31
0.0
0
LINE
8
0
6
CONTINUOUS
10
0.116605
20
124.238175
30
0.0
11
0.164225
21
123.365755
31
0.0
0
LINE
8
0
6
CONTINUOUS
10
0.746175
20
112.789565
30
0.0
11
0.805915
21
111.710495
31
0.0
0
LINE
8
0
6
CONTINUOUS
10
0.523615
20
116.821665
30
0.0
11
0.602655
21
115.387705
31
0.0
0
LINE
8
0
6
CONTINUOUS
10
0.671435
20
116.798495
30
0.0
11
0.754025
21
115.300055
31
0.0
0
LINE
8
0
6
CONTINUOUS
10
0.602655
20
115.387705
30
0.0
11
0.677605
21
114.029875
31
0.0
0
LINE
8
0
6
CONTINUOUS
10
0.832345
20
113.881155
30
0.0
11
0.754025
21
115.300055
31
0.0
0
LINE
8
0
6
CONTINUOUS
10
0.222885
20
122.294045
30
0.0
11
0.290575
21
121.059595
31
0.0
0
LINE
8
0
6
CONTINUOUS
10
0.164225
20
123.365755
30
0.0
11
0.222885
21
122.294045
31
0.0
0
LINE
8
0
6
CONTINUOUS
10
0.671435
20
116.798495
30
0.0
11
0.587835
21
118.316845
31
0.0
0
LINE
8
0
6
CONTINUOUS
10
0.443625
20
118.274675
30
0.0
11
0.523615
21
116.821665
31
0.0
0
LINE
8
0
6
CONTINUOUS
10
8.349655
20
60.500005
30
0.0
11
8.349655
21
61.787695
31
0.0
0
LINE
8
0
6
CONTINUOUS
10
7.718975
20
60.500005
30
0.0
11
8.349655
21
60.500005
31
0.0
0
LINE
8
0
6
CONTINUOUS
10
-0.653475
20
135.496225
30
0.0
11
-0.597075
21
134.926275
31
0.0
0
LINE
8
0
6
CONTINUOUS
10
0.051395
20
135.496225
30
0.0
11
-0.653475
21
135.496225
31
0.0
0
LINE
8
0
6
CONTINUOUS
10
-0.597075
20
134.926275
30
0.0
11
-0.431485
21
133.253125
31
0.0
0
LINE
8
0
6
CONTINUOUS
10
-0.164995
20
130.585915
30
0.0
11
0.153535
21
127.095675
31
0.0
0
LINE
8
0
6
CONTINUOUS
10
0.153535
20
127.095675
30
0.0
11
0.488755
21
123.004235
31
0.0
0
LINE
8
0
6
CONTINUOUS
10
0.488755
20
123.004235
30
0.0
11
0.812745
21
118.571695
31
0.0
0
LINE
8
0
6
CONTINUOUS
10
0.812745
20
118.571695
30
0.0
11
0.971855
21
114.056005
31
0.0
0
LINE
8
0
6
CONTINUOUS
10
8.349655
20
100.500005
30
0.0
11
8.249825
21
105.066575
31
0.0
0
LINE
8
0
6
CONTINUOUS
10
3.328135
20
132.924035
30
0.0
11
2.578625
21
135.149905
31
0.0
0
LINE
8
0
6
CONTINUOUS
10
5.300355
20
127.162845
30
0.0
11
4.134495
21
130.571625
31
0.0
0
LINE
8
0
6
CONTINUOUS
10
4.134495
20
130.571625
30
0.0
11
3.226995
21
133.225445
31
0.0
0
LINE
8
0
6
CONTINUOUS
10
3.226995
20
133.225445
30
0.0
11
2.640205
21
134.915235
31
0.0
0
LINE
8
0
6
CONTINUOUS
10
2.461895
20
135.496225
30
0.0
11
1.831215
21
135.496225
31
0.0
0
LINE
8
0
6
CONTINUOUS
10
2.054525
20
60.500005
30
0.0
11
7.718975
21
60.500005
31
0.0
0
LINE
8
0
6
CONTINUOUS
10
1.349655
20
60.500005
30
0.0
11
2.054525
21
60.500005
31
0.0
0
LINE
8
0
6
CONTINUOUS
10
1.349655
20
61.787695
30
0.0
11
1.349655
21
60.500005
31
0.0
0
LINE
8
0
6
CONTINUOUS
10
1.092595
20
109.536385
30
0.0
11
1.221125
21
105.018195
31
0.0
0
LINE
8
0
6
CONTINUOUS
10
1.221125
20
105.018195
30
0.0
11
1.349655
21
100.500005
31
0.0
0
LINE
8
0
6
CONTINUOUS
10
1.831215
20
135.496225
30
0.0
11
0.051395
21
135.496225
31
0.0
0
LINE
8
0
6
CONTINUOUS
10
0.971855
20
114.056005
30
0.0
11
1.092595
21
109.536385
31
0.0
0
LINE
8
0
6
CONTINUOUS
10
2.461895
20
135.496225
30
0.0
11
2.640205
21
134.915235
31
0.0
0
LINE
8
0
6
CONTINUOUS
10
2.578625
20
135.149915
30
0.0
11
2.461895
21
135.496225
31
0.0
0
LINE
8
0
6
CONTINUOUS
10
2.753805
20
134.578255
30
0.0
11
2.578625
21
135.149915
31
0.0
0
LINE
8
0
6
CONTINUOUS
10
-0.164995
20
130.585915
30
0.0
11
-0.431485
21
133.253125
31
0.0
0
LINE
8
0
6
CONTINUOUS
10
5.300355
20
127.162845
30
0.0
11
6.513185
21
123.106645
31
0.0
0
LINE
8
0
6
CONTINUOUS
10
6.513185
20
123.106645
30
0.0
11
7.580275
21
118.728815
31
0.0
0
LINE
8
0
6
CONTINUOUS
10
7.580275
20
118.728815
30
0.0
11
8.014945
21
114.203555
31
0.0
0
LINE
8
0
6
CONTINUOUS
10
8.165315
20
109.633875
30
0.0
11
8.249825
21
105.066575
31
0.0
0
LINE
8
0
6
CONTINUOUS
10
8.014945
20
114.203555
30
0.0
11
8.165315
21
109.633875
31
0.0
0
LINE
8
0
6
CONTINUOUS
10
1.349655
20
100.500005
30
0.0
11
1.349655
21
61.787695
31
0.0
0
LINE
8
0
6
CONTINUOUS
10
8.349655
20
61.787695
30
0.0
11
8.349655
21
100.500005
31
0.0
0
LINE
8
0
6
CONTINUOUS
10
0.126395
20
-126.465385
30
0.0
11
0.188685
21
-126.117875
31
0.0
0
LINE
8
0
6
CONTINUOUS
10
0.133065
20
-126.385895
30
0.0
11
0.126395
21
-126.465385
31
0.0
0
LINE
8
0
6
CONTINUOUS
10
0.157865
20
-126.088935
30
0.0
11
0.133065
21
-126.385895
31
0.0
0
LINE
8
0
6
CONTINUOUS
10
0.188685
20
-126.117875
30
0.0
11
0.200355
21
-125.978825
31
0.0
0
LINE
8
0
6
CONTINUOUS
10
0.083505
20
-125.843575
30
0.0
11
0.188685
21
-126.117875
31
0.0
0
LINE
8
0
6
CONTINUOUS
10
0.094875
20
-125.708805
30
0.0
11
0.083505
21
-125.843575
31
0.0
0
LINE
8
0
6
CONTINUOUS
10
0.875015
20
-115.888035
30
0.0
11
0.937545
21
-114.584935
31
0.0
0
LINE
8
0
6
CONTINUOUS
10
0.810625
20
-114.668415
30
0.0
11
0.750175
21
-115.931125
31
0.0
0
LINE
8
0
6
CONTINUOUS
10
0.482825
20
-122.336645
30
0.0
11
0.564435
21
-121.163325
31
0.0
0
LINE
8
0
6
CONTINUOUS
10
0.448975
20
-121.042775
30
0.0
11
0.369665
21
-122.179725
31
0.0
0
LINE
8
0
6
CONTINUOUS
10
1.009175
20
-109.188735
30
0.0
11
1.001765
21
-109.460955
31
0.0
0
LINE
8
0
6
CONTINUOUS
10
0.647155
20
-119.900695
30
0.0
11
0.728115
21
-118.578735
31
0.0
0
LINE
8
0
6
CONTINUOUS
10
0.607865
20
-118.538355
30
0.0
11
0.529315
21
-119.819305
31
0.0
0
LINE
8
0
6
CONTINUOUS
10
0.988365
20
-109.930085
30
0.0
11
0.968435
21
-110.584365
31
0.0
0
LINE
8
0
6
CONTINUOUS
10
0.804745
20
-117.229875
30
0.0
11
0.875015
21
-115.888035
31
0.0
0
LINE
8
0
6
CONTINUOUS
10
0.750175
20
-115.931125
30
0.0
11
0.682135
21
-117.231325
31
0.0
0
LINE
8
0
6
CONTINUOUS
10
0.906215
20
-112.378365
30
0.0
11
0.862715
21
-113.474645
31
0.0
0
LINE
8
0
6
CONTINUOUS
10
1.001765
20
-109.460955
30
0.0
11
0.988365
21
-109.930085
31
0.0
0
LINE
8
0
6
CONTINUOUS
10
0.968435
20
-110.584365
30
0.0
11
0.941275
21
-111.407255
31
0.0
0
LINE
8
0
6
CONTINUOUS
10
0.200355
20
-125.978825
30
0.0
11
0.229755
21
-125.624555
31
0.0
0
LINE
8
0
6
CONTINUOUS
10
0.123495
20
-125.365495
30
0.0
11
0.094875
21
-125.708805
31
0.0
0
LINE
8
0
6
CONTINUOUS
10
0.728115
20
-118.578735
30
0.0
11
0.804745
21
-117.229875
31
0.0
0
LINE
8
0
6
CONTINUOUS
10
0.682135
20
-117.231325
30
0.0
11
0.607865
21
-118.538355
31
0.0
0
LINE
8
0
6
CONTINUOUS
10
0.229755
20
-125.624555
30
0.0
11
0.275425
21
-125.064365
31
0.0
0
LINE
8
0
6
CONTINUOUS
10
0.167935
20
-124.822685
30
0.0
11
0.123495
21
-125.365495
31
0.0
0
LINE
8
0
6
CONTINUOUS
10
0.335955
20
-124.300855
30
0.0
11
0.405595
21
-123.391045
31
0.0
0
LINE
8
0
6
CONTINUOUS
10
0.294565
20
-123.201435
30
0.0
11
0.226845
21
-124.082725
31
0.0
0
LINE
8
0
6
CONTINUOUS
10
0.405595
20
-123.391045
30
0.0
11
0.482825
21
-122.336645
31
0.0
0
LINE
8
0
6
CONTINUOUS
10
0.369665
20
-122.179725
30
0.0
11
0.294565
21
-123.201435
31
0.0
0
LINE
8
0
6
CONTINUOUS
10
0.275425
20
-125.064365
30
0.0
11
0.335955
21
-124.300855
31
0.0
0
LINE
8
0
6
CONTINUOUS
10
0.226845
20
-124.082725
30
0.0
11
0.167935
21
-124.822685
31
0.0
0
LINE
8
0
6
CONTINUOUS
10
1.011015
20
-109.120245
30
0.0
11
1.009175
21
-109.188735
31
0.0
0
LINE
8
0
6
CONTINUOUS
10
1.145875
20
-108.859305
30
0.0
11
1.011015
21
-109.120245
31
0.0
0
LINE
8
0
6
CONTINUOUS
10
0.941275
20
-111.407255
30
0.0
11
0.906215
21
-112.378365
31
0.0
0
LINE
8
0
6
CONTINUOUS
10
0.564435
20
-121.163325
30
0.0
11
0.647155
21
-119.900695
31
0.0
0
LINE
8
0
6
CONTINUOUS
10
0.529315
20
-119.819305
30
0.0
11
0.448975
21
-121.042775
31
0.0
0
LINE
8
0
6
CONTINUOUS
10
0.862715
20
-113.474645
30
0.0
11
0.810625
21
-114.668415
31
0.0
0
LINE
8
0
6
CONTINUOUS
10
0.891305
20
-110.175565
30
0.0
11
0.854865
21
-110.829175
31
0.0
0
LINE
8
0
6
CONTINUOUS
10
0.922225
20
-109.632465
30
0.0
11
0.914025
21
-109.772125
31
0.0
0
LINE
8
0
6
CONTINUOUS
10
0.060485
20
-125.274995
30
0.0
11
0.053915
21
-125.403815
31
0.0
0
LINE
8
0
6
CONTINUOUS
10
0.427915
20
-121.227005
30
0.0
11
0.505655
21
-119.811355
31
0.0
0
LINE
8
0
6
CONTINUOUS
10
0.364975
20
-119.704865
30
0.0
11
0.290575
21
-121.059605
31
0.0
0
LINE
8
0
6
CONTINUOUS
10
0.081635
20
-124.881985
30
0.0
11
0.060485
21
-125.274995
31
0.0
0
LINE
8
0
6
CONTINUOUS
10
0.116605
20
-124.238175
30
0.0
11
0.081635
21
-124.881985
31
0.0
0
LINE
8
0
6
CONTINUOUS
10
0.505655
20
-119.811355
30
0.0
11
0.587835
21
-118.316855
31
0.0
0
LINE
8
0
6
CONTINUOUS
10
0.443625
20
-118.274685
30
0.0
11
0.364975
21
-119.704865
31
0.0
0
LINE
8
0
6
CONTINUOUS
10
0.854865
20
-110.829175
30
0.0
11
0.805915
21
-111.710505
31
0.0
0
LINE
8
0
6
CONTINUOUS
10
0.914025
20
-109.772125
30
0.0
11
0.891305
21
-110.175565
31
0.0
0
LINE
8
0
6
CONTINUOUS
10
0.746175
20
-112.789565
30
0.0
11
0.677605
21
-114.029875
31
0.0
0
LINE
8
0
6
CONTINUOUS
10
0.903985
20
-112.585075
30
0.0
11
0.832345
21
-113.881165
31
0.0
0
LINE
8
0
6
CONTINUOUS
10
0.164225
20
-123.365755
30
0.0
11
0.116605
21
-124.238175
31
0.0
0
LINE
8
0
6
CONTINUOUS
10
0.805915
20
-111.710505
30
0.0
11
0.746175
21
-112.789565
31
0.0
0
LINE
8
0
6
CONTINUOUS
10
0.602655
20
-115.387715
30
0.0
11
0.523615
21
-116.821685
31
0.0
0
LINE
8
0
6
CONTINUOUS
10
0.754025
20
-115.300055
30
0.0
11
0.671435
21
-116.798505
31
0.0
0
LINE
8
0
6
CONTINUOUS
10
0.754025
20
-115.300055
30
0.0
11
0.832345
21
-113.881165
31
0.0
0
LINE
8
0
6
CONTINUOUS
10
0.677605
20
-114.029875
30
0.0
11
0.602655
21
-115.387715
31
0.0
0
LINE
8
0
6
CONTINUOUS
10
0.290575
20
-121.059605
30
0.0
11
0.222885
21
-122.294055
31
0.0
0
LINE
8
0
6
CONTINUOUS
10
0.222885
20
-122.294055
30
0.0
11
0.164225
21
-123.365755
31
0.0
0
LINE
8
0
6
CONTINUOUS
10
0.523615
20
-116.821685
30
0.0
11
0.443625
21
-118.274685
31
0.0
0
LINE
8
0
6
CONTINUOUS
10
0.587835
20
-118.316855
30
0.0
11
0.671435
21
-116.798505
31
0.0
0
LINE
8
0
6
CONTINUOUS
10
8.349655
20
-60.500015
30
0.0
11
7.718975
21
-60.500015
31
0.0
0
LINE
8
0
6
CONTINUOUS
10
8.349655
20
-61.535275
30
0.0
11
8.349655
21
-60.500015
31
0.0
0
LINE
8
0
6
CONTINUOUS
10
-0.653475
20
-135.496225
30
0.0
11
0.051395
21
-135.496225
31
0.0
0
LINE
8
0
6
CONTINUOUS
10
-0.597075
20
-134.926295
30
0.0
11
-0.653475
21
-135.496225
31
0.0
0
LINE
8
0
6
CONTINUOUS
10
-0.431485
20
-133.253125
30
0.0
11
-0.597075
21
-134.926295
31
0.0
0
LINE
8
0
6
CONTINUOUS
10
0.153535
20
-127.095695
30
0.0
11
-0.164995
21
-130.585925
31
0.0
0
LINE
8
0
6
CONTINUOUS
10
0.488755
20
-123.004235
30
0.0
11
0.153535
21
-127.095695
31
0.0
0
LINE
8
0
6
CONTINUOUS
10
0.812745
20
-118.571715
30
0.0
11
0.488755
21
-123.004235
31
0.0
0
LINE
8
0
6
CONTINUOUS
10
0.971855
20
-114.056005
30
0.0
11
0.812745
21
-118.571715
31
0.0
0
LINE
8
0
6
CONTINUOUS
10
8.249825
20
-105.066575
30
0.0
11
8.349655
21
-100.500005
31
0.0
0
LINE
8
0
6
CONTINUOUS
10
2.578625
20
-135.149905
30
0.0
11
3.328135
21
-132.924055
31
0.0
0
LINE
8
0
6
CONTINUOUS
10
4.134495
20
-130.571625
30
0.0
11
5.300355
21
-127.162845
31
0.0
0
LINE
8
0
6
CONTINUOUS
10
3.226995
20
-133.225455
30
0.0
11
4.134495
21
-130.571625
31
0.0
0
LINE
8
0
6
CONTINUOUS
10
2.640205
20
-134.915245
30
0.0
11
3.226995
21
-133.225455
31
0.0
0
LINE
8
0
6
CONTINUOUS
10
1.831215
20
-135.496225
30
0.0
11
2.461895
21
-135.496225
31
0.0
0
LINE
8
0
6
CONTINUOUS
10
7.718975
20
-60.500015
30
0.0
11
2.054525
21
-60.500015
31
0.0
0
LINE
8
0
6
CONTINUOUS
10
1.349655
20
-60.500025
30
0.0
11
1.349655
21
-61.535275
31
0.0
0
LINE
8
0
6
CONTINUOUS
10
2.054525
20
-60.500015
30
0.0
11
1.349655
21
-60.500025
31
0.0
0
LINE
8
0
6
CONTINUOUS
10
1.221125
20
-105.018205
30
0.0
11
1.092595
21
-109.536395
31
0.0
0
LINE
8
0
6
CONTINUOUS
10
1.349655
20
-100.500005
30
0.0
11
1.221125
21
-105.018205
31
0.0
0
LINE
8
0
6
CONTINUOUS
10
0.051395
20
-135.496225
30
0.0
11
1.831215
21
-135.496225
31
0.0
0
LINE
8
0
6
CONTINUOUS
10
1.092595
20
-109.536395
30
0.0
11
0.971855
21
-114.056005
31
0.0
0
LINE
8
0
6
CONTINUOUS
10
2.578625
20
-135.149925
30
0.0
11
2.753805
21
-134.578255
31
0.0
0
LINE
8
0
6
CONTINUOUS
10
2.461895
20
-135.496225
30
0.0
11
2.578625
21
-135.149925
31
0.0
0
LINE
8
0
6
CONTINUOUS
10
2.640205
20
-134.915245
30
0.0
11
2.461895
21
-135.496225
31
0.0
0
LINE
8
0
6
CONTINUOUS
10
-0.431485
20
-133.253125
30
0.0
11
-0.164995
21
-130.585925
31
0.0
0
LINE
8
0
6
CONTINUOUS
10
6.513185
20
-123.106665
30
0.0
11
5.300355
21
-127.162845
31
0.0
0
LINE
8
0
6
CONTINUOUS
10
7.580275
20
-118.728825
30
0.0
11
6.513185
21
-123.106665
31
0.0
0
LINE
8
0
6
CONTINUOUS
10
8.014945
20
-114.203555
30
0.0
11
7.580275
21
-118.728825
31
0.0
0
LINE
8
0
6
CONTINUOUS
10
8.249825
20
-105.066575
30
0.0
11
8.165315
21
-109.633875
31
0.0
0
LINE
8
0
6
CONTINUOUS
10
8.165315
20
-109.633875
30
0.0
11
8.014945
21
-114.203555
31
0.0
0
LINE
8
0
6
CONTINUOUS
10
1.349655
20
-61.535275
30
0.0
11
1.349655
21
-100.500005
31
0.0
0
LINE
8
0
6
CONTINUOUS
10
8.349655
20
-100.500005
30
0.0
11
8.349655
21
-61.535275
31
0.0
0
LINE
8
0
6
CONTINUOUS
10
-11.350355
20
-30.647095
30
0.0
11
-10.352965
21
-30.647095
31
0.0
0
LINE
8
0
6
CONTINUOUS
10
0.547045
20
-30.647095
30
0.0
11
1.349655
21
-30.647095
31
0.0
0
LINE
8
0
6
CONTINUOUS
10
1.349655
20
30.646595
30
0.0
11
0.547035
21
30.646595
31
0.0
0
LINE
8
0
6
CONTINUOUS
10
-10.352965
20
30.646595
30
0.0
11
-11.350345
21
30.646595
31
0.0
0
LINE
8
0
6
CONTINUOUS
10
-11.350345
20
12.139665
30
0.0
11
-11.350355
21
17.775345
31
0.0
0
LINE
8
0
6
CONTINUOUS
10
-11.350355
20
-31.872705
30
0.0
11
-11.350345
21
-30.082385
31
0.0
0
LINE
8
0
6
CONTINUOUS
10
-11.350355
20
17.775345
30
0.0
11
-11.350345
21
22.727885
31
0.0
0
LINE
8
0
6
CONTINUOUS
10
-11.350345
20
-6.618545
30
0.0
11
-11.350345
21
-0.295895
31
0.0
0
LINE
8
0
6
CONTINUOUS
10
-11.350355
20
-23.146965
30
0.0
11
-11.350355
21
-18.267745
31
0.0
0
LINE
8
0
6
CONTINUOUS
10
-11.350345
20
-0.295895
30
0.0
11
-11.350345
21
6.037655
31
0.0
0
LINE
8
0
6
CONTINUOUS
10
-11.350355
20
-27.135745
30
0.0
11
-11.350355
21
-23.146965
31
0.0
0
LINE
8
0
6
CONTINUOUS
10
-11.350345
20
26.806525
30
0.0
11
-11.350345
21
29.855225
31
0.0
0
LINE
8
0
6
CONTINUOUS
10
-11.350345
20
29.855225
30
0.0
11
-11.350345
21
31.756675
31
0.0
0
LINE
8
0
6
CONTINUOUS
10
-11.350355
20
-32.438225
30
0.0
11
-11.350355
21
-31.872705
31
0.0
0
LINE
8
0
6
CONTINUOUS
10
-11.759085
20
-32.432715
30
0.0
11
-11.350355
21
-32.438225
31
0.0
0
LINE
8
0
6
CONTINUOUS
10
-11.350345
20
22.727885
30
0.0
11
-11.350345
21
26.806525
31
0.0
0
LINE
8
0
6
CONTINUOUS
10
-11.350345
20
32.437705
30
0.0
11
-11.759085
21
32.432195
31
0.0
0
LINE
8
0
6
CONTINUOUS
10
-11.350345
20
31.756675
30
0.0
11
-11.350345
21
32.437705
31
0.0
0
LINE
8
0
6
CONTINUOUS
10
-11.350355
20
-18.267745
30
0.0
11
-11.350355
21
-12.686885
31
0.0
0
LINE
8
0
6
CONTINUOUS
10
-11.350345
20
6.037655
30
0.0
11
-11.350345
21
12.139665
31
0.0
0
LINE
8
0
6
CONTINUOUS
10
-11.350355
20
-12.686885
30
0.0
11
-11.350345
21
-6.618545
31
0.0
0
LINE
8
0
6
CONTINUOUS
10
-11.350355
20
-27.135745
30
0.0
11
-11.350345
21
-30.082385
31
0.0
0
LINE
8
0
6
CONTINUOUS
10
-33.349665
20
-6.558045
30
0.0
11
-33.349665
21
-12.570935
31
0.0
0
LINE
8
0
6
CONTINUOUS
10
-33.349665
20
12.028715
30
0.0
11
-33.349665
21
5.982465
31
0.0
0
LINE
8
0
6
CONTINUOUS
10
-33.349665
20
-26.887715
30
0.0
11
-33.349655
21
-29.807425
31
0.0
0
LINE
8
0
6
CONTINUOUS
10
-33.349665
20
-12.570935
30
0.0
11
-33.349665
21
-18.100785
31
0.0
0
LINE
8
0
6
CONTINUOUS
10
-32.637295
20
32.150815
30
0.0
11
-33.349665
21
32.141215
31
0.0
0
LINE
8
0
6
CONTINUOUS
10
-33.349665
20
32.141215
30
0.0
11
-33.349665
21
31.466405
31
0.0
0
LINE
8
0
6
CONTINUOUS
10
-33.349665
20
26.561505
30
0.0
11
-33.349665
21
22.520145
31
0.0
0
LINE
8
0
6
CONTINUOUS
10
-33.349655
20
-31.581375
30
0.0
11
-33.349665
21
-32.141735
31
0.0
0
LINE
8
0
6
CONTINUOUS
10
-33.349665
20
-32.141735
30
0.0
11
-32.637305
21
-32.151325
31
0.0
0
LINE
8
0
6
CONTINUOUS
10
-33.349665
20
31.466405
30
0.0
11
-33.349665
21
29.582335
31
0.0
0
LINE
8
0
6
CONTINUOUS
10
-33.349665
20
29.582335
30
0.0
11
-33.349665
21
26.561505
31
0.0
0
LINE
8
0
6
CONTINUOUS
10
-33.349665
20
-22.935395
30
0.0
11
-33.349665
21
-26.887715
31
0.0
0
LINE
8
0
6
CONTINUOUS
10
-33.349665
20
5.982465
30
0.0
11
-33.349665
21
-0.293195
31
0.0
0
LINE
8
0
6
CONTINUOUS
10
-33.349665
20
-18.100785
30
0.0
11
-33.349665
21
-22.935395
31
0.0
0
LINE
8
0
6
CONTINUOUS
10
-33.349665
20
-0.293195
30
0.0
11
-33.349665
21
-6.558045
31
0.0
0
LINE
8
0
6
CONTINUOUS
10
-33.349665
20
22.520145
30
0.0
11
-33.349665
21
17.612875
31
0.0
0
LINE
8
0
6
CONTINUOUS
10
-33.349655
20
-29.807425
30
0.0
11
-33.349655
21
-31.581375
31
0.0
0
LINE
8
0
6
CONTINUOUS
10
-33.349665
20
17.612875
30
0.0
11
-33.349665
21
12.028715
31
0.0
0
LINE
8
0
6
CONTINUOUS
10
-11.759085
20
32.432195
30
0.0
11
-32.637295
21
32.150815
31
0.0
0
LINE
8
0
6
CONTINUOUS
10
-32.637305
20
-32.151325
30
0.0
11
-11.759085
21
-32.432715
31
0.0
0
LINE
8
0
6
CONTINUOUS
10
-4.902965
20
32.498095
30
0.0
11
-9.994295
21
32.498095
31
0.0
0
LINE
8
0
6
CONTINUOUS
10
-10.352965
20
2.134415
30
0.0
11
-10.352965
21
-2.134455
31
0.0
0
LINE
8
0
6
CONTINUOUS
10
-9.994305
20
-32.498425
30
0.0
11
-4.902965
21
-32.498425
31
0.0
0
LINE
8
0
6
CONTINUOUS
10
0.547035
20
-2.134465
30
0.0
11
0.547035
21
2.134415
31
0.0
0
LINE
8
0
6
CONTINUOUS
10
-10.352965
20
24.140465
30
0.0
11
-10.352965
21
21.788775
31
0.0
0
LINE
8
0
6
CONTINUOUS
10
-10.352965
20
21.788775
30
0.0
11
-10.352965
21
19.208655
31
0.0
0
LINE
8
0
6
CONTINUOUS
10
-10.352965
20
4.766285
30
0.0
11
-10.352965
21
3.814415
31
0.0
0
LINE
8
0
6
CONTINUOUS
10
-10.352965
20
3.098095
30
0.0
11
-10.352965
21
2.653375
31
0.0
0
LINE
8
0
6
CONTINUOUS
10
-10.352965
20
10.379175
30
0.0
11
-10.352965
21
7.175985
31
0.0
0
LINE
8
0
6
CONTINUOUS
10
-10.352965
20
-2.653365
30
0.0
11
-10.352965
21
-3.098065
31
0.0
0
LINE
8
0
6
CONTINUOUS
10
-10.352965
20
-4.766275
30
0.0
11
-10.352965
21
-5.905885
31
0.0
0
LINE
8
0
6
CONTINUOUS
10
-10.352965
20
-13.474445
30
0.0
11
-10.352965
21
-16.427445
31
0.0
0
LINE
8
0
6
CONTINUOUS
10
-10.352965
20
-16.427445
30
0.0
11
-10.352965
21
-19.209625
31
0.0
0
LINE
8
0
6
CONTINUOUS
10
-10.352965
20
-19.209625
30
0.0
11
-10.352965
21
-21.789115
31
0.0
0
LINE
8
0
6
CONTINUOUS
10
-10.352965
20
-26.239425
30
0.0
11
-10.352965
21
-28.062965
31
0.0
0
LINE
8
0
6
CONTINUOUS
10
-10.352965
20
30.811175
30
0.0
11
-10.352965
21
29.592385
31
0.0
0
LINE
8
0
6
CONTINUOUS
10
-10.352965
20
29.592385
30
0.0
11
-10.352965
21
28.062325
31
0.0
0
LINE
8
0
6
CONTINUOUS
10
-10.352965
20
28.062325
30
0.0
11
-10.352965
21
26.239515
31
0.0
0
LINE
8
0
6
CONTINUOUS
10
-10.352965
20
-30.811545
30
0.0
11
-10.352965
21
-31.708745
31
0.0
0
LINE
8
0
6
CONTINUOUS
10
-10.352965
20
-29.592715
30
0.0
11
-10.352965
21
-30.811545
31
0.0
0
LINE
8
0
6
CONTINUOUS
10
-10.352965
20
-7.176165
30
0.0
11
-10.352965
21
-10.379885
31
0.0
0
LINE
8
0
6
CONTINUOUS
10
-10.352965
20
-31.708745
30
0.0
11
-10.352965
21
-32.272305
31
0.0
0
LINE
8
0
6
CONTINUOUS
10
-10.352965
20
-32.498425
30
0.0
11
-9.994305
21
-32.498425
31
0.0
0
LINE
8
0
6
CONTINUOUS
10
-10.352965
20
-32.272305
30
0.0
11
-10.352965
21
-32.498425
31
0.0
0
LINE
8
0
6
CONTINUOUS
10
-10.352965
20
26.239515
30
0.0
11
-10.352965
21
24.140465
31
0.0
0
LINE
8
0
6
CONTINUOUS
10
-10.352965
20
32.498095
30
0.0
11
-10.352965
21
32.271605
31
0.0
0
LINE
8
0
6
CONTINUOUS
10
-9.994295
20
32.498095
30
0.0
11
-10.352965
21
32.498095
31
0.0
0
LINE
8
0
6
CONTINUOUS
10
-10.352965
20
32.271605
30
0.0
11
-10.352965
21
31.707655
31
0.0
0
LINE
8
0
6
CONTINUOUS
10
-10.352965
20
31.707655
30
0.0
11
-10.352965
21
30.811175
31
0.0
0
LINE
8
0
6
CONTINUOUS
10
-10.352965
20
19.208655
30
0.0
11
-10.352965
21
16.427485
31
0.0
0
LINE
8
0
6
CONTINUOUS
10
-10.352965
20
13.474405
30
0.0
11
-10.352965
21
10.379175
31
0.0
0
LINE
8
0
6
CONTINUOUS
10
-10.352965
20
16.427485
30
0.0
11
-10.352965
21
13.474405
31
0.0
0
LINE
8
0
6
CONTINUOUS
10
-10.352965
20
7.175985
30
0.0
11
-10.352965
21
5.905885
31
0.0
0
LINE
8
0
6
CONTINUOUS
10
-10.352965
20
2.653375
30
0.0
11
-10.352965
21
2.502545
31
0.0
0
LINE
8
0
6
CONTINUOUS
10
-10.352965
20
3.814415
30
0.0
11
-10.352965
21
3.098095
31
0.0
0
LINE
8
0
6
CONTINUOUS
10
-10.352965
20
5.905885
30
0.0
11
-10.352965
21
4.766285
31
0.0
0
LINE
8
0
6
CONTINUOUS
10
-10.352965
20
-2.502585
30
0.0
11
-10.352965
21
-2.653365
31
0.0
0
LINE
8
0
6
CONTINUOUS
10
-10.352965
20
-3.098065
30
0.0
11
-10.352965
21
-3.814355
31
0.0
0
LINE
8
0
6
CONTINUOUS
10
-10.352965
20
-3.814355
30
0.0
11
-10.352965
21
-4.766275
31
0.0
0
LINE
8
0
6
CONTINUOUS
10
-10.352965
20
-5.905885
30
0.0
11
-10.352965
21
-7.176165
31
0.0
0
LINE
8
0
6
CONTINUOUS
10
-10.352965
20
-10.379885
30
0.0
11
-10.352965
21
-13.474445
31
0.0
0
LINE
8
0
6
CONTINUOUS
10
-10.352965
20
-24.140595
30
0.0
11
-10.352965
21
-26.239425
31
0.0
0
LINE
8
0
6
CONTINUOUS
10
-10.352965
20
-28.062965
30
0.0
11
-10.352965
21
-29.592715
31
0.0
0
LINE
8
0
6
CONTINUOUS
10
-10.352965
20
-21.789115
30
0.0
11
-10.352965
21
-24.140595
31
0.0
0
LINE
8
0
6
CONTINUOUS
10
0.547035
20
21.788775
30
0.0
11
0.547035
21
24.140465
31
0.0
0
LINE
8
0
6
CONTINUOUS
10
0.547035
20
19.208655
30
0.0
11
0.547035
21
21.788775
31
0.0
0
LINE
8
0
6
CONTINUOUS
10
0.547035
20
3.814415
30
0.0
11
0.547035
21
4.766285
31
0.0
0
LINE
8
0
6
CONTINUOUS
10
0.547035
20
2.653375
30
0.0
11
0.547035
21
3.098095
31
0.0
0
LINE
8
0
6
CONTINUOUS
10
0.547035
20
7.175985
30
0.0
11
0.547035
21
10.379175
31
0.0
0
LINE
8
0
6
CONTINUOUS
10
0.547035
20
-3.098065
30
0.0
11
0.547035
21
-2.653365
31
0.0
0
LINE
8
0
6
CONTINUOUS
10
0.547035
20
-5.905885
30
0.0
11
0.547035
21
-4.766275
31
0.0
0
LINE
8
0
6
CONTINUOUS
10
0.547035
20
-16.427445
30
0.0
11
0.547035
21
-13.474445
31
0.0
0
LINE
8
0
6
CONTINUOUS
10
0.547035
20
-19.209625
30
0.0
11
0.547035
21
-16.427445
31
0.0
0
LINE
8
0
6
CONTINUOUS
10
0.547035
20
-21.789115
30
0.0
11
0.547035
21
-19.209625
31
0.0
0
LINE
8
0
6
CONTINUOUS
10
0.547045
20
-28.062965
30
0.0
11
0.547045
21
-26.239425
31
0.0
0
LINE
8
0
6
CONTINUOUS
10
0.547035
20
29.592385
30
0.0
11
0.547035
21
30.811175
31
0.0
0
LINE
8
0
6
CONTINUOUS
10
0.547035
20
28.062325
30
0.0
11
0.547035
21
29.592385
31
0.0
0
LINE
8
0
6
CONTINUOUS
10
0.547035
20
26.239515
30
0.0
11
0.547035
21
28.062325
31
0.0
0
LINE
8
0
6
CONTINUOUS
10
0.547045
20
-30.811545
30
0.0
11
0.547045
21
-29.592715
31
0.0
0
LINE
8
0
6
CONTINUOUS
10
0.547035
20
-10.379885
30
0.0
11
0.547035
21
-7.176165
31
0.0
0
LINE
8
0
6
CONTINUOUS
10
0.547035
20
-32.272305
30
0.0
11
0.547035
21
-31.708745
31
0.0
0
LINE
8
0
6
CONTINUOUS
10
0.547035
20
-32.498425
30
0.0
11
0.547035
21
-32.272305
31
0.0
0
LINE
8
0
6
CONTINUOUS
10
0.188375
20
-32.498425
30
0.0
11
0.547035
21
-32.498425
31
0.0
0
LINE
8
0
6
CONTINUOUS
10
0.547035
20
24.140465
30
0.0
11
0.547035
21
26.239515
31
0.0
0
LINE
8
0
6
CONTINUOUS
10
0.547035
20
32.498095
30
0.0
11
0.188375
21
32.498095
31
0.0
0
LINE
8
0
6
CONTINUOUS
10
0.547035
20
32.271605
30
0.0
11
0.547035
21
32.498095
31
0.0
0
LINE
8
0
6
CONTINUOUS
10
0.547035
20
31.707655
30
0.0
11
0.547035
21
32.271605
31
0.0
0
LINE
8
0
6
CONTINUOUS
10
0.547035
20
30.811175
30
0.0
11
0.547035
21
31.707655
31
0.0
0
LINE
8
0
6
CONTINUOUS
10
0.547035
20
16.427485
30
0.0
11
0.547035
21
19.208655
31
0.0
0
LINE
8
0
6
CONTINUOUS
10
0.547035
20
10.379175
30
0.0
11
0.547035
21
13.474405
31
0.0
0
LINE
8
0
6
CONTINUOUS
10
0.547035
20
13.474405
30
0.0
11
0.547035
21
16.427485
31
0.0
0
LINE
8
0
6
CONTINUOUS
10
0.547035
20
5.905885
30
0.0
11
0.547035
21
7.175985
31
0.0
0
LINE
8
0
6
CONTINUOUS
10
0.547035
20
2.502545
30
0.0
11
0.547035
21
2.653375
31
0.0
0
LINE
8
0
6
CONTINUOUS
10
0.547035
20
3.098095
30
0.0
11
0.547035
21
3.814415
31
0.0
0
LINE
8
0
6
CONTINUOUS
10
0.547035
20
4.766285
30
0.0
11
0.547035
21
5.905885
31
0.0
0
LINE
8
0
6
CONTINUOUS
10
0.547035
20
-2.653365
30
0.0
11
0.547035
21
-2.502585
31
0.0
0
LINE
8
0
6
CONTINUOUS
10
0.547035
20
-3.814355
30
0.0
11
0.547035
21
-3.098065
31
0.0
0
LINE
8
0
6
CONTINUOUS
10
0.547035
20
-4.766275
30
0.0
11
0.547035
21
-3.814355
31
0.0
0
LINE
8
0
6
CONTINUOUS
10
0.547035
20
-7.176165
30
0.0
11
0.547035
21
-5.905885
31
0.0
0
LINE
8
0
6
CONTINUOUS
10
0.547035
20
-13.474445
30
0.0
11
0.547035
21
-10.379885
31
0.0
0
LINE
8
0
6
CONTINUOUS
10
0.547045
20
-26.239425
30
0.0
11
0.547045
21
-24.140595
31
0.0
0
LINE
8
0
6
CONTINUOUS
10
0.547045
20
-29.592715
30
0.0
11
0.547045
21
-28.062965
31
0.0
0
LINE
8
0
6
CONTINUOUS
10
-4.902965
20
-32.498425
30
0.0
11
0.188375
21
-32.498425
31
0.0
0
LINE
8
0
6
CONTINUOUS
10
0.188375
20
32.498095
30
0.0
11
-4.902965
21
32.498095
31
0.0
0
LINE
8
0
6
CONTINUOUS
10
-9.183505
20
2.512795
30
0.0
11
-9.808075
21
2.507345
31
0.0
0
LINE
8
0
6
CONTINUOUS
10
-8.360965
20
2.519985
30
0.0
11
-9.183505
21
2.512795
31
0.0
0
LINE
8
0
6
CONTINUOUS
10
-9.808075
20
2.507345
30
0.0
11
-10.204125
21
2.503875
31
0.0
0
LINE
8
0
6
CONTINUOUS
10
-10.225725
20
-2.503745
30
0.0
11
-9.850505
21
-2.507015
31
0.0
0
LINE
8
0
6
CONTINUOUS
10
-9.850505
20
-2.507015
30
0.0
11
-9.245415
21
-2.512335
31
0.0
0
LINE
8
0
6
CONTINUOUS
10
-8.438425
20
-2.519295
30
0.0
11
-7.470185
21
-2.527785
31
0.0
0
LINE
8
0
6
CONTINUOUS
10
-7.382925
20
2.528545
30
0.0
11
-8.360965
21
2.519985
31
0.0
0
LINE
8
0
6
CONTINUOUS
10
-10.352965
20
2.502505
30
0.0
11
-10.353135
21
2.134375
31
0.0
0
LINE
8
0
6
CONTINUOUS
10
-10.204125
20
2.503875
30
0.0
11
-10.352965
21
2.502505
31
0.0
0
LINE
8
0
6
CONTINUOUS
10
-6.174275
20
2.538945
30
0.0
11
-7.382925
21
2.528545
31
0.0
0
LINE
8
0
6
CONTINUOUS
10
-9.245415
20
-2.512335
30
0.0
11
-8.438425
21
-2.519295
31
0.0
0
LINE
8
0
6
CONTINUOUS
10
-10.352965
20
-2.502615
30
0.0
11
-10.225725
21
-2.503745
31
0.0
0
LINE
8
0
6
CONTINUOUS
10
-7.470185
20
-2.527785
30
0.0
11
-6.221785
21
-2.538515
31
0.0
0
LINE
8
0
6
CONTINUOUS
10
0.002155
20
2.507345
30
0.0
11
-0.622415
21
2.512795
31
0.0
0
LINE
8
0
6
CONTINUOUS
10
-0.622415
20
2.512795
30
0.0
11
-1.444955
21
2.519985
31
0.0
0
LINE
8
0
6
CONTINUOUS
10
0.398195
20
2.503875
30
0.0
11
0.002155
21
2.507345
31
0.0
0
LINE
8
0
6
CONTINUOUS
10
0.044575
20
-2.507015
30
0.0
11
0.419795
21
-2.503745
31
0.0
0
LINE
8
0
6
CONTINUOUS
10
-0.560515
20
-2.512335
30
0.0
11
0.044575
21
-2.507015
31
0.0
0
LINE
8
0
6
CONTINUOUS
10
-2.335735
20
-2.527785
30
0.0
11
-1.367505
21
-2.519295
31
0.0
0
LINE
8
0
6
CONTINUOUS
10
0.547045
20
-30.811545
30
0.0
11
0.547035
21
-31.708745
31
0.0
0
LINE
8
0
6
CONTINUOUS
10
-1.444955
20
2.519985
30
0.0
11
-2.422995
21
2.528545
31
0.0
0
LINE
8
0
6
CONTINUOUS
10
0.547035
20
2.502505
30
0.0
11
0.398195
21
2.503875
31
0.0
0
LINE
8
0
6
CONTINUOUS
10
0.547215
20
2.134375
30
0.0
11
0.547035
21
2.502505
31
0.0
0
LINE
8
0
6
CONTINUOUS
10
-2.422995
20
2.528545
30
0.0
11
-3.631645
21
2.538945
31
0.0
0
LINE
8
0
6
CONTINUOUS
10
-1.367505
20
-2.519295
30
0.0
11
-0.560515
21
-2.512335
31
0.0
0
LINE
8
0
6
CONTINUOUS
10
0.419795
20
-2.503745
30
0.0
11
0.547035
21
-2.502615
31
0.0
0
LINE
8
0
6
CONTINUOUS
10
-3.584145
20
-2.538515
30
0.0
11
-2.335735
21
-2.527785
31
0.0
0
LINE
8
0
6
CONTINUOUS
10
-4.902965
20
-2.547985
30
0.0
11
-3.584145
21
-2.538515
31
0.0
0
LINE
8
0
6
CONTINUOUS
10
0.547035
20
-21.789115
30
0.0
11
0.547045
21
-24.140595
31
0.0
0
LINE
8
0
6
CONTINUOUS
10
-4.902965
20
2.547935
30
0.0
11
-6.174275
21
2.538945
31
0.0
0
LINE
8
0
6
CONTINUOUS
10
-6.221785
20
-2.538515
30
0.0
11
-4.902965
21
-2.547985
31
0.0
0
LINE
8
0
6
CONTINUOUS
10
-3.631645
20
2.538945
30
0.0
11
-4.902965
21
2.547935
31
0.0
0
LINE
8
0
6
CONTINUOUS
10
8.836555
20
-95.733375
30
0.0
11
8.836555
21
-96.858125
31
0.0
0
LINE
8
0
6
CONTINUOUS
10
8.836555
20
-96.858125
30
0.0
11
31.850145
21
-97.460725
31
0.0
0
LINE
8
0
6
CONTINUOUS
10
8.836555
20
-85.499995
30
0.0
11
8.836555
21
-90.428175
31
0.0
0
LINE
8
0
6
CONTINUOUS
10
8.836555
20
-95.733375
30
0.0
11
31.850145
21
-96.276265
31
0.0
0
LINE
8
0
6
CONTINUOUS
10
8.836555
20
-93.480835
30
0.0
11
8.836555
21
-95.733375
31
0.0
0
LINE
8
0
6
CONTINUOUS
10
8.836575
20
95.733285
30
0.0
11
8.836565
21
93.480825
31
0.0
0
LINE
8
0
6
CONTINUOUS
10
8.836565
20
93.480825
30
0.0
11
8.836565
21
90.428165
31
0.0
0
LINE
8
0
6
CONTINUOUS
10
8.836555
20
-90.428175
30
0.0
11
8.836555
21
-93.480835
31
0.0
0
LINE
8
0
6
CONTINUOUS
10
31.850145
20
-90.689855
30
0.0
11
8.836555
21
-90.428175
31
0.0
0
LINE
8
0
6
CONTINUOUS
10
8.836565
20
90.428165
30
0.0
11
8.836565
21
85.499985
31
0.0
0
LINE
8
0
6
CONTINUOUS
10
31.850165
20
90.689625
30
0.0
11
8.836565
21
90.428165
31
0.0
0
LINE
8
0
6
CONTINUOUS
10
8.836565
20
85.499985
30
0.0
11
8.836555
21
-85.499995
31
0.0
0
LINE
8
0
6
CONTINUOUS
10
8.836575
20
96.857995
30
0.0
11
8.836575
21
95.733285
31
0.0
0
LINE
8
0
6
CONTINUOUS
10
31.850165
20
97.460725
30
0.0
11
8.836575
21
96.857995
31
0.0
0
LINE
8
0
6
CONTINUOUS
10
8.836575
20
95.733285
30
0.0
11
31.850165
21
96.276235
31
0.0
0
LINE
8
0
6
CONTINUOUS
10
33.349645
20
-85.499985
30
0.0
11
33.349655
21
85.499775
31
0.0
0
LINE
8
0
6
CONTINUOUS
10
33.349665
20
97.499995
30
0.0
11
31.850165
21
97.460725
31
0.0
0
LINE
8
0
6
CONTINUOUS
10
33.349665
20
96.311605
30
0.0
11
33.349665
21
97.499995
31
0.0
0
LINE
8
0
6
CONTINUOUS
10
33.349645
20
-93.931675
30
0.0
11
33.349645
21
-90.706905
31
0.0
0
LINE
8
0
6
CONTINUOUS
10
31.850145
20
-97.460725
30
0.0
11
33.349645
21
-97.500005
31
0.0
0
LINE
8
0
6
CONTINUOUS
10
33.349645
20
-97.500005
30
0.0
11
33.349645
21
-96.311645
31
0.0
0
LINE
8
0
6
CONTINUOUS
10
33.349645
20
-96.311645
30
0.0
11
33.349645
21
-93.931675
31
0.0
0
LINE
8
0
6
CONTINUOUS
10
31.850145
20
-96.276265
30
0.0
11
33.349645
21
-96.311645
31
0.0
0
LINE
8
0
6
CONTINUOUS
10
33.349655
20
90.706665
30
0.0
11
33.349655
21
93.931665
31
0.0
0
LINE
8
0
6
CONTINUOUS
10
33.349655
20
90.706665
30
0.0
11
31.850165
21
90.689625
31
0.0
0
LINE
8
0
6
CONTINUOUS
10
33.349655
20
85.499775
30
0.0
11
33.349655
21
90.706665
31
0.0
0
LINE
8
0
6
CONTINUOUS
10
33.349645
20
-90.706905
30
0.0
11
33.349645
21
-85.499985
31
0.0
0
LINE
8
0
6
CONTINUOUS
10
31.850145
20
-90.689855
30
0.0
11
33.349645
21
-90.706905
31
0.0
0
LINE
8
0
6
CONTINUOUS
10
33.349665
20
96.311605
30
0.0
11
31.850165
21
96.276235
31
0.0
0
LINE
8
0
6
CONTINUOUS
10
33.349655
20
93.931665
30
0.0
11
33.349665
21
96.311605
31
0.0
0
ENDSEC
0
EOF
