999
Erzeugt mit innoplus bad 
0
SECTION
2
HEADER
9
$ACADVER
1
AC1009
9
$DWGCODEPAGE
3
ISO8859-1
0
ENDSEC
0
SECTION
2
TABLES
0
TABLE
2
LAYER
70
1
0
LAYER
2
0
70
0
62
7
6
CONTINUOUS
0
ENDTAB
0
ENDSEC
0
SECTION
2
ENTITIES
0
LINE
8
0
6
CONTINUOUS
10
-59.994760
20
59.994685
30
0.0
11
-59.994760
21
59.089015
31
0.0
0
LINE
8
0
6
CONTINUOUS
10
-58.507330
20
59.994685
30
0.0
11
-59.994760
21
59.994685
31
0.0
0
LINE
8
0
6
CONTINUOUS
10
58.507240
20
59.994685
30
0.0
11
-58.507330
21
59.994685
31
0.0
0
LINE
8
0
6
CONTINUOUS
10
59.994670
20
59.994685
30
0.0
11
58.507240
21
59.994685
31
0.0
0
LINE
8
0
6
CONTINUOUS
10
59.994670
20
59.089015
30
0.0
11
59.994670
21
59.994685
31
0.0
0
LINE
8
0
6
CONTINUOUS
10
-59.994760
20
59.089015
30
0.0
11
-59.994760
21
-59.032795
31
0.0
0
LINE
8
0
6
CONTINUOUS
10
59.994670
20
-59.032795
30
0.0
11
59.994670
21
59.089015
31
0.0
0
LINE
8
0
6
CONTINUOUS
10
-59.994760
20
-59.938465
30
0.0
11
-58.507330
21
-59.938465
31
0.0
0
LINE
8
0
6
CONTINUOUS
10
-59.994760
20
-59.032795
30
0.0
11
-59.994760
21
-59.938465
31
0.0
0
LINE
8
0
6
CONTINUOUS
10
-58.507330
20
-59.938465
30
0.0
11
58.507240
21
-59.938465
31
0.0
0
LINE
8
0
6
CONTINUOUS
10
59.994670
20
-59.938465
30
0.0
11
59.994670
21
-59.032795
31
0.0
0
LINE
8
0
6
CONTINUOUS
10
58.507240
20
-59.938465
30
0.0
11
59.994670
21
-59.938465
31
0.0
0
LINE
8
0
6
CONTINUOUS
10
-6.215080
20
123.988745
30
0.0
11
-7.155270
21
122.942985
31
0.0
0
LINE
8
0
6
CONTINUOUS
10
8.477090
20
114.464355
30
0.0
11
8.846460
21
115.820325
31
0.0
0
LINE
8
0
6
CONTINUOUS
10
-2.588600
20
126.088925
30
0.0
11
-3.902830
21
125.581325
31
0.0
0
LINE
8
0
6
CONTINUOUS
10
8.149200
20
121.310695
30
0.0
11
7.451940
21
122.531555
31
0.0
0
LINE
8
0
6
CONTINUOUS
10
-7.155270
20
122.942985
30
0.0
11
-7.920290
21
121.763755
31
0.0
0
LINE
8
0
6
CONTINUOUS
10
8.647170
20
119.996595
30
0.0
11
8.149200
21
121.310695
31
0.0
0
LINE
8
0
6
CONTINUOUS
10
-8.635090
20
114.945375
30
0.0
11
-8.130690
21
113.631045
31
0.0
0
LINE
8
0
6
CONTINUOUS
10
8.999930
20
117.216955
30
0.0
11
8.932870
21
118.620805
31
0.0
0
LINE
8
0
6
CONTINUOUS
10
-5.495870
20
110.374085
30
0.0
11
-4.316790
21
109.605375
31
0.0
0
LINE
8
0
6
CONTINUOUS
10
0.195620
20
126.465375
30
0.0
11
-1.211880
21
126.385885
31
0.0
0
LINE
8
0
6
CONTINUOUS
10
-8.492300
20
120.479785
30
0.0
11
-8.854700
21
119.122155
31
0.0
0
LINE
8
0
6
CONTINUOUS
10
7.900200
20
113.181955
30
0.0
11
8.477090
21
114.464355
31
0.0
0
LINE
8
0
6
CONTINUOUS
10
6.185190
20
110.961955
30
0.0
11
7.129270
21
112.004675
31
0.0
0
LINE
8
0
6
CONTINUOUS
10
-2.999530
20
109.017785
30
0.0
11
-1.637040
21
108.654215
31
0.0
0
LINE
8
0
6
CONTINUOUS
10
-0.235360
20
108.507285
30
0.0
11
1.172210
21
108.580885
31
0.0
0
LINE
8
0
6
CONTINUOUS
10
7.451940
20
122.531555
30
0.0
11
6.572490
21
123.628665
31
0.0
0
LINE
8
0
6
CONTINUOUS
10
7.129270
20
112.004675
30
0.0
11
7.900200
21
113.181955
31
0.0
0
LINE
8
0
6
CONTINUOUS
10
-7.920290
20
121.763755
30
0.0
11
-8.492300
21
120.479785
31
0.0
0
LINE
8
0
6
CONTINUOUS
10
-1.211880
20
126.385885
30
0.0
11
-2.588600
21
126.088925
31
0.0
0
LINE
8
0
6
CONTINUOUS
10
-7.426260
20
112.411885
30
0.0
11
-6.541460
21
111.316635
31
0.0
0
LINE
8
0
6
CONTINUOUS
10
-8.928090
20
116.320365
30
0.0
11
-8.635090
21
114.945375
31
0.0
0
LINE
8
0
6
CONTINUOUS
10
-8.130690
20
113.631045
30
0.0
11
-7.426260
21
112.411885
31
0.0
0
LINE
8
0
6
CONTINUOUS
10
1.172210
20
108.580885
30
0.0
11
2.550730
21
108.872765
31
0.0
0
LINE
8
0
6
CONTINUOUS
10
-3.902830
20
125.581325
30
0.0
11
-5.121140
21
124.875645
31
0.0
0
LINE
8
0
6
CONTINUOUS
10
8.846460
20
115.820325
30
0.0
11
8.999930
21
117.216955
31
0.0
0
LINE
8
0
6
CONTINUOUS
10
6.572490
20
123.628665
30
0.0
11
5.530770
21
124.575265
31
0.0
0
LINE
8
0
6
CONTINUOUS
10
-4.316790
20
109.605375
30
0.0
11
-2.999530
21
109.017785
31
0.0
0
LINE
8
0
6
CONTINUOUS
10
1.622730
20
126.320715
30
0.0
11
0.195620
21
126.465375
31
0.0
0
LINE
8
0
6
CONTINUOUS
10
5.089120
20
110.078635
30
0.0
11
6.185190
21
110.961955
31
0.0
0
LINE
8
0
6
CONTINUOUS
10
-8.854700
20
119.122155
30
0.0
11
-9.001220
21
117.724425
31
0.0
0
LINE
8
0
6
CONTINUOUS
10
-9.001220
20
117.724425
30
0.0
11
-8.928090
21
116.320365
31
0.0
0
LINE
8
0
6
CONTINUOUS
10
-6.541460
20
111.316635
30
0.0
11
-5.495870
21
110.374085
31
0.0
0
LINE
8
0
6
CONTINUOUS
10
8.932870
20
118.620805
30
0.0
11
8.647170
21
119.996595
31
0.0
0
LINE
8
0
6
CONTINUOUS
10
-1.637040
20
108.654215
30
0.0
11
-0.235360
21
108.507285
31
0.0
0
LINE
8
0
6
CONTINUOUS
10
4.316130
20
125.369665
30
0.0
11
3.007880
21
125.952315
31
0.0
0
LINE
8
0
6
CONTINUOUS
10
2.550730
20
108.872765
30
0.0
11
3.867360
21
109.376045
31
0.0
0
LINE
8
0
6
CONTINUOUS
10
3.867360
20
109.376045
30
0.0
11
5.089120
21
110.078635
31
0.0
0
LINE
8
0
6
CONTINUOUS
10
3.007880
20
125.952315
30
0.0
11
1.622730
21
126.320715
31
0.0
0
LINE
8
0
6
CONTINUOUS
10
5.530770
20
124.575265
30
0.0
11
4.316130
21
125.369665
31
0.0
0
LINE
8
0
6
CONTINUOUS
10
-5.121140
20
124.875645
30
0.0
11
-6.215080
21
123.988745
31
0.0
0
LINE
8
0
6
CONTINUOUS
10
-7.373390
20
121.464585
30
0.0
11
-6.661330
21
122.562655
31
0.0
0
LINE
8
0
6
CONTINUOUS
10
-6.874350
20
122.731825
30
0.0
11
-7.609210
21
121.598625
31
0.0
0
LINE
8
0
6
CONTINUOUS
10
0.182740
20
125.843575
30
0.0
11
1.510950
21
125.708785
31
0.0
0
LINE
8
0
6
CONTINUOUS
10
1.559300
20
125.978815
30
0.0
11
0.188680
21
126.117855
31
0.0
0
LINE
8
0
6
CONTINUOUS
10
-1.524360
20
109.257235
30
0.0
11
-2.792010
21
109.595945
31
0.0
0
LINE
8
0
6
CONTINUOUS
10
-8.310170
20
116.396755
30
0.0
11
-8.379040
21
117.703845
31
0.0
0
LINE
8
0
6
CONTINUOUS
10
-8.647160
20
117.717515
30
0.0
11
-8.576050
21
116.368585
31
0.0
0
LINE
8
0
6
CONTINUOUS
10
-5.785480
20
123.536515
30
0.0
11
-4.768190
21
124.362435
31
0.0
0
LINE
8
0
6
CONTINUOUS
10
-4.920800
20
124.589405
30
0.0
11
-5.970670
21
123.737045
31
0.0
0
LINE
8
0
6
CONTINUOUS
10
-2.410300
20
125.492935
30
0.0
11
-1.127610
21
125.769735
31
0.0
0
LINE
8
0
6
CONTINUOUS
10
-1.163660
20
126.041675
30
0.0
11
-2.487410
21
125.756055
31
0.0
0
LINE
8
0
6
CONTINUOUS
10
8.235220
20
115.931105
30
0.0
11
7.891380
21
114.668405
31
0.0
0
LINE
8
0
6
CONTINUOUS
10
8.143840
20
114.584935
30
0.0
11
8.498720
21
115.888035
31
0.0
0
LINE
8
0
6
CONTINUOUS
10
-0.219260
20
109.120245
30
0.0
11
-1.524360
21
109.257235
31
0.0
0
LINE
8
0
6
CONTINUOUS
10
6.937910
20
122.179725
30
0.0
11
7.586780
21
121.042775
31
0.0
0
LINE
8
0
6
CONTINUOUS
10
7.829460
20
121.163305
30
0.0
11
7.159810
21
122.336645
31
0.0
0
LINE
8
0
6
CONTINUOUS
10
2.375340
20
109.460955
30
0.0
11
1.091420
21
109.188735
31
0.0
0
LINE
8
0
6
CONTINUOUS
10
8.049550
20
119.819295
30
0.0
11
8.315450
21
118.538335
31
0.0
0
LINE
8
0
6
CONTINUOUS
10
8.581530
20
118.578725
30
0.0
11
8.307080
21
119.900685
31
0.0
0
LINE
8
0
6
CONTINUOUS
10
-2.792010
20
109.595945
30
0.0
11
-4.019480
21
110.143505
31
0.0
0
LINE
8
0
6
CONTINUOUS
10
-8.037890
20
115.116215
30
0.0
11
-8.310170
21
116.396755
31
0.0
0
LINE
8
0
6
CONTINUOUS
10
-8.576050
20
116.368585
30
0.0
11
-8.295020
21
115.047065
31
0.0
0
LINE
8
0
6
CONTINUOUS
10
-4.768190
20
124.362435
30
0.0
11
-3.633900
21
125.020005
31
0.0
0
LINE
8
0
6
CONTINUOUS
10
-3.750190
20
125.268015
30
0.0
11
-4.920800
21
124.589405
31
0.0
0
LINE
8
0
6
CONTINUOUS
10
-6.089550
20
111.737635
30
0.0
11
-6.913820
21
112.757285
31
0.0
0
LINE
8
0
6
CONTINUOUS
10
4.738220
20
110.584355
30
0.0
11
3.600960
21
109.930075
31
0.0
0
LINE
8
0
6
CONTINUOUS
10
8.377780
20
117.231315
30
0.0
11
8.235220
21
115.931105
31
0.0
0
LINE
8
0
6
CONTINUOUS
10
8.498720
20
115.888035
30
0.0
11
8.645880
21
117.229865
31
0.0
0
LINE
8
0
6
CONTINUOUS
10
7.354520
20
113.474645
30
0.0
11
6.637710
21
112.378345
31
0.0
0
LINE
8
0
6
CONTINUOUS
10
6.850000
20
112.221645
30
0.0
11
7.589760
21
113.352995
31
0.0
0
LINE
8
0
6
CONTINUOUS
10
3.600960
20
109.930075
30
0.0
11
2.375340
21
109.460955
31
0.0
0
LINE
8
0
6
CONTINUOUS
10
-4.019480
20
110.143505
30
0.0
11
-5.116910
21
110.859495
31
0.0
0
LINE
8
0
6
CONTINUOUS
10
-3.633900
20
125.020005
30
0.0
11
-2.410300
21
125.492935
31
0.0
0
LINE
8
0
6
CONTINUOUS
10
-2.487410
20
125.756055
30
0.0
11
-3.750190
21
125.268015
31
0.0
0
LINE
8
0
6
CONTINUOUS
10
5.758290
20
111.407245
30
0.0
11
4.738220
21
110.584355
31
0.0
0
LINE
8
0
6
CONTINUOUS
10
-8.242820
20
119.005095
30
0.0
11
-7.904910
21
120.269065
31
0.0
0
LINE
8
0
6
CONTINUOUS
10
-8.157780
20
120.364845
30
0.0
11
-8.506540
21
119.060415
31
0.0
0
LINE
8
0
6
CONTINUOUS
10
-7.904910
20
120.269065
30
0.0
11
-7.373390
21
121.464585
31
0.0
0
LINE
8
0
6
CONTINUOUS
10
-7.609210
20
121.598625
30
0.0
11
-8.157780
21
120.364845
31
0.0
0
LINE
8
0
6
CONTINUOUS
10
-6.661330
20
122.562655
30
0.0
11
-5.785480
21
123.536515
31
0.0
0
LINE
8
0
6
CONTINUOUS
10
-5.970670
20
123.737045
30
0.0
11
-6.874350
21
122.731825
31
0.0
0
LINE
8
0
6
CONTINUOUS
10
1.510950
20
125.708785
30
0.0
11
2.800560
21
125.365485
31
0.0
0
LINE
8
0
6
CONTINUOUS
10
2.890200
20
125.624555
30
0.0
11
1.559300
21
125.978815
31
0.0
0
LINE
8
0
6
CONTINUOUS
10
8.315450
20
118.538335
30
0.0
11
8.377780
21
117.231315
31
0.0
0
LINE
8
0
6
CONTINUOUS
10
8.645880
20
117.229865
30
0.0
11
8.581530
21
118.578725
31
0.0
0
LINE
8
0
6
CONTINUOUS
10
2.800560
20
125.365485
30
0.0
11
4.019110
21
124.822675
31
0.0
0
LINE
8
0
6
CONTINUOUS
10
4.147810
20
125.064365
30
0.0
11
2.890200
21
125.624555
31
0.0
0
LINE
8
0
6
CONTINUOUS
10
-6.913820
20
112.757285
30
0.0
11
-7.568530
21
113.892895
31
0.0
0
LINE
8
0
6
CONTINUOUS
10
-7.810600
20
113.784625
30
0.0
11
-7.134930
21
112.612695
31
0.0
0
LINE
8
0
6
CONTINUOUS
10
5.150330
20
124.082725
30
0.0
11
6.119100
21
123.201435
31
0.0
0
LINE
8
0
6
CONTINUOUS
10
6.314790
20
123.391045
30
0.0
11
5.315080
21
124.300855
31
0.0
0
LINE
8
0
6
CONTINUOUS
10
6.119100
20
123.201435
30
0.0
11
6.937910
21
122.179725
31
0.0
0
LINE
8
0
6
CONTINUOUS
10
7.159810
20
122.336645
30
0.0
11
6.314790
21
123.391045
31
0.0
0
LINE
8
0
6
CONTINUOUS
10
4.019110
20
124.822675
30
0.0
11
5.150330
21
124.082725
31
0.0
0
LINE
8
0
6
CONTINUOUS
10
5.315080
20
124.300855
30
0.0
11
4.147810
21
125.064365
31
0.0
0
LINE
8
0
6
CONTINUOUS
10
-7.568530
20
113.892895
30
0.0
11
-8.037890
21
115.116215
31
0.0
0
LINE
8
0
6
CONTINUOUS
10
-8.295020
20
115.047065
30
0.0
11
-7.810600
21
113.784625
31
0.0
0
LINE
8
0
6
CONTINUOUS
10
-8.379040
20
117.703845
30
0.0
11
-8.242820
21
119.005095
31
0.0
0
LINE
8
0
6
CONTINUOUS
10
-8.506540
20
119.060415
30
0.0
11
-8.647160
21
117.717515
31
0.0
0
LINE
8
0
6
CONTINUOUS
10
-1.127610
20
125.769735
30
0.0
11
0.182740
21
125.843575
31
0.0
0
LINE
8
0
6
CONTINUOUS
10
0.188680
20
126.117855
30
0.0
11
-1.163660
21
126.041675
31
0.0
0
LINE
8
0
6
CONTINUOUS
10
-5.116910
20
110.859495
30
0.0
11
-6.089550
21
111.737635
31
0.0
0
LINE
8
0
6
CONTINUOUS
10
1.091420
20
109.188735
30
0.0
11
-0.219260
21
109.120245
31
0.0
0
LINE
8
0
6
CONTINUOUS
10
6.637710
20
112.378345
30
0.0
11
5.758290
21
111.407245
31
0.0
0
LINE
8
0
6
CONTINUOUS
10
7.586780
20
121.042775
30
0.0
11
8.049550
21
119.819295
31
0.0
0
LINE
8
0
6
CONTINUOUS
10
8.307080
20
119.900685
30
0.0
11
7.829460
21
121.163305
31
0.0
0
LINE
8
0
6
CONTINUOUS
10
7.891380
20
114.668405
30
0.0
11
7.354520
21
113.474645
31
0.0
0
LINE
8
0
6
CONTINUOUS
10
7.589760
20
113.352995
30
0.0
11
8.143840
21
114.584935
31
0.0
0
LINE
8
0
6
CONTINUOUS
10
3.012720
20
109.853515
30
0.0
11
4.373400
21
110.536505
31
0.0
0
LINE
8
0
6
CONTINUOUS
10
0.033540
20
109.285985
30
0.0
11
1.549460
21
109.431925
31
0.0
0
LINE
8
0
6
CONTINUOUS
10
-1.483470
20
109.420425
30
0.0
11
0.033540
21
109.285985
31
0.0
0
LINE
8
0
6
CONTINUOUS
10
-7.926940
20
115.241365
30
0.0
11
-7.371410
21
113.825465
31
0.0
0
LINE
8
0
6
CONTINUOUS
10
-4.315670
20
110.503905
30
0.0
11
-2.949810
21
109.831205
31
0.0
0
LINE
8
0
6
CONTINUOUS
10
-2.949810
20
109.831205
30
0.0
11
-1.483470
21
109.420425
31
0.0
0
LINE
8
0
6
CONTINUOUS
10
-5.534470
20
111.415725
30
0.0
11
-4.315670
21
110.503905
31
0.0
0
LINE
8
0
6
CONTINUOUS
10
-8.212340
20
116.735065
30
0.0
11
-7.926940
21
115.241365
31
0.0
0
LINE
8
0
6
CONTINUOUS
10
-6.602300
20
122.467385
30
0.0
11
-7.399230
21
121.171575
31
0.0
0
LINE
8
0
6
CONTINUOUS
10
-5.580540
20
123.595025
30
0.0
11
-6.602300
21
122.467385
31
0.0
0
LINE
8
0
6
CONTINUOUS
10
-6.564780
20
112.535605
30
0.0
11
-5.534470
21
111.415725
31
0.0
0
LINE
8
0
6
CONTINUOUS
10
-4.368720
20
124.515995
30
0.0
11
-5.580540
21
123.595025
31
0.0
0
LINE
8
0
6
CONTINUOUS
10
-7.371410
20
113.825465
30
0.0
11
-6.564780
21
112.535605
31
0.0
0
LINE
8
0
6
CONTINUOUS
10
-7.399230
20
121.171575
30
0.0
11
-7.943970
21
119.751525
31
0.0
0
LINE
8
0
6
CONTINUOUS
10
-8.218080
20
118.255715
30
0.0
11
-8.212340
21
116.735065
31
0.0
0
LINE
8
0
6
CONTINUOUS
10
1.488140
20
125.631965
30
0.0
11
-0.028850
21
125.766575
31
0.0
0
LINE
8
0
6
CONTINUOUS
10
7.930390
20
119.811355
30
0.0
11
7.376490
21
121.226995
31
0.0
0
LINE
8
0
6
CONTINUOUS
10
2.954500
20
125.221285
30
0.0
11
1.488140
21
125.631965
31
0.0
0
LINE
8
0
6
CONTINUOUS
10
4.320320
20
124.548525
30
0.0
11
2.954500
21
125.221285
31
0.0
0
LINE
8
0
6
CONTINUOUS
10
8.220680
20
118.316845
30
0.0
11
7.930390
21
119.811355
31
0.0
0
LINE
8
0
6
CONTINUOUS
10
4.373400
20
110.536505
30
0.0
11
5.585260
21
111.457475
31
0.0
0
LINE
8
0
6
CONTINUOUS
10
1.549460
20
109.431925
30
0.0
11
3.012720
21
109.853515
31
0.0
0
LINE
8
0
6
CONTINUOUS
10
-7.943970
20
119.751525
30
0.0
11
-8.218080
21
118.255715
31
0.0
0
LINE
8
0
6
CONTINUOUS
10
-3.007970
20
125.198905
30
0.0
11
-1.544770
21
125.620635
31
0.0
0
LINE
8
0
6
CONTINUOUS
10
-4.368720
20
124.515995
30
0.0
11
-3.007970
21
125.198905
31
0.0
0
LINE
8
0
6
CONTINUOUS
10
-0.028850
20
125.766575
30
0.0
11
-1.544770
21
125.620635
31
0.0
0
LINE
8
0
6
CONTINUOUS
10
7.402770
20
113.881155
30
0.0
11
6.607180
21
112.585065
31
0.0
0
LINE
8
0
6
CONTINUOUS
10
5.539290
20
123.636865
30
0.0
11
4.320320
21
124.548525
31
0.0
0
LINE
8
0
6
CONTINUOUS
10
5.585260
20
111.457475
30
0.0
11
6.607180
21
112.585065
31
0.0
0
LINE
8
0
6
CONTINUOUS
10
8.212420
20
116.798495
30
0.0
11
7.954480
21
115.300055
31
0.0
0
LINE
8
0
6
CONTINUOUS
10
7.402770
20
113.881155
30
0.0
11
7.954480
21
115.300055
31
0.0
0
LINE
8
0
6
CONTINUOUS
10
7.376490
20
121.226995
30
0.0
11
6.569390
21
122.516965
31
0.0
0
LINE
8
0
6
CONTINUOUS
10
6.569390
20
122.516965
30
0.0
11
5.539290
21
123.636865
31
0.0
0
LINE
8
0
6
CONTINUOUS
10
2.883810
20
110.175565
30
0.0
11
4.185930
21
110.829165
31
0.0
0
LINE
8
0
6
CONTINUOUS
10
0.032840
20
109.632455
30
0.0
11
1.483520
21
109.772115
31
0.0
0
LINE
8
0
6
CONTINUOUS
10
7.589860
20
119.704865
30
0.0
11
7.059790
21
121.059595
31
0.0
0
LINE
8
0
6
CONTINUOUS
10
4.135140
20
124.238175
30
0.0
11
2.828100
21
124.881985
31
0.0
0
LINE
8
0
6
CONTINUOUS
10
7.867650
20
118.274675
30
0.0
11
7.589860
21
119.704865
31
0.0
0
LINE
8
0
6
CONTINUOUS
10
4.185930
20
110.829165
30
0.0
11
5.345650
21
111.710495
31
0.0
0
LINE
8
0
6
CONTINUOUS
10
1.483520
20
109.772115
30
0.0
11
2.883810
21
110.175565
31
0.0
0
LINE
8
0
6
CONTINUOUS
10
6.323590
20
112.789565
30
0.0
11
7.084940
21
114.029875
31
0.0
0
LINE
8
0
6
CONTINUOUS
10
5.301660
20
123.365755
30
0.0
11
4.135140
21
124.238175
31
0.0
0
LINE
8
0
6
CONTINUOUS
10
5.345650
20
111.710495
30
0.0
11
6.323590
21
112.789565
31
0.0
0
LINE
8
0
6
CONTINUOUS
10
7.612910
20
115.387705
30
0.0
11
7.859750
21
116.821665
31
0.0
0
LINE
8
0
6
CONTINUOUS
10
7.084940
20
114.029875
30
0.0
11
7.612910
21
115.387705
31
0.0
0
LINE
8
0
6
CONTINUOUS
10
7.059790
20
121.059595
30
0.0
11
6.287420
21
122.294045
31
0.0
0
LINE
8
0
6
CONTINUOUS
10
6.287420
20
122.294045
30
0.0
11
5.301660
21
123.365755
31
0.0
0
LINE
8
0
6
CONTINUOUS
10
8.212420
20
116.798495
30
0.0
11
8.220680
21
118.316845
31
0.0
0
LINE
8
0
6
CONTINUOUS
10
7.867650
20
118.274675
30
0.0
11
7.859750
21
116.821665
31
0.0
0
LINE
8
0
6
CONTINUOUS
10
-59.629220
20
60.500005
30
0.0
11
59.629220
21
60.500005
31
0.0
0
LINE
8
0
6
CONTINUOUS
10
57.253280
20
127.162845
30
0.0
11
54.433820
21
130.571625
31
0.0
0
LINE
8
0
6
CONTINUOUS
10
-60.014910
20
114.070745
30
0.0
11
-60.002710
21
109.624995
31
0.0
0
LINE
8
0
6
CONTINUOUS
10
-59.994670
20
100.500005
30
0.0
11
-59.994670
21
61.787695
31
0.0
0
LINE
8
0
6
CONTINUOUS
10
59.994670
20
60.500005
30
0.0
11
59.994670
21
61.787695
31
0.0
0
LINE
8
0
6
CONTINUOUS
10
59.629220
20
60.500005
30
0.0
11
59.994670
21
60.500005
31
0.0
0
LINE
8
0
6
CONTINUOUS
10
46.588730
20
134.926275
30
0.0
11
42.110640
21
135.496225
31
0.0
0
LINE
8
0
6
CONTINUOUS
10
50.781140
20
133.253125
30
0.0
11
46.588730
21
134.926275
31
0.0
0
LINE
8
0
6
CONTINUOUS
10
54.418680
20
130.585915
30
0.0
11
50.781140
21
133.253125
31
0.0
0
LINE
8
0
6
CONTINUOUS
10
57.271890
20
127.095675
30
0.0
11
54.418680
21
130.585915
31
0.0
0
LINE
8
0
6
CONTINUOUS
10
59.161530
20
123.004235
30
0.0
11
57.271890
21
127.095675
31
0.0
0
LINE
8
0
6
CONTINUOUS
10
59.942840
20
118.571695
30
0.0
11
59.161530
21
123.004235
31
0.0
0
LINE
8
0
6
CONTINUOUS
10
60.017940
20
114.056005
30
0.0
11
59.942840
21
118.571695
31
0.0
0
LINE
8
0
6
CONTINUOUS
10
-59.942830
20
118.571705
30
0.0
11
-60.017940
21
114.056015
31
0.0
0
LINE
8
0
6
CONTINUOUS
10
-59.161540
20
123.004245
30
0.0
11
-59.942830
21
118.571705
31
0.0
0
LINE
8
0
6
CONTINUOUS
10
-57.271890
20
127.095675
30
0.0
11
-59.161540
21
123.004245
31
0.0
0
LINE
8
0
6
CONTINUOUS
10
-54.418690
20
130.585925
30
0.0
11
-57.271890
21
127.095675
31
0.0
0
LINE
8
0
6
CONTINUOUS
10
-50.781140
20
133.253135
30
0.0
11
-54.418690
21
130.585925
31
0.0
0
LINE
8
0
6
CONTINUOUS
10
-46.588720
20
134.926275
30
0.0
11
-50.781140
21
133.253135
31
0.0
0
LINE
8
0
6
CONTINUOUS
10
-42.110630
20
135.496225
30
0.0
11
-46.588720
21
134.926275
31
0.0
0
LINE
8
0
6
CONTINUOUS
10
42.110640
20
135.496225
30
0.0
11
-42.110630
21
135.496225
31
0.0
0
LINE
8
0
6
CONTINUOUS
10
59.994670
20
105.018195
30
0.0
11
59.994670
21
109.536385
31
0.0
0
LINE
8
0
6
CONTINUOUS
10
59.994670
20
100.500005
30
0.0
11
59.994670
21
105.018195
31
0.0
0
LINE
8
0
6
CONTINUOUS
10
-59.994670
20
109.536385
30
0.0
11
-59.994670
21
105.018195
31
0.0
0
LINE
8
0
6
CONTINUOUS
10
-59.994670
20
105.018195
30
0.0
11
-59.994670
21
100.500005
31
0.0
0
LINE
8
0
6
CONTINUOUS
10
-60.017940
20
114.056015
30
0.0
11
-59.994670
21
109.536385
31
0.0
0
LINE
8
0
6
CONTINUOUS
10
59.994670
20
109.536385
30
0.0
11
60.017940
21
114.056005
31
0.0
0
LINE
8
0
6
CONTINUOUS
10
59.994670
20
61.787695
30
0.0
11
59.994670
21
100.500005
31
0.0
0
LINE
8
0
6
CONTINUOUS
10
-59.994670
20
60.500005
30
0.0
11
-59.629220
21
60.500005
31
0.0
0
LINE
8
0
6
CONTINUOUS
10
-59.994670
20
61.787695
30
0.0
11
-59.994670
21
60.500005
31
0.0
0
LINE
8
0
6
CONTINUOUS
10
-7.155270
20
-122.942995
30
0.0
11
-6.215080
21
-123.988755
31
0.0
0
LINE
8
0
6
CONTINUOUS
10
8.846460
20
-115.820345
30
0.0
11
8.477090
21
-114.464375
31
0.0
0
LINE
8
0
6
CONTINUOUS
10
-3.902830
20
-125.581335
30
0.0
11
-2.588600
21
-126.088935
31
0.0
0
LINE
8
0
6
CONTINUOUS
10
7.451940
20
-122.531555
30
0.0
11
8.149200
21
-121.310705
31
0.0
0
LINE
8
0
6
CONTINUOUS
10
-7.920290
20
-121.763755
30
0.0
11
-7.155270
21
-122.942995
31
0.0
0
LINE
8
0
6
CONTINUOUS
10
8.149200
20
-121.310705
30
0.0
11
8.647170
21
-119.996595
31
0.0
0
LINE
8
0
6
CONTINUOUS
10
-8.130690
20
-113.631045
30
0.0
11
-8.635090
21
-114.945385
31
0.0
0
LINE
8
0
6
CONTINUOUS
10
8.932870
20
-118.620805
30
0.0
11
8.999930
21
-117.216965
31
0.0
0
LINE
8
0
6
CONTINUOUS
10
-4.316790
20
-109.605385
30
0.0
11
-5.495870
21
-110.374095
31
0.0
0
LINE
8
0
6
CONTINUOUS
10
-1.211880
20
-126.385895
30
0.0
11
0.195620
21
-126.465385
31
0.0
0
LINE
8
0
6
CONTINUOUS
10
-8.854700
20
-119.122155
30
0.0
11
-8.492300
21
-120.479785
31
0.0
0
LINE
8
0
6
CONTINUOUS
10
8.477090
20
-114.464375
30
0.0
11
7.900200
21
-113.181965
31
0.0
0
LINE
8
0
6
CONTINUOUS
10
7.129270
20
-112.004695
30
0.0
11
6.185190
21
-110.961965
31
0.0
0
LINE
8
0
6
CONTINUOUS
10
-1.637040
20
-108.654225
30
0.0
11
-2.999530
21
-109.017805
31
0.0
0
LINE
8
0
6
CONTINUOUS
10
1.172210
20
-108.580885
30
0.0
11
-0.235360
21
-108.507305
31
0.0
0
LINE
8
0
6
CONTINUOUS
10
6.572490
20
-123.628665
30
0.0
11
7.451940
21
-122.531555
31
0.0
0
LINE
8
0
6
CONTINUOUS
10
7.900200
20
-113.181965
30
0.0
11
7.129270
21
-112.004695
31
0.0
0
LINE
8
0
6
CONTINUOUS
10
-8.492300
20
-120.479785
30
0.0
11
-7.920290
21
-121.763755
31
0.0
0
LINE
8
0
6
CONTINUOUS
10
-2.588600
20
-126.088935
30
0.0
11
-1.211880
21
-126.385895
31
0.0
0
LINE
8
0
6
CONTINUOUS
10
-6.541460
20
-111.316635
30
0.0
11
-7.426260
21
-112.411895
31
0.0
0
LINE
8
0
6
CONTINUOUS
10
-8.635090
20
-114.945385
30
0.0
11
-8.928090
21
-116.320375
31
0.0
0
LINE
8
0
6
CONTINUOUS
10
-7.426260
20
-112.411895
30
0.0
11
-8.130690
21
-113.631045
31
0.0
0
LINE
8
0
6
CONTINUOUS
10
2.550730
20
-108.872765
30
0.0
11
1.172210
21
-108.580885
31
0.0
0
LINE
8
0
6
CONTINUOUS
10
-5.121140
20
-124.875655
30
0.0
11
-3.902830
21
-125.581335
31
0.0
0
LINE
8
0
6
CONTINUOUS
10
8.999930
20
-117.216965
30
0.0
11
8.846460
21
-115.820345
31
0.0
0
LINE
8
0
6
CONTINUOUS
10
5.530770
20
-124.575285
30
0.0
11
6.572490
21
-123.628665
31
0.0
0
LINE
8
0
6
CONTINUOUS
10
-2.999530
20
-109.017805
30
0.0
11
-4.316790
21
-109.605385
31
0.0
0
LINE
8
0
6
CONTINUOUS
10
0.195620
20
-126.465385
30
0.0
11
1.622730
21
-126.320715
31
0.0
0
LINE
8
0
6
CONTINUOUS
10
6.185190
20
-110.961965
30
0.0
11
5.089120
21
-110.078655
31
0.0
0
LINE
8
0
6
CONTINUOUS
10
-9.001220
20
-117.724425
30
0.0
11
-8.854700
21
-119.122155
31
0.0
0
LINE
8
0
6
CONTINUOUS
10
-8.928090
20
-116.320375
30
0.0
11
-9.001220
21
-117.724425
31
0.0
0
LINE
8
0
6
CONTINUOUS
10
-5.495870
20
-110.374095
30
0.0
11
-6.541460
21
-111.316635
31
0.0
0
LINE
8
0
6
CONTINUOUS
10
8.647170
20
-119.996595
30
0.0
11
8.932870
21
-118.620805
31
0.0
0
LINE
8
0
6
CONTINUOUS
10
-0.235360
20
-108.507305
30
0.0
11
-1.637040
21
-108.654225
31
0.0
0
LINE
8
0
6
CONTINUOUS
10
3.007880
20
-125.952335
30
0.0
11
4.316130
21
-125.369675
31
0.0
0
LINE
8
0
6
CONTINUOUS
10
3.867360
20
-109.376065
30
0.0
11
2.550730
21
-108.872765
31
0.0
0
LINE
8
0
6
CONTINUOUS
10
5.089120
20
-110.078655
30
0.0
11
3.867360
21
-109.376065
31
0.0
0
LINE
8
0
6
CONTINUOUS
10
1.622730
20
-126.320715
30
0.0
11
3.007880
21
-125.952335
31
0.0
0
LINE
8
0
6
CONTINUOUS
10
4.316130
20
-125.369675
30
0.0
11
5.530770
21
-124.575285
31
0.0
0
LINE
8
0
6
CONTINUOUS
10
-6.215080
20
-123.988755
30
0.0
11
-5.121140
21
-124.875655
31
0.0
0
LINE
8
0
6
CONTINUOUS
10
-7.609210
20
-121.598635
30
0.0
11
-6.874350
21
-122.731835
31
0.0
0
LINE
8
0
6
CONTINUOUS
10
-6.661330
20
-122.562665
30
0.0
11
-7.373390
21
-121.464585
31
0.0
0
LINE
8
0
6
CONTINUOUS
10
0.188680
20
-126.117875
30
0.0
11
1.559300
21
-125.978825
31
0.0
0
LINE
8
0
6
CONTINUOUS
10
1.510950
20
-125.708805
30
0.0
11
0.182740
21
-125.843575
31
0.0
0
LINE
8
0
6
CONTINUOUS
10
-2.792010
20
-109.595955
30
0.0
11
-1.524360
21
-109.257255
31
0.0
0
LINE
8
0
6
CONTINUOUS
10
-8.576050
20
-116.368595
30
0.0
11
-8.647160
21
-117.717525
31
0.0
0
LINE
8
0
6
CONTINUOUS
10
-8.379040
20
-117.703845
30
0.0
11
-8.310170
21
-116.396765
31
0.0
0
LINE
8
0
6
CONTINUOUS
10
-5.970670
20
-123.737065
30
0.0
11
-4.920800
21
-124.589415
31
0.0
0
LINE
8
0
6
CONTINUOUS
10
-4.768190
20
-124.362445
30
0.0
11
-5.785480
21
-123.536525
31
0.0
0
LINE
8
0
6
CONTINUOUS
10
-2.487410
20
-125.756065
30
0.0
11
-1.163660
21
-126.041695
31
0.0
0
LINE
8
0
6
CONTINUOUS
10
-1.127610
20
-125.769745
30
0.0
11
-2.410300
21
-125.492945
31
0.0
0
LINE
8
0
6
CONTINUOUS
10
8.498720
20
-115.888035
30
0.0
11
8.143840
21
-114.584935
31
0.0
0
LINE
8
0
6
CONTINUOUS
10
7.891380
20
-114.668415
30
0.0
11
8.235220
21
-115.931125
31
0.0
0
LINE
8
0
6
CONTINUOUS
10
-1.524360
20
-109.257255
30
0.0
11
-0.219260
21
-109.120245
31
0.0
0
LINE
8
0
6
CONTINUOUS
10
7.159810
20
-122.336645
30
0.0
11
7.829460
21
-121.163325
31
0.0
0
LINE
8
0
6
CONTINUOUS
10
7.586780
20
-121.042775
30
0.0
11
6.937910
21
-122.179725
31
0.0
0
LINE
8
0
6
CONTINUOUS
10
1.091420
20
-109.188735
30
0.0
11
2.375340
21
-109.460955
31
0.0
0
LINE
8
0
6
CONTINUOUS
10
8.307080
20
-119.900695
30
0.0
11
8.581530
21
-118.578735
31
0.0
0
LINE
8
0
6
CONTINUOUS
10
8.315450
20
-118.538355
30
0.0
11
8.049550
21
-119.819305
31
0.0
0
LINE
8
0
6
CONTINUOUS
10
-4.019480
20
-110.143525
30
0.0
11
-2.792010
21
-109.595955
31
0.0
0
LINE
8
0
6
CONTINUOUS
10
-8.295020
20
-115.047065
30
0.0
11
-8.576050
21
-116.368595
31
0.0
0
LINE
8
0
6
CONTINUOUS
10
-8.310170
20
-116.396765
30
0.0
11
-8.037890
21
-115.116225
31
0.0
0
LINE
8
0
6
CONTINUOUS
10
-4.920800
20
-124.589415
30
0.0
11
-3.750190
21
-125.268035
31
0.0
0
LINE
8
0
6
CONTINUOUS
10
-3.633900
20
-125.020015
30
0.0
11
-4.768190
21
-124.362445
31
0.0
0
LINE
8
0
6
CONTINUOUS
10
-6.913820
20
-112.757295
30
0.0
11
-6.089550
21
-111.737645
31
0.0
0
LINE
8
0
6
CONTINUOUS
10
3.600960
20
-109.930085
30
0.0
11
4.738220
21
-110.584365
31
0.0
0
LINE
8
0
6
CONTINUOUS
10
8.645880
20
-117.229875
30
0.0
11
8.498720
21
-115.888035
31
0.0
0
LINE
8
0
6
CONTINUOUS
10
8.235220
20
-115.931125
30
0.0
11
8.377780
21
-117.231325
31
0.0
0
LINE
8
0
6
CONTINUOUS
10
7.589760
20
-113.352995
30
0.0
11
6.850000
21
-112.221655
31
0.0
0
LINE
8
0
6
CONTINUOUS
10
6.637710
20
-112.378365
30
0.0
11
7.354520
21
-113.474645
31
0.0
0
LINE
8
0
6
CONTINUOUS
10
2.375340
20
-109.460955
30
0.0
11
3.600960
21
-109.930085
31
0.0
0
LINE
8
0
6
CONTINUOUS
10
-5.116910
20
-110.859505
30
0.0
11
-4.019480
21
-110.143525
31
0.0
0
LINE
8
0
6
CONTINUOUS
10
-3.750190
20
-125.268035
30
0.0
11
-2.487410
21
-125.756065
31
0.0
0
LINE
8
0
6
CONTINUOUS
10
-2.410300
20
-125.492945
30
0.0
11
-3.633900
21
-125.020015
31
0.0
0
LINE
8
0
6
CONTINUOUS
10
4.738220
20
-110.584365
30
0.0
11
5.758290
21
-111.407255
31
0.0
0
LINE
8
0
6
CONTINUOUS
10
-8.506540
20
-119.060435
30
0.0
11
-8.157780
21
-120.364845
31
0.0
0
LINE
8
0
6
CONTINUOUS
10
-7.904910
20
-120.269085
30
0.0
11
-8.242820
21
-119.005105
31
0.0
0
LINE
8
0
6
CONTINUOUS
10
-8.157780
20
-120.364845
30
0.0
11
-7.609210
21
-121.598635
31
0.0
0
LINE
8
0
6
CONTINUOUS
10
-7.373390
20
-121.464585
30
0.0
11
-7.904910
21
-120.269085
31
0.0
0
LINE
8
0
6
CONTINUOUS
10
-6.874350
20
-122.731835
30
0.0
11
-5.970670
21
-123.737065
31
0.0
0
LINE
8
0
6
CONTINUOUS
10
-5.785480
20
-123.536525
30
0.0
11
-6.661330
21
-122.562665
31
0.0
0
LINE
8
0
6
CONTINUOUS
10
1.559300
20
-125.978825
30
0.0
11
2.890200
21
-125.624555
31
0.0
0
LINE
8
0
6
CONTINUOUS
10
2.800560
20
-125.365495
30
0.0
11
1.510950
21
-125.708805
31
0.0
0
LINE
8
0
6
CONTINUOUS
10
8.581530
20
-118.578735
30
0.0
11
8.645880
21
-117.229875
31
0.0
0
LINE
8
0
6
CONTINUOUS
10
8.377780
20
-117.231325
30
0.0
11
8.315450
21
-118.538355
31
0.0
0
LINE
8
0
6
CONTINUOUS
10
2.890200
20
-125.624555
30
0.0
11
4.147810
21
-125.064365
31
0.0
0
LINE
8
0
6
CONTINUOUS
10
4.019110
20
-124.822685
30
0.0
11
2.800560
21
-125.365495
31
0.0
0
LINE
8
0
6
CONTINUOUS
10
-7.134930
20
-112.612695
30
0.0
11
-7.810600
21
-113.784625
31
0.0
0
LINE
8
0
6
CONTINUOUS
10
-7.568530
20
-113.892905
30
0.0
11
-6.913820
21
-112.757295
31
0.0
0
LINE
8
0
6
CONTINUOUS
10
5.315080
20
-124.300855
30
0.0
11
6.314790
21
-123.391045
31
0.0
0
LINE
8
0
6
CONTINUOUS
10
6.119100
20
-123.201435
30
0.0
11
5.150330
21
-124.082725
31
0.0
0
LINE
8
0
6
CONTINUOUS
10
6.314790
20
-123.391045
30
0.0
11
7.159810
21
-122.336645
31
0.0
0
LINE
8
0
6
CONTINUOUS
10
6.937910
20
-122.179725
30
0.0
11
6.119100
21
-123.201435
31
0.0
0
LINE
8
0
6
CONTINUOUS
10
4.147810
20
-125.064365
30
0.0
11
5.315080
21
-124.300855
31
0.0
0
LINE
8
0
6
CONTINUOUS
10
5.150330
20
-124.082725
30
0.0
11
4.019110
21
-124.822685
31
0.0
0
LINE
8
0
6
CONTINUOUS
10
-7.810600
20
-113.784625
30
0.0
11
-8.295020
21
-115.047065
31
0.0
0
LINE
8
0
6
CONTINUOUS
10
-8.037890
20
-115.116225
30
0.0
11
-7.568530
21
-113.892905
31
0.0
0
LINE
8
0
6
CONTINUOUS
10
-8.647160
20
-117.717525
30
0.0
11
-8.506540
21
-119.060435
31
0.0
0
LINE
8
0
6
CONTINUOUS
10
-8.242820
20
-119.005105
30
0.0
11
-8.379040
21
-117.703845
31
0.0
0
LINE
8
0
6
CONTINUOUS
10
-1.163660
20
-126.041695
30
0.0
11
0.188680
21
-126.117875
31
0.0
0
LINE
8
0
6
CONTINUOUS
10
0.182740
20
-125.843575
30
0.0
11
-1.127610
21
-125.769745
31
0.0
0
LINE
8
0
6
CONTINUOUS
10
-6.089550
20
-111.737645
30
0.0
11
-5.116910
21
-110.859505
31
0.0
0
LINE
8
0
6
CONTINUOUS
10
-0.219260
20
-109.120245
30
0.0
11
1.091420
21
-109.188735
31
0.0
0
LINE
8
0
6
CONTINUOUS
10
5.758290
20
-111.407255
30
0.0
11
6.637710
21
-112.378365
31
0.0
0
LINE
8
0
6
CONTINUOUS
10
7.829460
20
-121.163325
30
0.0
11
8.307080
21
-119.900695
31
0.0
0
LINE
8
0
6
CONTINUOUS
10
8.049550
20
-119.819305
30
0.0
11
7.586780
21
-121.042775
31
0.0
0
LINE
8
0
6
CONTINUOUS
10
8.143840
20
-114.584935
30
0.0
11
7.589760
21
-113.352995
31
0.0
0
LINE
8
0
6
CONTINUOUS
10
7.354520
20
-113.474645
30
0.0
11
7.891380
21
-114.668415
31
0.0
0
LINE
8
0
6
CONTINUOUS
10
4.373400
20
-110.536515
30
0.0
11
3.012720
21
-109.853525
31
0.0
0
LINE
8
0
6
CONTINUOUS
10
1.549460
20
-109.431925
30
0.0
11
0.033540
21
-109.285995
31
0.0
0
LINE
8
0
6
CONTINUOUS
10
0.033540
20
-109.285995
30
0.0
11
-1.483470
21
-109.420425
31
0.0
0
LINE
8
0
6
CONTINUOUS
10
-7.371410
20
-113.825465
30
0.0
11
-7.926940
21
-115.241365
31
0.0
0
LINE
8
0
6
CONTINUOUS
10
-2.949810
20
-109.831215
30
0.0
11
-4.315670
21
-110.503915
31
0.0
0
LINE
8
0
6
CONTINUOUS
10
-1.483470
20
-109.420425
30
0.0
11
-2.949810
21
-109.831215
31
0.0
0
LINE
8
0
6
CONTINUOUS
10
-4.315670
20
-110.503915
30
0.0
11
-5.534470
21
-111.415745
31
0.0
0
LINE
8
0
6
CONTINUOUS
10
-7.926940
20
-115.241365
30
0.0
11
-8.212340
21
-116.735065
31
0.0
0
LINE
8
0
6
CONTINUOUS
10
-7.399230
20
-121.171585
30
0.0
11
-6.602300
21
-122.467395
31
0.0
0
LINE
8
0
6
CONTINUOUS
10
-6.602300
20
-122.467395
30
0.0
11
-5.580540
21
-123.595035
31
0.0
0
LINE
8
0
6
CONTINUOUS
10
-5.534470
20
-111.415745
30
0.0
11
-6.564780
21
-112.535625
31
0.0
0
LINE
8
0
6
CONTINUOUS
10
-5.580540
20
-123.595035
30
0.0
11
-4.368720
21
-124.516005
31
0.0
0
LINE
8
0
6
CONTINUOUS
10
-6.564780
20
-112.535625
30
0.0
11
-7.371410
21
-113.825465
31
0.0
0
LINE
8
0
6
CONTINUOUS
10
-7.943970
20
-119.751545
30
0.0
11
-7.399230
21
-121.171585
31
0.0
0
LINE
8
0
6
CONTINUOUS
10
-8.212340
20
-116.735065
30
0.0
11
-8.218080
21
-118.255725
31
0.0
0
LINE
8
0
6
CONTINUOUS
10
-0.028850
20
-125.766575
30
0.0
11
1.488140
21
-125.631975
31
0.0
0
LINE
8
0
6
CONTINUOUS
10
7.376490
20
-121.227005
30
0.0
11
7.930390
21
-119.811355
31
0.0
0
LINE
8
0
6
CONTINUOUS
10
1.488140
20
-125.631975
30
0.0
11
2.954500
21
-125.221305
31
0.0
0
LINE
8
0
6
CONTINUOUS
10
2.954500
20
-125.221305
30
0.0
11
4.320320
21
-124.548545
31
0.0
0
LINE
8
0
6
CONTINUOUS
10
7.930390
20
-119.811355
30
0.0
11
8.220680
21
-118.316855
31
0.0
0
LINE
8
0
6
CONTINUOUS
10
5.585260
20
-111.457495
30
0.0
11
4.373400
21
-110.536515
31
0.0
0
LINE
8
0
6
CONTINUOUS
10
3.012720
20
-109.853525
30
0.0
11
1.549460
21
-109.431925
31
0.0
0
LINE
8
0
6
CONTINUOUS
10
-8.218080
20
-118.255725
30
0.0
11
-7.943970
21
-119.751545
31
0.0
0
LINE
8
0
6
CONTINUOUS
10
-1.544770
20
-125.620645
30
0.0
11
-3.007970
21
-125.198905
31
0.0
0
LINE
8
0
6
CONTINUOUS
10
-3.007970
20
-125.198905
30
0.0
11
-4.368720
21
-124.516005
31
0.0
0
LINE
8
0
6
CONTINUOUS
10
-1.544770
20
-125.620645
30
0.0
11
-0.028850
21
-125.766575
31
0.0
0
LINE
8
0
6
CONTINUOUS
10
6.607180
20
-112.585075
30
0.0
11
7.402770
21
-113.881165
31
0.0
0
LINE
8
0
6
CONTINUOUS
10
4.320320
20
-124.548545
30
0.0
11
5.539290
21
-123.636865
31
0.0
0
LINE
8
0
6
CONTINUOUS
10
6.607180
20
-112.585075
30
0.0
11
5.585260
21
-111.457495
31
0.0
0
LINE
8
0
6
CONTINUOUS
10
7.954480
20
-115.300055
30
0.0
11
8.212420
21
-116.798505
31
0.0
0
LINE
8
0
6
CONTINUOUS
10
7.954480
20
-115.300055
30
0.0
11
7.402770
21
-113.881165
31
0.0
0
LINE
8
0
6
CONTINUOUS
10
6.569390
20
-122.516965
30
0.0
11
7.376490
21
-121.227005
31
0.0
0
LINE
8
0
6
CONTINUOUS
10
5.539290
20
-123.636865
30
0.0
11
6.569390
21
-122.516965
31
0.0
0
LINE
8
0
6
CONTINUOUS
10
4.185930
20
-110.829175
30
0.0
11
2.883810
21
-110.175565
31
0.0
0
LINE
8
0
6
CONTINUOUS
10
1.483520
20
-109.772125
30
0.0
11
0.032840
21
-109.632465
31
0.0
0
LINE
8
0
6
CONTINUOUS
10
7.059790
20
-121.059605
30
0.0
11
7.589860
21
-119.704865
31
0.0
0
LINE
8
0
6
CONTINUOUS
10
2.828100
20
-124.881985
30
0.0
11
4.135140
21
-124.238175
31
0.0
0
LINE
8
0
6
CONTINUOUS
10
7.589860
20
-119.704865
30
0.0
11
7.867650
21
-118.274685
31
0.0
0
LINE
8
0
6
CONTINUOUS
10
5.345650
20
-111.710505
30
0.0
11
4.185930
21
-110.829175
31
0.0
0
LINE
8
0
6
CONTINUOUS
10
2.883810
20
-110.175565
30
0.0
11
1.483520
21
-109.772125
31
0.0
0
LINE
8
0
6
CONTINUOUS
10
7.084940
20
-114.029875
30
0.0
11
6.323590
21
-112.789565
31
0.0
0
LINE
8
0
6
CONTINUOUS
10
4.135140
20
-124.238175
30
0.0
11
5.301660
21
-123.365755
31
0.0
0
LINE
8
0
6
CONTINUOUS
10
6.323590
20
-112.789565
30
0.0
11
5.345650
21
-111.710505
31
0.0
0
LINE
8
0
6
CONTINUOUS
10
7.859750
20
-116.821685
30
0.0
11
7.612910
21
-115.387715
31
0.0
0
LINE
8
0
6
CONTINUOUS
10
7.612910
20
-115.387715
30
0.0
11
7.084940
21
-114.029875
31
0.0
0
LINE
8
0
6
CONTINUOUS
10
6.287420
20
-122.294055
30
0.0
11
7.059790
21
-121.059605
31
0.0
0
LINE
8
0
6
CONTINUOUS
10
5.301660
20
-123.365755
30
0.0
11
6.287420
21
-122.294055
31
0.0
0
LINE
8
0
6
CONTINUOUS
10
7.859750
20
-116.821685
30
0.0
11
7.867650
21
-118.274685
31
0.0
0
LINE
8
0
6
CONTINUOUS
10
8.220680
20
-118.316855
30
0.0
11
8.212420
21
-116.798505
31
0.0
0
LINE
8
0
6
CONTINUOUS
10
54.433820
20
-130.571625
30
0.0
11
57.253280
21
-127.162845
31
0.0
0
LINE
8
0
6
CONTINUOUS
10
-60.002710
20
-109.625005
30
0.0
11
-60.014910
21
-114.070755
31
0.0
0
LINE
8
0
6
CONTINUOUS
10
-59.994670
20
-61.535275
30
0.0
11
-59.994670
21
-100.500005
31
0.0
0
LINE
8
0
6
CONTINUOUS
10
59.994670
20
-61.535275
30
0.0
11
59.994670
21
-60.500025
31
0.0
0
LINE
8
0
6
CONTINUOUS
10
42.110640
20
-135.496225
30
0.0
11
46.588730
21
-134.926295
31
0.0
0
LINE
8
0
6
CONTINUOUS
10
46.588730
20
-134.926295
30
0.0
11
50.781140
21
-133.253125
31
0.0
0
LINE
8
0
6
CONTINUOUS
10
50.781140
20
-133.253125
30
0.0
11
54.418680
21
-130.585925
31
0.0
0
LINE
8
0
6
CONTINUOUS
10
54.418680
20
-130.585925
30
0.0
11
57.271890
21
-127.095695
31
0.0
0
LINE
8
0
6
CONTINUOUS
10
57.271890
20
-127.095695
30
0.0
11
59.161530
21
-123.004235
31
0.0
0
LINE
8
0
6
CONTINUOUS
10
59.161530
20
-123.004235
30
0.0
11
59.942840
21
-118.571715
31
0.0
0
LINE
8
0
6
CONTINUOUS
10
59.942840
20
-118.571715
30
0.0
11
60.017940
21
-114.056005
31
0.0
0
LINE
8
0
6
CONTINUOUS
10
-60.017940
20
-114.056025
30
0.0
11
-59.942830
21
-118.571715
31
0.0
0
LINE
8
0
6
CONTINUOUS
10
-59.942830
20
-118.571715
30
0.0
11
-59.161540
21
-123.004255
31
0.0
0
LINE
8
0
6
CONTINUOUS
10
-59.161540
20
-123.004255
30
0.0
11
-57.271890
21
-127.095695
31
0.0
0
LINE
8
0
6
CONTINUOUS
10
-57.271890
20
-127.095695
30
0.0
11
-54.418690
21
-130.585925
31
0.0
0
LINE
8
0
6
CONTINUOUS
10
-54.418690
20
-130.585925
30
0.0
11
-50.781140
21
-133.253145
31
0.0
0
LINE
8
0
6
CONTINUOUS
10
-50.781140
20
-133.253145
30
0.0
11
-46.588720
21
-134.926295
31
0.0
0
LINE
8
0
6
CONTINUOUS
10
-46.588720
20
-134.926295
30
0.0
11
-42.110630
21
-135.496225
31
0.0
0
LINE
8
0
6
CONTINUOUS
10
-42.110630
20
-135.496225
30
0.0
11
42.110640
21
-135.496225
31
0.0
0
LINE
8
0
6
CONTINUOUS
10
59.994670
20
-109.536395
30
0.0
11
59.994670
21
-105.018205
31
0.0
0
LINE
8
0
6
CONTINUOUS
10
59.994670
20
-105.018205
30
0.0
11
59.994670
21
-100.500005
31
0.0
0
LINE
8
0
6
CONTINUOUS
10
-59.994670
20
-105.018205
30
0.0
11
-59.994670
21
-109.536395
31
0.0
0
LINE
8
0
6
CONTINUOUS
10
-59.994670
20
-100.500005
30
0.0
11
-59.994670
21
-105.018205
31
0.0
0
LINE
8
0
6
CONTINUOUS
10
-59.994670
20
-109.536395
30
0.0
11
-60.017940
21
-114.056025
31
0.0
0
LINE
8
0
6
CONTINUOUS
10
60.017940
20
-114.056005
30
0.0
11
59.994670
21
-109.536395
31
0.0
0
LINE
8
0
6
CONTINUOUS
10
-59.629220
20
-60.500015
30
0.0
11
-59.994670
21
-60.500015
31
0.0
0
LINE
8
0
6
CONTINUOUS
10
-59.629220
20
-60.500025
30
0.0
11
59.629220
21
-60.500025
31
0.0
0
LINE
8
0
6
CONTINUOUS
10
59.629220
20
-60.500015
30
0.0
11
-59.629220
21
-60.500015
31
0.0
0
LINE
8
0
6
CONTINUOUS
10
59.629220
20
-60.500025
30
0.0
11
59.994670
21
-60.500025
31
0.0
0
LINE
8
0
6
CONTINUOUS
10
59.994670
20
-60.500015
30
0.0
11
59.629220
21
-60.500015
31
0.0
0
LINE
8
0
6
CONTINUOUS
10
59.994670
20
-100.500005
30
0.0
11
59.994670
21
-61.535275
31
0.0
0
LINE
8
0
6
CONTINUOUS
10
-59.994670
20
-60.500025
30
0.0
11
-59.994670
21
-61.535275
31
0.0
0
LINE
8
0
6
CONTINUOUS
10
-59.629220
20
-60.500025
30
0.0
11
-59.994670
21
-60.500025
31
0.0
0
LINE
8
0
6
CONTINUOUS
10
0.295610
20
32.437705
30
0.0
11
-6.037810
21
31.872665
31
0.0
0
LINE
8
0
6
CONTINUOUS
10
-31.904216
20
-5.675495
30
0.0
11
-31.871810
21
-6.037905
31
0.0
0
LINE
8
0
6
CONTINUOUS
10
-12.686900
20
-29.855635
30
0.0
11
-6.618690
21
-31.756735
31
0.0
0
LINE
8
0
6
CONTINUOUS
10
30.081900
20
12.139665
30
0.0
11
27.136000
21
17.775345
31
0.0
0
LINE
8
0
6
CONTINUOUS
10
6.037690
20
-31.872705
30
0.0
11
12.139870
21
-30.082385
31
0.0
0
LINE
8
0
6
CONTINUOUS
10
-31.871810
20
-6.037905
30
0.0
11
-30.081870
21
-12.139955
31
0.0
0
LINE
8
0
6
CONTINUOUS
10
-26.807160
20
18.267535
30
0.0
11
-29.855540
21
12.686805
31
0.0
0
LINE
8
0
6
CONTINUOUS
10
-12.140090
20
30.082215
30
0.0
11
-17.775790
21
27.135505
31
0.0
0
LINE
8
0
6
CONTINUOUS
10
27.136000
20
17.775345
30
0.0
11
23.146250
21
22.727885
31
0.0
0
LINE
8
0
6
CONTINUOUS
10
31.756750
20
-6.618545
30
0.0
11
32.438030
21
-0.295895
31
0.0
0
LINE
8
0
6
CONTINUOUS
10
22.727790
20
-23.146965
30
0.0
11
26.806800
21
-18.267745
31
0.0
0
LINE
8
0
6
CONTINUOUS
10
32.438030
20
-0.295895
30
0.0
11
31.872120
21
6.037655
31
0.0
0
LINE
8
0
6
CONTINUOUS
10
17.776070
20
-27.135745
30
0.0
11
22.727790
21
-23.146965
31
0.0
0
LINE
8
0
6
CONTINUOUS
10
-30.081870
20
-12.139955
30
0.0
11
-27.136110
21
-17.775405
31
0.0
0
LINE
8
0
6
CONTINUOUS
10
18.268120
20
26.806525
30
0.0
11
12.687100
21
29.855225
31
0.0
0
LINE
8
0
6
CONTINUOUS
10
-29.855540
20
12.686805
30
0.0
11
-31.756870
21
6.618475
31
0.0
0
LINE
8
0
6
CONTINUOUS
10
-23.146600
20
-22.727805
30
0.0
11
-18.268240
21
-26.806575
31
0.0
0
LINE
8
0
6
CONTINUOUS
10
12.687100
20
29.855225
30
0.0
11
6.618570
21
31.756675
31
0.0
0
LINE
8
0
6
CONTINUOUS
10
-17.775790
20
27.135505
30
0.0
11
-22.728010
21
23.146325
31
0.0
0
LINE
8
0
6
CONTINUOUS
10
-0.295550
20
-32.438225
30
0.0
11
6.037690
21
-31.872705
31
0.0
0
LINE
8
0
6
CONTINUOUS
10
23.146250
20
22.727885
30
0.0
11
18.268120
21
26.806525
31
0.0
0
LINE
8
0
6
CONTINUOUS
10
6.618570
20
31.756675
30
0.0
11
0.295610
21
32.437705
31
0.0
0
LINE
8
0
6
CONTINUOUS
10
26.806800
20
-18.267745
30
0.0
11
29.855390
21
-12.686885
31
0.0
0
LINE
8
0
6
CONTINUOUS
10
12.139870
20
-30.082385
30
0.0
11
17.776070
21
-27.135745
31
0.0
0
LINE
8
0
6
CONTINUOUS
10
-27.136110
20
-17.775405
30
0.0
11
-23.146600
21
-22.727805
31
0.0
0
LINE
8
0
6
CONTINUOUS
10
31.872120
20
6.037655
30
0.0
11
30.081900
21
12.139665
31
0.0
0
LINE
8
0
6
CONTINUOUS
10
-31.756870
20
6.618475
30
0.0
11
-31.795312
21
6.261715
31
0.0
0
LINE
8
0
6
CONTINUOUS
10
-22.728010
20
23.146325
30
0.0
11
-26.807160
21
18.267535
31
0.0
0
LINE
8
0
6
CONTINUOUS
10
-6.618690
20
-31.756735
30
0.0
11
-0.295550
21
-32.438225
31
0.0
0
LINE
8
0
6
CONTINUOUS
10
-6.037810
20
31.872665
30
0.0
11
-12.140090
21
30.082215
31
0.0
0
LINE
8
0
6
CONTINUOUS
10
29.855390
20
-12.686885
30
0.0
11
31.756750
21
-6.618545
31
0.0
0
LINE
8
0
6
CONTINUOUS
10
-18.268240
20
-26.806575
30
0.0
11
-12.686900
21
-29.855635
31
0.0
0
LINE
8
0
6
CONTINUOUS
10
-12.570940
20
-29.582745
30
0.0
11
-18.101270
21
-26.561555
31
0.0
0
LINE
8
0
6
CONTINUOUS
10
31.466480
20
-6.558045
30
0.0
11
29.582500
21
-12.570935
31
0.0
0
LINE
8
0
6
CONTINUOUS
10
-12.029120
20
29.807255
30
0.0
11
-5.982630
21
31.581335
31
0.0
0
LINE
8
0
6
CONTINUOUS
10
-0.292840
20
-32.141735
30
0.0
11
-6.558190
21
-31.466465
31
0.0
0
LINE
8
0
6
CONTINUOUS
10
-26.562130
20
18.100565
30
0.0
11
-22.520270
21
22.934755
31
0.0
0
LINE
8
0
6
CONTINUOUS
10
-32.141650
20
0.293115
30
0.0
11
-31.466600
21
6.557975
31
0.0
0
LINE
8
0
6
CONTINUOUS
10
29.806930
20
12.028715
30
0.0
11
31.580790
21
5.982465
31
0.0
0
LINE
8
0
6
CONTINUOUS
10
-22.935040
20
-22.520055
30
0.0
11
-26.888080
21
-17.612935
31
0.0
0
LINE
8
0
6
CONTINUOUS
10
17.613600
20
-26.887715
30
0.0
11
12.028910
21
-29.807425
31
0.0
0
LINE
8
0
6
CONTINUOUS
10
29.582500
20
-12.570935
30
0.0
11
26.561770
21
-18.100785
31
0.0
0
LINE
8
0
6
CONTINUOUS
10
0.292890
20
32.141215
30
0.0
11
6.558070
21
31.466405
31
0.0
0
LINE
8
0
6
CONTINUOUS
10
18.101150
20
26.561505
30
0.0
11
22.934690
21
22.520145
31
0.0
0
LINE
8
0
6
CONTINUOUS
10
5.982500
20
-31.581375
30
0.0
11
-0.292840
21
-32.141735
31
0.0
0
LINE
8
0
6
CONTINUOUS
10
-22.520270
20
22.934755
30
0.0
11
-17.613310
21
26.887475
31
0.0
0
LINE
8
0
6
CONTINUOUS
10
6.558070
20
31.466405
30
0.0
11
12.571140
21
29.582335
31
0.0
0
LINE
8
0
6
CONTINUOUS
10
-18.101270
20
-26.561555
30
0.0
11
-22.935040
21
-22.520055
31
0.0
0
LINE
8
0
6
CONTINUOUS
10
-31.466600
20
6.557975
30
0.0
11
-29.582650
21
12.570855
31
0.0
0
LINE
8
0
6
CONTINUOUS
10
12.571140
20
29.582335
30
0.0
11
18.101150
21
26.561505
31
0.0
0
LINE
8
0
6
CONTINUOUS
10
-26.888080
20
-17.612935
30
0.0
11
-29.806900
21
-12.029015
31
0.0
0
LINE
8
0
6
CONTINUOUS
10
22.520040
20
-22.935395
30
0.0
11
17.613600
21
-26.887715
31
0.0
0
LINE
8
0
6
CONTINUOUS
10
31.580790
20
5.982465
30
0.0
11
32.141530
21
-0.293195
31
0.0
0
LINE
8
0
6
CONTINUOUS
10
26.561770
20
-18.100785
30
0.0
11
22.520040
21
-22.935395
31
0.0
0
LINE
8
0
6
CONTINUOUS
10
32.141530
20
-0.293195
30
0.0
11
31.466480
21
-6.558045
31
0.0
0
LINE
8
0
6
CONTINUOUS
10
22.934690
20
22.520145
30
0.0
11
26.887960
21
17.612875
31
0.0
0
LINE
8
0
6
CONTINUOUS
10
-17.613310
20
26.887475
30
0.0
11
-12.029120
21
29.807255
31
0.0
0
LINE
8
0
6
CONTINUOUS
10
-29.582650
20
12.570855
30
0.0
11
-26.562130
21
18.100565
31
0.0
0
LINE
8
0
6
CONTINUOUS
10
-29.806900
20
-12.029015
30
0.0
11
-31.580490
21
-5.982705
31
0.0
0
LINE
8
0
6
CONTINUOUS
10
12.028910
20
-29.807425
30
0.0
11
5.982500
21
-31.581375
31
0.0
0
LINE
8
0
6
CONTINUOUS
10
26.887960
20
17.612875
30
0.0
11
29.806930
21
12.028715
31
0.0
0
LINE
8
0
6
CONTINUOUS
10
-6.558190
20
-31.466465
30
0.0
11
-12.570940
21
-29.582745
31
0.0
0
LINE
8
0
6
CONTINUOUS
10
-31.580490
20
-5.982705
30
0.0
11
-32.141650
21
0.293115
31
0.0
0
LINE
8
0
6
CONTINUOUS
10
-5.982630
20
31.581335
30
0.0
11
0.292890
21
32.141215
31
0.0
0
LINE
8
0
6
CONTINUOUS
10
-33.720260
20
-5.675495
30
0.0
11
-31.904216
21
-5.675495
31
0.0
0
LINE
8
0
6
CONTINUOUS
10
-31.795312
20
6.261715
30
0.0
11
-33.720260
21
6.261715
31
0.0
0
LINE
8
0
6
CONTINUOUS
10
-34.311300
20
-4.588825
30
0.0
11
-34.311300
21
-5.411355
31
0.0
0
LINE
8
0
6
CONTINUOUS
10
-34.311300
20
2.051375
30
0.0
11
-34.311300
21
0.202545
31
0.0
0
LINE
8
0
6
CONTINUOUS
10
-34.311300
20
6.261715
30
0.0
11
-34.311300
21
5.941605
31
0.0
0
LINE
8
0
6
CONTINUOUS
10
-33.720260
20
6.261715
30
0.0
11
-34.311300
21
6.261715
31
0.0
0
LINE
8
0
6
CONTINUOUS
10
-34.311300
20
-3.288415
30
0.0
11
-34.311300
21
-4.588825
31
0.0
0
LINE
8
0
6
CONTINUOUS
10
-34.311300
20
3.728095
30
0.0
11
-34.311300
21
2.051375
31
0.0
0
LINE
8
0
6
CONTINUOUS
10
-34.311300
20
-1.637425
30
0.0
11
-34.311300
21
-3.288415
31
0.0
0
LINE
8
0
6
CONTINUOUS
10
-34.311300
20
0.202545
30
0.0
11
-34.311300
21
-1.637425
31
0.0
0
LINE
8
0
6
CONTINUOUS
10
-34.311300
20
5.941605
30
0.0
11
-34.311300
21
5.068575
31
0.0
0
LINE
8
0
6
CONTINUOUS
10
-34.311300
20
5.068575
30
0.0
11
-34.311300
21
3.728095
31
0.0
0
LINE
8
0
6
CONTINUOUS
10
-34.311300
20
-5.675485
30
0.0
11
-33.720260
21
-5.675495
31
0.0
0
LINE
8
0
6
CONTINUOUS
10
-34.311300
20
-5.411355
30
0.0
11
-34.311300
21
-5.675485
31
0.0
0
LINE
8
0
6
CONTINUOUS
10
56.199940
20
2.547935
30
0.0
11
55.841460
21
2.536525
31
0.0
0
LINE
8
0
6
CONTINUOUS
10
55.841490
20
-2.537025
30
0.0
11
56.199980
21
-2.547985
31
0.0
0
LINE
8
0
6
CONTINUOUS
10
56.200490
20
-2.179845
30
0.0
11
56.199870
21
2.179795
31
0.0
0
LINE
8
0
6
CONTINUOUS
10
24.117160
20
21.788775
30
0.0
11
21.763730
21
24.140465
31
0.0
0
LINE
8
0
6
CONTINUOUS
10
-23.375440
20
22.582695
30
0.0
11
-25.562310
21
20.074595
31
0.0
0
LINE
8
0
6
CONTINUOUS
10
-20.944030
20
24.854305
30
0.0
11
-23.375440
21
22.582695
31
0.0
0
LINE
8
0
6
CONTINUOUS
10
-18.293500
20
-26.865445
30
0.0
11
-15.451100
21
-28.595645
31
0.0
0
LINE
8
0
6
CONTINUOUS
10
-20.944140
20
-24.854125
30
0.0
11
-18.293500
21
-26.865445
31
0.0
0
LINE
8
0
6
CONTINUOUS
10
-23.376050
20
-22.582875
30
0.0
11
-20.944140
21
-24.854125
31
0.0
0
LINE
8
0
6
CONTINUOUS
10
54.285520
20
2.512795
30
0.0
11
53.317250
21
2.507345
31
0.0
0
LINE
8
0
6
CONTINUOUS
10
55.092460
20
2.519985
30
0.0
11
54.285520
21
2.512795
31
0.0
0
LINE
8
0
6
CONTINUOUS
10
53.317250
20
2.507345
30
0.0
11
52.235110
21
2.503875
31
0.0
0
LINE
8
0
6
CONTINUOUS
10
26.218880
20
19.208655
30
0.0
11
24.117160
21
21.788775
31
0.0
0
LINE
8
0
6
CONTINUOUS
10
33.806420
20
3.814415
30
0.0
11
32.856550
21
4.766285
31
0.0
0
LINE
8
0
6
CONTINUOUS
10
36.213640
20
2.653375
30
0.0
11
34.944550
21
3.098095
31
0.0
0
LINE
8
0
6
CONTINUOUS
10
31.700430
20
7.175985
30
0.0
11
30.800720
21
10.379175
31
0.0
0
LINE
8
0
6
CONTINUOUS
10
52.142960
20
-2.503745
30
0.0
11
53.230100
21
-2.507015
31
0.0
0
LINE
8
0
6
CONTINUOUS
10
53.230100
20
-2.507015
30
0.0
11
54.208050
21
-2.512335
31
0.0
0
LINE
8
0
6
CONTINUOUS
10
34.944590
20
-3.098065
30
0.0
11
36.213690
21
-2.653365
31
0.0
0
LINE
8
0
6
CONTINUOUS
10
32.142620
20
-5.905885
30
0.0
11
32.856520
21
-4.766275
31
0.0
0
LINE
8
0
6
CONTINUOUS
10
55.030550
20
-2.519295
30
0.0
11
55.655140
21
-2.527785
31
0.0
0
LINE
8
0
6
CONTINUOUS
10
37.549960
20
-2.502585
30
0.0
11
50.999960
21
-2.502615
31
0.0
0
LINE
8
0
6
CONTINUOUS
10
28.045040
20
-16.427445
30
0.0
11
29.577940
21
-13.474445
31
0.0
0
LINE
8
0
6
CONTINUOUS
10
26.218880
20
-19.209625
30
0.0
11
28.045040
21
-16.427445
31
0.0
0
LINE
8
0
6
CONTINUOUS
10
24.117210
20
-21.789115
30
0.0
11
26.218880
21
-19.209625
31
0.0
0
LINE
8
0
6
CONTINUOUS
10
16.398060
20
-28.062965
30
0.0
11
19.180850
21
-26.239425
31
0.0
0
LINE
8
0
6
CONTINUOUS
10
13.442550
20
29.592385
30
0.0
11
10.346860
21
30.811175
31
0.0
0
LINE
8
0
6
CONTINUOUS
10
16.398010
20
28.062325
30
0.0
11
13.442550
21
29.592385
31
0.0
0
LINE
8
0
6
CONTINUOUS
10
19.180900
20
26.239515
30
0.0
11
16.398010
21
28.062325
31
0.0
0
LINE
8
0
6
CONTINUOUS
10
7.142350
20
-31.708745
30
0.0
11
10.346450
21
-30.811545
31
0.0
0
LINE
8
0
6
CONTINUOUS
10
10.346450
20
-30.811545
30
0.0
11
13.442730
21
-29.592715
31
0.0
0
LINE
8
0
6
CONTINUOUS
10
-2.782540
20
-32.383015
30
0.0
11
0.543710
21
-32.498425
31
0.0
0
LINE
8
0
6
CONTINUOUS
10
30.800860
20
-10.379885
30
0.0
11
31.700180
21
-7.176165
31
0.0
0
LINE
8
0
6
CONTINUOUS
10
3.863160
20
-32.272305
30
0.0
11
7.142350
21
-31.708745
31
0.0
0
LINE
8
0
6
CONTINUOUS
10
0.543710
20
-32.498425
30
0.0
11
3.863160
21
-32.272305
31
0.0
0
LINE
8
0
6
CONTINUOUS
10
-27.480460
20
-17.356315
30
0.0
11
-25.562210
21
-20.075125
31
0.0
0
LINE
8
0
6
CONTINUOUS
10
-12.446350
20
-30.025645
30
0.0
11
-9.310990
21
-31.140375
31
0.0
0
LINE
8
0
6
CONTINUOUS
10
-15.450960
20
28.595775
30
0.0
11
-18.293380
21
26.865795
31
0.0
0
LINE
8
0
6
CONTINUOUS
10
-6.078750
20
31.929255
30
0.0
11
-9.311480
21
31.140335
31
0.0
0
LINE
8
0
6
CONTINUOUS
10
-2.781890
20
32.382905
30
0.0
11
-6.078750
21
31.929255
31
0.0
0
LINE
8
0
6
CONTINUOUS
10
-27.480760
20
17.356265
30
0.0
11
-29.111260
21
14.455385
31
0.0
0
LINE
8
0
6
CONTINUOUS
10
50.999940
20
2.502505
30
0.0
11
37.550010
21
2.502545
31
0.0
0
LINE
8
0
6
CONTINUOUS
10
-29.111110
20
-14.455485
30
0.0
11
-27.480460
21
-17.356315
31
0.0
0
LINE
8
0
6
CONTINUOUS
10
-31.974073
20
-5.675495
30
0.0
11
-31.443170
21
-8.231995
31
0.0
0
LINE
8
0
6
CONTINUOUS
10
-31.442760
20
8.231765
30
0.0
11
-31.852445
21
6.261715
31
0.0
0
LINE
8
0
6
CONTINUOUS
10
21.763730
20
24.140465
30
0.0
11
19.180900
21
26.239515
31
0.0
0
LINE
8
0
6
CONTINUOUS
10
3.863160
20
32.271605
30
0.0
11
0.543780
21
32.498095
31
0.0
0
LINE
8
0
6
CONTINUOUS
10
0.543780
20
32.498095
30
0.0
11
-2.781890
21
32.382905
31
0.0
0
LINE
8
0
6
CONTINUOUS
10
7.142390
20
31.707655
30
0.0
11
3.863160
21
32.271605
31
0.0
0
LINE
8
0
6
CONTINUOUS
10
-9.311480
20
31.140335
30
0.0
11
-12.446550
21
30.025255
31
0.0
0
LINE
8
0
6
CONTINUOUS
10
10.346860
20
30.811175
30
0.0
11
7.142390
21
31.707655
31
0.0
0
LINE
8
0
6
CONTINUOUS
10
-25.562310
20
20.074595
30
0.0
11
-27.480760
21
17.356265
31
0.0
0
LINE
8
0
6
CONTINUOUS
10
-29.111260
20
14.455385
30
0.0
11
-30.437000
21
11.403365
31
0.0
0
LINE
8
0
6
CONTINUOUS
10
-18.293380
20
26.865795
30
0.0
11
-20.944030
21
24.854305
31
0.0
0
LINE
8
0
6
CONTINUOUS
10
-12.446550
20
30.025255
30
0.0
11
-15.450960
21
28.595775
31
0.0
0
LINE
8
0
6
CONTINUOUS
10
-15.451100
20
-28.595645
30
0.0
11
-12.446350
21
-30.025645
31
0.0
0
LINE
8
0
6
CONTINUOUS
10
-30.436540
20
-11.403375
30
0.0
11
-29.111110
21
-14.455485
31
0.0
0
LINE
8
0
6
CONTINUOUS
10
-25.562210
20
-20.075125
30
0.0
11
-23.376050
21
-22.582875
31
0.0
0
LINE
8
0
6
CONTINUOUS
10
-30.437000
20
11.403365
30
0.0
11
-31.442760
21
8.231765
31
0.0
0
LINE
8
0
6
CONTINUOUS
10
-31.443170
20
-8.231995
30
0.0
11
-30.436540
21
-11.403375
31
0.0
0
LINE
8
0
6
CONTINUOUS
10
55.697470
20
2.528545
30
0.0
11
55.092460
21
2.519985
31
0.0
0
LINE
8
0
6
CONTINUOUS
10
52.235110
20
2.503875
30
0.0
11
50.999940
21
2.502505
31
0.0
0
LINE
8
0
6
CONTINUOUS
10
56.096250
20
2.538945
30
0.0
11
55.697470
21
2.528545
31
0.0
0
LINE
8
0
6
CONTINUOUS
10
28.045580
20
16.427485
30
0.0
11
26.218880
21
19.208655
31
0.0
0
LINE
8
0
6
CONTINUOUS
10
30.800720
20
10.379175
30
0.0
11
29.578280
21
13.474405
31
0.0
0
LINE
8
0
6
CONTINUOUS
10
29.578280
20
13.474405
30
0.0
11
28.045580
21
16.427485
31
0.0
0
LINE
8
0
6
CONTINUOUS
10
32.142620
20
5.905885
30
0.0
11
31.700430
21
7.175985
31
0.0
0
LINE
8
0
6
CONTINUOUS
10
37.550010
20
2.502545
30
0.0
11
36.213640
21
2.653375
31
0.0
0
LINE
8
0
6
CONTINUOUS
10
34.944550
20
3.098095
30
0.0
11
33.806420
21
3.814415
31
0.0
0
LINE
8
0
6
CONTINUOUS
10
32.856550
20
4.766285
30
0.0
11
32.142620
21
5.905885
31
0.0
0
LINE
8
0
6
CONTINUOUS
10
36.213690
20
-2.653365
30
0.0
11
37.549960
21
-2.502585
31
0.0
0
LINE
8
0
6
CONTINUOUS
10
33.806500
20
-3.814355
30
0.0
11
34.944590
21
-3.098065
31
0.0
0
LINE
8
0
6
CONTINUOUS
10
32.856520
20
-4.766275
30
0.0
11
33.806500
21
-3.814355
31
0.0
0
LINE
8
0
6
CONTINUOUS
10
54.208050
20
-2.512335
30
0.0
11
55.030550
21
-2.519295
31
0.0
0
LINE
8
0
6
CONTINUOUS
10
50.999960
20
-2.502615
30
0.0
11
52.142960
21
-2.503745
31
0.0
0
LINE
8
0
6
CONTINUOUS
10
31.700180
20
-7.176165
30
0.0
11
32.142620
21
-5.905885
31
0.0
0
LINE
8
0
6
CONTINUOUS
10
55.655140
20
-2.527785
30
0.0
11
56.084150
21
-2.538515
31
0.0
0
LINE
8
0
6
CONTINUOUS
10
-6.078690
20
-31.928815
30
0.0
11
-2.782540
21
-32.383015
31
0.0
0
LINE
8
0
6
CONTINUOUS
10
-9.310990
20
-31.140375
30
0.0
11
-6.078690
21
-31.928815
31
0.0
0
LINE
8
0
6
CONTINUOUS
10
29.577940
20
-13.474445
30
0.0
11
30.800860
21
-10.379885
31
0.0
0
LINE
8
0
6
CONTINUOUS
10
19.180850
20
-26.239425
30
0.0
11
21.763450
21
-24.140595
31
0.0
0
LINE
8
0
6
CONTINUOUS
10
13.442730
20
-29.592715
30
0.0
11
16.398060
21
-28.062965
31
0.0
0
LINE
8
0
6
CONTINUOUS
10
21.763450
20
-24.140595
30
0.0
11
24.117210
21
-21.789115
31
0.0
0
LINE
8
0
6
CONTINUOUS
10
56.199940
20
2.547935
30
0.0
11
56.096250
21
2.538945
31
0.0
0
LINE
8
0
6
CONTINUOUS
10
56.199870
20
2.179795
30
0.0
11
56.199940
21
2.547935
31
0.0
0
LINE
8
0
6
CONTINUOUS
10
56.199980
20
-2.547985
30
0.0
11
56.200490
21
-2.179845
31
0.0
0
LINE
8
0
6
CONTINUOUS
10
56.084150
20
-2.538515
30
0.0
11
56.199980
21
-2.547985
31
0.0
0
LINE
8
0
6
CONTINUOUS
10
-53.358100
20
-60.500015
30
0.0
11
-53.358100
21
-59.938465
31
0.0
0
LINE
8
0
6
CONTINUOUS
10
-53.358100
20
59.994685
30
0.0
11
-53.358100
21
60.500005
31
0.0
0
LINE
8
0
6
CONTINUOUS
10
53.358034
20
60.500005
30
0.0
11
53.358034
21
59.994685
31
0.0
0
LINE
8
0
6
CONTINUOUS
10
53.358006
20
-59.938465
30
0.0
11
53.358006
21
-60.500015
31
0.0
0
LINE
8
0
6
CONTINUOUS
10
53.999974
20
-60.500015
30
0.0
11
53.999974
21
-59.938465
31
0.0
0
LINE
8
0
6
CONTINUOUS
10
53.999996
20
59.994685
30
0.0
11
53.999996
21
60.500005
31
0.0
0
LINE
8
0
6
CONTINUOUS
10
-54.000000
20
60.500005
30
0.0
11
-54.000000
21
59.994685
31
0.0
0
LINE
8
0
6
CONTINUOUS
10
-54.000000
20
-59.938465
30
0.0
11
-54.000000
21
-60.500015
31
0.0
0
LINE
8
0
6
CONTINUOUS
10
-53.358100
20
60.500005
30
0.0
11
-53.358100
21
59.994685
31
0.0
0
LINE
8
0
6
CONTINUOUS
10
-53.358100
20
-59.938465
30
0.0
11
-53.358100
21
-60.500015
31
0.0
0
LINE
8
0
6
CONTINUOUS
10
53.358006
20
-60.500015
30
0.0
11
53.358006
21
-59.938465
31
0.0
0
LINE
8
0
6
CONTINUOUS
10
53.358034
20
59.994685
30
0.0
11
53.358034
21
60.500005
31
0.0
0
LINE
8
0
6
CONTINUOUS
10
53.358019
20
-2.519436
30
0.0
11
55.841490
21
-2.537025
31
0.0
0
LINE
8
0
6
CONTINUOUS
10
55.841460
20
2.536525
30
0.0
11
50.978410
21
2.502485
31
0.0
0
ENDSEC
0
EOF
