999
Erzeugt mit innoplus bad 
0
SECTION
2
HEADER
9
$ACADVER
1
AC1009
9
$DWGCODEPAGE
3
ISO8859-1
0
ENDSEC
0
SECTION
2
TABLES
0
TABLE
2
LAYER
70
1
0
LAYER
2
0
70
0
62
7
6
CONTINUOUS
0
ENDTAB
0
ENDSEC
0
SECTION
2
ENTITIES
0
LINE
8
0
6
CONTINUOUS
10
-19.000000
20
-18.500000
30
0.0
11
-19.000000
21
-97.500000
31
0.0
0
LINE
8
0
6
CONTINUOUS
10
-18.999990
20
24.978750
30
0.0
11
-18.999990
21
4.372230
31
0.0
0
LINE
8
0
6
CONTINUOUS
10
-18.999990
20
4.372230
30
0.0
11
-19.000000
21
-19.400900
31
0.0
0
LINE
8
0
6
CONTINUOUS
10
-8.402320
20
19.582160
30
0.0
11
-5.516660
21
18.712010
31
0.0
0
LINE
8
0
6
CONTINUOUS
10
-11.873730
20
22.868120
30
0.0
11
-11.188000
21
21.665360
31
0.0
0
LINE
8
0
6
CONTINUOUS
10
-11.188000
20
21.665360
30
0.0
11
-10.056330
21
20.523190
31
0.0
0
LINE
8
0
6
CONTINUOUS
10
-10.056330
20
20.523190
30
0.0
11
-8.402320
21
19.582160
31
0.0
0
LINE
8
0
6
CONTINUOUS
10
-12.970460
20
26.695310
30
0.0
11
-12.821350
21
25.464460
31
0.0
0
LINE
8
0
6
CONTINUOUS
10
-12.382210
20
24.242550
30
0.0
11
-11.873730
21
22.868120
31
0.0
0
LINE
8
0
6
CONTINUOUS
10
-12.821350
20
25.464460
30
0.0
11
-12.382210
21
24.242550
31
0.0
0
LINE
8
0
6
CONTINUOUS
10
-13.751320
20
46.495190
30
0.0
11
-14.392250
21
46.465070
31
0.0
0
LINE
8
0
6
CONTINUOUS
10
-13.083210
20
27.784440
30
0.0
11
-13.063140
21
27.590600
31
0.0
0
LINE
8
0
6
CONTINUOUS
10
-18.822660
20
46.500000
30
0.0
11
-18.993970
21
46.500000
31
0.0
0
LINE
8
0
6
CONTINUOUS
10
-16.953870
20
46.500000
30
0.0
11
-17.848900
21
46.500000
31
0.0
0
LINE
8
0
6
CONTINUOUS
10
-17.848900
20
46.500000
30
0.0
11
-18.822660
21
46.500000
31
0.0
0
LINE
8
0
6
CONTINUOUS
10
0.000000
20
46.500000
30
0.0
11
-16.433360
21
46.500000
31
0.0
0
LINE
8
0
6
CONTINUOUS
10
0.000000
20
46.495190
30
0.0
11
-13.329140
21
46.495190
31
0.0
0
LINE
8
0
6
CONTINUOUS
10
-13.281500
20
43.727950
30
0.0
11
-13.264850
21
40.209920
31
0.0
0
LINE
8
0
6
CONTINUOUS
10
-13.264850
20
40.209920
30
0.0
11
-13.201110
21
35.541150
31
0.0
0
LINE
8
0
6
CONTINUOUS
10
-16.433360
20
46.500000
30
0.0
11
-16.953870
21
46.500000
31
0.0
0
LINE
8
0
6
CONTINUOUS
10
-13.201110
20
35.541150
30
0.0
11
-13.083210
21
27.784440
31
0.0
0
LINE
8
0
6
CONTINUOUS
10
-13.329140
20
46.495190
30
0.0
11
-13.751320
21
46.495190
31
0.0
0
LINE
8
0
6
CONTINUOUS
10
-13.063140
20
27.590600
30
0.0
11
-12.970460
21
26.695310
31
0.0
0
LINE
8
0
6
CONTINUOUS
10
-18.999990
20
46.500000
30
0.0
11
-18.999990
21
46.253990
31
0.0
0
LINE
8
0
6
CONTINUOUS
10
-18.999990
20
46.253990
30
0.0
11
-18.999990
21
43.957840
31
0.0
0
LINE
8
0
6
CONTINUOUS
10
-18.999990
20
36.676730
30
0.0
11
-18.999990
21
24.978750
31
0.0
0
LINE
8
0
6
CONTINUOUS
10
-18.999990
20
43.957840
30
0.0
11
-18.999990
21
36.676730
31
0.0
0
LINE
8
0
6
CONTINUOUS
10
19.000000
20
-97.500000
30
0.0
11
19.000000
21
-18.500000
31
0.0
0
LINE
8
0
6
CONTINUOUS
10
18.999990
20
4.372230
30
0.0
11
18.999990
21
24.978750
31
0.0
0
LINE
8
0
6
CONTINUOUS
10
19.000000
20
-19.400900
30
0.0
11
18.999990
21
4.372230
31
0.0
0
LINE
8
0
6
CONTINUOUS
10
5.516660
20
18.712010
30
0.0
11
8.402320
21
19.582160
31
0.0
0
LINE
8
0
6
CONTINUOUS
10
11.188000
20
21.665360
30
0.0
11
11.873730
21
22.868120
31
0.0
0
LINE
8
0
6
CONTINUOUS
10
10.056330
20
20.523190
30
0.0
11
11.188000
21
21.665360
31
0.0
0
LINE
8
0
6
CONTINUOUS
10
8.402320
20
19.582160
30
0.0
11
10.056330
21
20.523190
31
0.0
0
LINE
8
0
6
CONTINUOUS
10
12.821350
20
25.464460
30
0.0
11
12.970460
21
26.695310
31
0.0
0
LINE
8
0
6
CONTINUOUS
10
12.382210
20
24.242550
30
0.0
11
12.821350
21
25.464460
31
0.0
0
LINE
8
0
6
CONTINUOUS
10
11.873730
20
22.868120
30
0.0
11
12.382210
21
24.242550
31
0.0
0
LINE
8
0
6
CONTINUOUS
10
14.392250
20
46.465070
30
0.0
11
13.751320
21
46.495190
31
0.0
0
LINE
8
0
6
CONTINUOUS
10
13.063140
20
27.590600
30
0.0
11
13.083210
21
27.784440
31
0.0
0
LINE
8
0
6
CONTINUOUS
10
18.993970
20
46.500000
30
0.0
11
18.822660
21
46.500000
31
0.0
0
LINE
8
0
6
CONTINUOUS
10
17.848900
20
46.500000
30
0.0
11
16.953870
21
46.500000
31
0.0
0
LINE
8
0
6
CONTINUOUS
10
18.822660
20
46.500000
30
0.0
11
17.848900
21
46.500000
31
0.0
0
LINE
8
0
6
CONTINUOUS
10
16.433360
20
46.500000
30
0.0
11
0.000000
21
46.500000
31
0.0
0
LINE
8
0
6
CONTINUOUS
10
13.329140
20
46.495190
30
0.0
11
0.000000
21
46.495190
31
0.0
0
LINE
8
0
6
CONTINUOUS
10
13.264850
20
40.209920
30
0.0
11
13.281500
21
43.727950
31
0.0
0
LINE
8
0
6
CONTINUOUS
10
13.201110
20
35.541150
30
0.0
11
13.264850
21
40.209920
31
0.0
0
LINE
8
0
6
CONTINUOUS
10
16.953870
20
46.500000
30
0.0
11
16.433360
21
46.500000
31
0.0
0
LINE
8
0
6
CONTINUOUS
10
13.083210
20
27.784440
30
0.0
11
13.201110
21
35.541150
31
0.0
0
LINE
8
0
6
CONTINUOUS
10
13.751320
20
46.495190
30
0.0
11
13.329140
21
46.495190
31
0.0
0
LINE
8
0
6
CONTINUOUS
10
12.970460
20
26.695310
30
0.0
11
13.063140
21
27.590600
31
0.0
0
LINE
8
0
6
CONTINUOUS
10
18.999990
20
46.253990
30
0.0
11
18.999990
21
46.500000
31
0.0
0
LINE
8
0
6
CONTINUOUS
10
18.999990
20
43.957840
30
0.0
11
18.999990
21
46.253990
31
0.0
0
LINE
8
0
6
CONTINUOUS
10
18.999990
20
24.978750
30
0.0
11
18.999990
21
36.676730
31
0.0
0
LINE
8
0
6
CONTINUOUS
10
18.999990
20
36.676730
30
0.0
11
18.999990
21
43.957840
31
0.0
0
LINE
8
0
6
CONTINUOUS
10
-2.975590
20
18.326130
30
0.0
11
0.000000
21
18.252140
31
0.0
0
LINE
8
0
6
CONTINUOUS
10
-5.516660
20
18.712010
30
0.0
11
-2.975590
21
18.326130
31
0.0
0
LINE
8
0
6
CONTINUOUS
10
0.000000
20
18.252140
30
0.0
11
2.975590
21
18.326130
31
0.0
0
LINE
8
0
6
CONTINUOUS
10
2.975590
20
18.326130
30
0.0
11
5.516660
21
18.712010
31
0.0
0
LINE
8
0
6
CONTINUOUS
10
-8.763250
20
21.524520
30
0.0
11
-8.334350
21
22.474160
31
0.0
0
LINE
8
0
6
CONTINUOUS
10
-8.334350
20
22.474160
30
0.0
11
-7.089620
21
23.330860
31
0.0
0
LINE
8
0
6
CONTINUOUS
10
-7.089620
20
23.330860
30
0.0
11
-5.150910
21
24.010730
31
0.0
0
LINE
8
0
6
CONTINUOUS
10
-5.150910
20
24.010730
30
0.0
11
-2.707990
21
24.447230
31
0.0
0
LINE
8
0
6
CONTINUOUS
10
-2.707990
20
24.447230
30
0.0
11
0.000000
21
24.597640
31
0.0
0
LINE
8
0
6
CONTINUOUS
10
8.334350
20
22.474160
30
0.0
11
8.763250
21
21.524520
31
0.0
0
LINE
8
0
6
CONTINUOUS
10
7.089620
20
23.330860
30
0.0
11
8.334350
21
22.474160
31
0.0
0
LINE
8
0
6
CONTINUOUS
10
5.150910
20
24.010730
30
0.0
11
7.089620
21
23.330860
31
0.0
0
LINE
8
0
6
CONTINUOUS
10
2.707990
20
24.447230
30
0.0
11
5.150910
21
24.010730
31
0.0
0
LINE
8
0
6
CONTINUOUS
10
0.000000
20
24.597640
30
0.0
11
2.707990
21
24.447230
31
0.0
0
LINE
8
0
6
CONTINUOUS
10
27.924870
20
-104.500000
30
0.0
11
29.272080
21
-104.500000
31
0.0
0
LINE
8
0
6
CONTINUOUS
10
-30.081320
20
-98.057880
30
0.0
11
-30.235200
21
-103.934490
31
0.0
0
LINE
8
0
6
CONTINUOUS
10
30.081270
20
-98.057880
30
0.0
11
30.079420
21
-97.986920
31
0.0
0
LINE
8
0
6
CONTINUOUS
10
-30.235200
20
-103.934490
30
0.0
11
-30.236580
21
-103.986920
31
0.0
0
LINE
8
0
6
CONTINUOUS
10
-20.250020
20
-104.500000
30
0.0
11
-0.000190
21
-104.500000
31
0.0
0
LINE
8
0
6
CONTINUOUS
10
-23.181830
20
-104.500000
30
0.0
11
-20.250020
21
-104.500000
31
0.0
0
LINE
8
0
6
CONTINUOUS
10
30.174030
20
-104.242400
30
0.0
11
30.236530
21
-103.986920
31
0.0
0
LINE
8
0
6
CONTINUOUS
10
-29.736750
20
-104.500000
30
0.0
11
-29.272450
21
-104.500000
31
0.0
0
LINE
8
0
6
CONTINUOUS
10
-29.990520
20
-104.430810
30
0.0
11
-29.736750
21
-104.500000
31
0.0
0
LINE
8
0
6
CONTINUOUS
10
-30.079470
20
-97.986920
30
0.0
11
-30.081320
21
-98.057880
31
0.0
0
LINE
8
0
6
CONTINUOUS
10
-29.272450
20
-104.500000
30
0.0
11
-27.925370
21
-104.500000
31
0.0
0
LINE
8
0
6
CONTINUOUS
10
-0.000060
20
-97.500000
30
0.0
11
-20.250110
21
-97.500000
31
0.0
0
LINE
8
0
6
CONTINUOUS
10
-20.250110
20
-97.500000
30
0.0
11
-23.133370
21
-97.500000
31
0.0
0
LINE
8
0
6
CONTINUOUS
10
-0.000190
20
-104.500000
30
0.0
11
20.249640
21
-104.500000
31
0.0
0
LINE
8
0
6
CONTINUOUS
10
20.249980
20
-97.500000
30
0.0
11
-0.000060
21
-97.500000
31
0.0
0
LINE
8
0
6
CONTINUOUS
10
25.826230
20
-104.500000
30
0.0
11
27.924870
21
-104.500000
31
0.0
0
LINE
8
0
6
CONTINUOUS
10
-27.797830
20
-97.500000
30
0.0
11
-29.122970
21
-97.500000
31
0.0
0
LINE
8
0
6
CONTINUOUS
10
-25.734080
20
-97.500000
30
0.0
11
-27.797830
21
-97.500000
31
0.0
0
LINE
8
0
6
CONTINUOUS
10
-29.825840
20
-97.564830
30
0.0
11
-30.008220
21
-97.742480
31
0.0
0
LINE
8
0
6
CONTINUOUS
10
-23.133370
20
-97.500000
30
0.0
11
-25.734080
21
-97.500000
31
0.0
0
LINE
8
0
6
CONTINUOUS
10
27.797830
20
-97.500000
30
0.0
11
25.733850
21
-97.500000
31
0.0
0
LINE
8
0
6
CONTINUOUS
10
25.733850
20
-97.500000
30
0.0
11
23.133070
21
-97.500000
31
0.0
0
LINE
8
0
6
CONTINUOUS
10
29.579610
20
-97.500000
30
0.0
11
29.122980
21
-97.500000
31
0.0
0
LINE
8
0
6
CONTINUOUS
10
29.825830
20
-97.564820
30
0.0
11
29.579610
21
-97.500000
31
0.0
0
LINE
8
0
6
CONTINUOUS
10
29.990460
20
-104.430810
30
0.0
11
30.174030
21
-104.242400
31
0.0
0
LINE
8
0
6
CONTINUOUS
10
23.181800
20
-104.500000
30
0.0
11
25.826230
21
-104.500000
31
0.0
0
LINE
8
0
6
CONTINUOUS
10
-25.826250
20
-104.500000
30
0.0
11
-23.181830
21
-104.500000
31
0.0
0
LINE
8
0
6
CONTINUOUS
10
-27.925370
20
-104.500000
30
0.0
11
-25.826250
21
-104.500000
31
0.0
0
LINE
8
0
6
CONTINUOUS
10
-30.174110
20
-104.242400
30
0.0
11
-29.990520
21
-104.430810
31
0.0
0
LINE
8
0
6
CONTINUOUS
10
23.133070
20
-97.500000
30
0.0
11
20.249980
21
-97.500000
31
0.0
0
LINE
8
0
6
CONTINUOUS
10
29.272080
20
-104.500000
30
0.0
11
29.736720
21
-104.500000
31
0.0
0
LINE
8
0
6
CONTINUOUS
10
29.736720
20
-104.500000
30
0.0
11
29.990460
21
-104.430810
31
0.0
0
LINE
8
0
6
CONTINUOUS
10
-29.579680
20
-97.500000
30
0.0
11
-29.825840
21
-97.564830
31
0.0
0
LINE
8
0
6
CONTINUOUS
10
-29.122970
20
-97.500000
30
0.0
11
-29.579680
21
-97.500000
31
0.0
0
LINE
8
0
6
CONTINUOUS
10
30.008210
20
-97.742480
30
0.0
11
29.825830
21
-97.564820
31
0.0
0
LINE
8
0
6
CONTINUOUS
10
20.249640
20
-104.500000
30
0.0
11
23.181800
21
-104.500000
31
0.0
0
LINE
8
0
6
CONTINUOUS
10
-30.236580
20
-103.986920
30
0.0
11
-30.174110
21
-104.242400
31
0.0
0
LINE
8
0
6
CONTINUOUS
10
-30.008220
20
-97.742480
30
0.0
11
-30.079470
21
-97.986920
31
0.0
0
LINE
8
0
6
CONTINUOUS
10
30.079420
20
-97.986920
30
0.0
11
30.008210
21
-97.742480
31
0.0
0
LINE
8
0
6
CONTINUOUS
10
29.122980
20
-97.500000
30
0.0
11
27.797830
21
-97.500000
31
0.0
0
LINE
8
0
6
CONTINUOUS
10
-7.948460
20
46.499970
30
0.0
11
-7.739474
21
49.473370
31
0.0
0
LINE
8
0
6
CONTINUOUS
10
-13.767020
20
46.499970
30
0.0
11
-13.405047
21
49.473370
31
0.0
0
LINE
8
0
6
CONTINUOUS
10
-15.478788
20
49.473370
30
0.0
11
-15.896756
21
46.500000
31
0.0
0
LINE
8
0
6
CONTINUOUS
10
-15.371500
20
76.745570
30
0.0
11
-11.168090
21
72.196130
31
0.0
0
LINE
8
0
6
CONTINUOUS
10
-11.168090
20
72.196130
30
0.0
11
-5.871500
21
69.275200
31
0.0
0
LINE
8
0
6
CONTINUOUS
10
-11.168090
20
78.791470
30
0.0
11
-5.871500
21
76.228360
31
0.0
0
LINE
8
0
6
CONTINUOUS
10
-5.871500
20
69.275200
30
0.0
11
-0.000170
21
68.268710
31
0.0
0
LINE
8
0
6
CONTINUOUS
10
-15.371510
20
100.136250
30
0.0
11
-15.371500
21
88.505710
31
0.0
0
LINE
8
0
6
CONTINUOUS
10
-11.168100
20
85.831480
30
0.0
11
-11.168110
21
98.674860
31
0.0
0
LINE
8
0
6
CONTINUOUS
10
-5.871500
20
84.067120
30
0.0
11
-0.000170
21
83.448170
31
0.0
0
LINE
8
0
6
CONTINUOUS
10
-18.070250
20
91.801650
30
0.0
11
-18.070260
21
101.974300
31
0.0
0
LINE
8
0
6
CONTINUOUS
10
-15.371500
20
76.745570
30
0.0
11
-18.070240
21
82.478230
31
0.0
0
LINE
8
0
6
CONTINUOUS
10
-18.995290
20
87.964520
30
0.0
11
-19.000170
21
82.478230
31
0.0
0
LINE
8
0
6
CONTINUOUS
10
-19.000170
20
82.478230
30
0.0
11
-19.000170
21
50.519590
31
0.0
0
LINE
8
0
6
CONTINUOUS
10
-19.000160
20
89.145100
30
0.0
11
-19.000160
21
87.790380
31
0.0
0
LINE
8
0
6
CONTINUOUS
10
-19.000160
20
89.329460
30
0.0
11
-19.000160
21
89.145100
31
0.0
0
LINE
8
0
6
CONTINUOUS
10
-19.000160
20
87.790380
30
0.0
11
-19.000170
21
82.478230
31
0.0
0
LINE
8
0
6
CONTINUOUS
10
-11.168090
20
49.473370
30
0.0
11
-5.871500
21
49.473370
31
0.0
0
LINE
8
0
6
CONTINUOUS
10
-18.070240
20
49.473370
30
0.0
11
-15.371490
21
49.473370
31
0.0
0
LINE
8
0
6
CONTINUOUS
10
-5.871500
20
49.473370
30
0.0
11
-0.000170
21
49.473370
31
0.0
0
LINE
8
0
6
CONTINUOUS
10
-19.000170
20
91.787420
30
0.0
11
-19.000160
21
89.329460
31
0.0
0
LINE
8
0
6
CONTINUOUS
10
-19.000170
20
50.519590
30
0.0
11
-19.000170
21
49.473370
31
0.0
0
LINE
8
0
6
CONTINUOUS
10
-19.000170
20
49.473370
30
0.0
11
-18.070240
21
49.473370
31
0.0
0
LINE
8
0
6
CONTINUOUS
10
-15.371490
20
49.473370
30
0.0
11
-11.168090
21
49.473370
31
0.0
0
LINE
8
0
6
CONTINUOUS
10
-19.000170
20
92.439180
30
0.0
11
-19.000170
21
91.787420
31
0.0
0
LINE
8
0
6
CONTINUOUS
10
-19.000170
20
93.449560
30
0.0
11
-19.000170
21
92.439180
31
0.0
0
LINE
8
0
6
CONTINUOUS
10
-19.000170
20
94.459920
30
0.0
11
-19.000170
21
93.449560
31
0.0
0
LINE
8
0
6
CONTINUOUS
10
-19.000170
20
95.470300
30
0.0
11
-19.000170
21
94.459920
31
0.0
0
LINE
8
0
6
CONTINUOUS
10
-15.371510
20
100.444340
30
0.0
11
-18.070260
21
102.245870
31
0.0
0
LINE
8
0
6
CONTINUOUS
10
-11.168110
20
99.003680
30
0.0
11
-15.371510
21
100.444340
31
0.0
0
LINE
8
0
6
CONTINUOUS
10
-5.871510
20
98.056780
30
0.0
11
-11.168110
21
99.003680
31
0.0
0
LINE
8
0
6
CONTINUOUS
10
-0.000180
20
97.723280
30
0.0
11
-5.871510
21
98.056780
31
0.0
0
LINE
8
0
6
CONTINUOUS
10
-0.000180
20
104.500000
30
0.0
11
-17.121880
21
104.500000
31
0.0
0
LINE
8
0
6
CONTINUOUS
10
-19.000190
20
104.288800
30
0.0
11
-19.000170
21
95.470300
31
0.0
0
LINE
8
0
6
CONTINUOUS
10
-18.880660
20
104.492790
30
0.0
11
-19.000190
21
104.288800
31
0.0
0
LINE
8
0
6
CONTINUOUS
10
-18.880660
20
104.492790
30
0.0
11
-18.538650
21
103.444720
31
0.0
0
LINE
8
0
6
CONTINUOUS
10
-17.121880
20
104.500000
30
0.0
11
-18.880660
21
104.492790
31
0.0
0
LINE
8
0
6
CONTINUOUS
10
-18.070260
20
101.974300
30
0.0
11
-18.070260
21
102.245870
31
0.0
0
LINE
8
0
6
CONTINUOUS
10
-18.538650
20
103.444720
30
0.0
11
-18.070260
21
102.245870
31
0.0
0
LINE
8
0
6
CONTINUOUS
10
-0.000170
20
49.473370
30
0.0
11
-0.000170
21
46.500000
31
0.0
0
LINE
8
0
6
CONTINUOUS
10
7.739134
20
49.473370
30
0.0
11
7.948118
21
46.500000
31
0.0
0
LINE
8
0
6
CONTINUOUS
10
15.896420
20
46.499970
30
0.0
11
15.478448
21
49.473370
31
0.0
0
LINE
8
0
6
CONTINUOUS
10
13.404699
20
49.473370
30
0.0
11
13.766676
21
46.500000
31
0.0
0
LINE
8
0
6
CONTINUOUS
10
11.167750
20
72.196130
30
0.0
11
15.371150
21
76.745570
31
0.0
0
LINE
8
0
6
CONTINUOUS
10
5.871150
20
69.275200
30
0.0
11
11.167750
21
72.196130
31
0.0
0
LINE
8
0
6
CONTINUOUS
10
5.871150
20
76.228360
30
0.0
11
11.167750
21
78.791470
31
0.0
0
LINE
8
0
6
CONTINUOUS
10
-0.000170
20
68.268710
30
0.0
11
5.871150
21
69.275200
31
0.0
0
LINE
8
0
6
CONTINUOUS
10
11.167750
20
98.674860
30
0.0
11
11.167750
21
85.831480
31
0.0
0
LINE
8
0
6
CONTINUOUS
10
15.371150
20
88.505710
30
0.0
11
15.371150
21
100.136250
31
0.0
0
LINE
8
0
6
CONTINUOUS
10
-0.000170
20
83.448170
30
0.0
11
5.871150
21
84.067120
31
0.0
0
LINE
8
0
6
CONTINUOUS
10
18.069900
20
101.974300
30
0.0
11
18.069900
21
91.801650
31
0.0
0
LINE
8
0
6
CONTINUOUS
10
18.069900
20
82.478230
30
0.0
11
15.371150
21
76.745570
31
0.0
0
LINE
8
0
6
CONTINUOUS
10
18.999830
20
82.478230
30
0.0
11
18.994950
21
87.964520
31
0.0
0
LINE
8
0
6
CONTINUOUS
10
18.999830
20
50.519590
30
0.0
11
18.999830
21
82.478230
31
0.0
0
LINE
8
0
6
CONTINUOUS
10
18.999830
20
89.145100
30
0.0
11
18.999830
21
89.329460
31
0.0
0
LINE
8
0
6
CONTINUOUS
10
18.999830
20
87.790380
30
0.0
11
18.999830
21
89.145100
31
0.0
0
LINE
8
0
6
CONTINUOUS
10
18.999830
20
82.478230
30
0.0
11
18.999830
21
87.790380
31
0.0
0
LINE
8
0
6
CONTINUOUS
10
5.871150
20
49.473370
30
0.0
11
11.167750
21
49.473370
31
0.0
0
LINE
8
0
6
CONTINUOUS
10
15.371150
20
49.473370
30
0.0
11
18.069900
21
49.473370
31
0.0
0
LINE
8
0
6
CONTINUOUS
10
-0.000170
20
49.473370
30
0.0
11
5.871150
21
49.473370
31
0.0
0
LINE
8
0
6
CONTINUOUS
10
18.999830
20
89.329460
30
0.0
11
18.999830
21
91.787420
31
0.0
0
LINE
8
0
6
CONTINUOUS
10
18.069900
20
49.473370
30
0.0
11
18.999830
21
49.473370
31
0.0
0
LINE
8
0
6
CONTINUOUS
10
18.999830
20
49.473370
30
0.0
11
18.999830
21
50.519590
31
0.0
0
LINE
8
0
6
CONTINUOUS
10
11.167750
20
49.473370
30
0.0
11
15.371150
21
49.473370
31
0.0
0
LINE
8
0
6
CONTINUOUS
10
18.999830
20
91.787420
30
0.0
11
18.999830
21
92.439180
31
0.0
0
LINE
8
0
6
CONTINUOUS
10
18.999830
20
92.439180
30
0.0
11
18.999830
21
93.449560
31
0.0
0
LINE
8
0
6
CONTINUOUS
10
18.999830
20
93.449560
30
0.0
11
18.999830
21
94.459920
31
0.0
0
LINE
8
0
6
CONTINUOUS
10
18.999830
20
94.459920
30
0.0
11
18.999830
21
95.470300
31
0.0
0
LINE
8
0
6
CONTINUOUS
10
18.069900
20
102.245870
30
0.0
11
15.371150
21
100.444340
31
0.0
0
LINE
8
0
6
CONTINUOUS
10
15.371150
20
100.444340
30
0.0
11
11.167750
21
99.003680
31
0.0
0
LINE
8
0
6
CONTINUOUS
10
11.167750
20
99.003680
30
0.0
11
5.871150
21
98.056780
31
0.0
0
LINE
8
0
6
CONTINUOUS
10
5.871150
20
98.056780
30
0.0
11
-0.000180
21
97.723280
31
0.0
0
LINE
8
0
6
CONTINUOUS
10
17.121520
20
104.500000
30
0.0
11
-0.000180
21
104.500000
31
0.0
0
LINE
8
0
6
CONTINUOUS
10
18.999830
20
95.470300
30
0.0
11
18.999820
21
104.288800
31
0.0
0
LINE
8
0
6
CONTINUOUS
10
18.999820
20
104.288800
30
0.0
11
18.880300
21
104.492790
31
0.0
0
LINE
8
0
6
CONTINUOUS
10
18.880300
20
104.492790
30
0.0
11
17.121520
21
104.500000
31
0.0
0
LINE
8
0
6
CONTINUOUS
10
18.538290
20
103.444720
30
0.0
11
18.880300
21
104.492790
31
0.0
0
LINE
8
0
6
CONTINUOUS
10
18.069900
20
102.245870
30
0.0
11
18.069900
21
101.974300
31
0.0
0
LINE
8
0
6
CONTINUOUS
10
18.069900
20
102.245870
30
0.0
11
18.538290
21
103.444720
31
0.0
0
ENDSEC
0
EOF
