999
Erzeugt mit innoplus bad 
0
SECTION
2
HEADER
9
$ACADVER
1
AC1009
9
$DWGCODEPAGE
3
ISO8859-1
0
ENDSEC
0
SECTION
2
TABLES
0
TABLE
2
LAYER
70
1
0
LAYER
2
0
70
0
62
7
6
CONTINUOUS
0
ENDTAB
0
ENDSEC
0
SECTION
2
ENTITIES
0
LINE
8
0
6
CONTINUOUS
10
82.926740
20
-49.051440
30
0.0
11
81.865550
21
-59.954990
31
0.0
0
LINE
8
0
6
CONTINUOUS
10
81.865550
20
-59.954990
30
0.0
11
77.656180
21
-69.972610
31
0.0
0
LINE
8
0
6
CONTINUOUS
10
77.656180
20
-69.972610
30
0.0
11
69.984960
21
-77.644720
31
0.0
0
LINE
8
0
6
CONTINUOUS
10
69.984960
20
-77.644720
30
0.0
11
59.962920
21
-81.856230
31
0.0
0
LINE
8
0
6
CONTINUOUS
10
59.962920
20
-81.856230
30
0.0
11
49.061170
21
-82.917000
31
0.0
0
LINE
8
0
6
CONTINUOUS
10
81.865950
20
59.953190
30
0.0
11
82.926740
21
49.051450
31
0.0
0
LINE
8
0
6
CONTINUOUS
10
77.654440
20
69.975250
30
0.0
11
81.865950
21
59.953190
31
0.0
0
LINE
8
0
6
CONTINUOUS
10
69.982330
20
77.646460
30
0.0
11
77.654440
21
69.975250
31
0.0
0
LINE
8
0
6
CONTINUOUS
10
59.964700
20
81.855820
30
0.0
11
69.982330
21
77.646460
31
0.0
0
LINE
8
0
6
CONTINUOUS
10
49.061160
20
82.917000
30
0.0
11
59.964700
21
81.855820
31
0.0
0
LINE
8
0
6
CONTINUOUS
10
82.926740
20
24.525730
30
0.0
11
82.926740
21
49.051450
31
0.0
0
LINE
8
0
6
CONTINUOUS
10
49.061160
20
82.917000
30
0.0
11
0.000000
21
82.917000
31
0.0
0
LINE
8
0
6
CONTINUOUS
10
24.530590
20
-82.917000
30
0.0
11
0.000000
21
-82.917000
31
0.0
0
LINE
8
0
6
CONTINUOUS
10
82.926740
20
-49.051440
30
0.0
11
82.926740
21
0.000000
31
0.0
0
LINE
8
0
6
CONTINUOUS
10
71.585890
20
-79.539840
30
0.0
11
79.547880
21
-71.578820
31
0.0
0
LINE
8
0
6
CONTINUOUS
10
71.588720
20
79.537980
30
0.0
11
61.210150
21
83.899320
31
0.0
0
LINE
8
0
6
CONTINUOUS
10
83.909220
20
-61.200250
30
0.0
11
85.000000
21
-49.990100
31
0.0
0
LINE
8
0
6
CONTINUOUS
10
79.547880
20
-71.578820
30
0.0
11
83.909220
21
-61.200250
31
0.0
0
LINE
8
0
6
CONTINUOUS
10
85.000000
20
24.995050
30
0.0
11
85.000000
21
49.990100
31
0.0
0
LINE
8
0
6
CONTINUOUS
10
85.000000
20
0.000000
30
0.0
11
85.000000
21
24.995050
31
0.0
0
LINE
8
0
6
CONTINUOUS
10
25.000000
20
-84.990100
30
0.0
11
50.000000
21
-84.990100
31
0.0
0
LINE
8
0
6
CONTINUOUS
10
85.000000
20
-49.990100
30
0.0
11
85.000000
21
0.000000
31
0.0
0
LINE
8
0
6
CONTINUOUS
10
82.926740
20
24.525730
30
0.0
11
82.926740
21
0.000000
31
0.0
0
LINE
8
0
6
CONTINUOUS
10
61.210150
20
83.899320
30
0.0
11
50.000000
21
84.990100
31
0.0
0
LINE
8
0
6
CONTINUOUS
10
50.000000
20
84.990100
30
0.0
11
0.000000
21
84.990100
31
0.0
0
LINE
8
0
6
CONTINUOUS
10
61.212030
20
-83.898890
30
0.0
11
71.585890
21
-79.539840
31
0.0
0
LINE
8
0
6
CONTINUOUS
10
85.000000
20
49.990100
30
0.0
11
83.908790
21
61.202130
31
0.0
0
LINE
8
0
6
CONTINUOUS
10
79.549740
20
71.575990
30
0.0
11
71.588720
21
79.537980
31
0.0
0
LINE
8
0
6
CONTINUOUS
10
83.908790
20
61.202130
30
0.0
11
79.549740
21
71.575990
31
0.0
0
LINE
8
0
6
CONTINUOUS
10
50.000000
20
-84.990100
30
0.0
11
61.212030
21
-83.898890
31
0.0
0
LINE
8
0
6
CONTINUOUS
10
49.061170
20
-82.917000
30
0.0
11
24.530590
21
-82.917000
31
0.0
0
LINE
8
0
6
CONTINUOUS
10
0.000000
20
-84.990100
30
0.0
11
25.000000
21
-84.990100
31
0.0
0
LINE
8
0
6
CONTINUOUS
10
21.419060
20
21.588620
30
0.0
11
17.532170
21
16.404820
31
0.0
0
LINE
8
0
6
CONTINUOUS
10
6.402800
20
10.079950
30
0.0
11
0.000000
21
9.165090
31
0.0
0
LINE
8
0
6
CONTINUOUS
10
17.532170
20
16.404820
30
0.0
11
12.348360
21
12.517930
31
0.0
0
LINE
8
0
6
CONTINUOUS
10
17.532170
20
51.470640
30
0.0
11
21.419060
21
46.286840
31
0.0
0
LINE
8
0
6
CONTINUOUS
10
0.000000
20
58.711120
30
0.0
11
6.402800
21
57.795870
31
0.0
0
LINE
8
0
6
CONTINUOUS
10
12.348360
20
12.517930
30
0.0
11
6.402800
21
10.079950
31
0.0
0
LINE
8
0
6
CONTINUOUS
10
6.402800
20
57.795870
30
0.0
11
12.348360
21
55.356780
31
0.0
0
LINE
8
0
6
CONTINUOUS
10
24.773390
20
33.937730
30
0.0
11
23.858150
21
27.534560
31
0.0
0
LINE
8
0
6
CONTINUOUS
10
12.348360
20
55.356780
30
0.0
11
17.532170
21
51.470640
31
0.0
0
LINE
8
0
6
CONTINUOUS
10
23.858150
20
27.534560
30
0.0
11
21.419060
21
21.588620
31
0.0
0
LINE
8
0
6
CONTINUOUS
10
21.419060
20
46.286840
30
0.0
11
23.858150
21
40.340890
31
0.0
0
LINE
8
0
6
CONTINUOUS
10
23.858150
20
40.340890
30
0.0
11
24.773390
21
33.937730
31
0.0
0
LINE
8
0
6
CONTINUOUS
10
11.045830
20
-29.198180
30
0.0
11
13.494120
21
-32.464480
31
0.0
0
LINE
8
0
6
CONTINUOUS
10
4.033800
20
-55.274990
30
0.0
11
0.000000
21
-55.851690
31
0.0
0
LINE
8
0
6
CONTINUOUS
10
13.494120
20
-48.024470
30
0.0
11
11.045840
21
-51.290780
31
0.0
0
LINE
8
0
6
CONTINUOUS
10
7.779530
20
-53.739050
30
0.0
11
4.033800
21
-55.274990
31
0.0
0
LINE
8
0
6
CONTINUOUS
10
4.033800
20
-25.213720
30
0.0
11
7.779530
21
-26.750360
31
0.0
0
LINE
8
0
6
CONTINUOUS
10
15.030760
20
-44.278510
30
0.0
11
13.494120
21
-48.024470
31
0.0
0
LINE
8
0
6
CONTINUOUS
10
13.494120
20
-32.464480
30
0.0
11
15.030760
21
-36.210440
31
0.0
0
LINE
8
0
6
CONTINUOUS
10
15.607700
20
-40.244480
30
0.0
11
15.030760
21
-44.278510
31
0.0
0
LINE
8
0
6
CONTINUOUS
10
0.000000
20
-24.636780
30
0.0
11
4.033800
21
-25.213720
31
0.0
0
LINE
8
0
6
CONTINUOUS
10
7.779530
20
-26.750360
30
0.0
11
11.045830
21
-29.198180
31
0.0
0
LINE
8
0
6
CONTINUOUS
10
15.030760
20
-36.210440
30
0.0
11
15.607700
21
-40.244480
31
0.0
0
LINE
8
0
6
CONTINUOUS
10
11.045840
20
-51.290780
30
0.0
11
7.779530
21
-53.739050
31
0.0
0
LINE
8
0
6
CONTINUOUS
10
-81.865550
20
-59.954990
30
0.0
11
-82.926740
21
-49.051440
31
0.0
0
LINE
8
0
6
CONTINUOUS
10
-77.656180
20
-69.972610
30
0.0
11
-81.865550
21
-59.954990
31
0.0
0
LINE
8
0
6
CONTINUOUS
10
-69.984960
20
-77.644720
30
0.0
11
-77.656180
21
-69.972610
31
0.0
0
LINE
8
0
6
CONTINUOUS
10
-59.962920
20
-81.856230
30
0.0
11
-69.984960
21
-77.644720
31
0.0
0
LINE
8
0
6
CONTINUOUS
10
-49.061170
20
-82.917000
30
0.0
11
-59.962920
21
-81.856230
31
0.0
0
LINE
8
0
6
CONTINUOUS
10
-82.926740
20
49.051450
30
0.0
11
-81.865950
21
59.953190
31
0.0
0
LINE
8
0
6
CONTINUOUS
10
-81.865950
20
59.953190
30
0.0
11
-77.654440
21
69.975250
31
0.0
0
LINE
8
0
6
CONTINUOUS
10
-77.654440
20
69.975250
30
0.0
11
-69.982330
21
77.646460
31
0.0
0
LINE
8
0
6
CONTINUOUS
10
-69.982330
20
77.646460
30
0.0
11
-59.964700
21
81.855820
31
0.0
0
LINE
8
0
6
CONTINUOUS
10
-59.964700
20
81.855820
30
0.0
11
-49.061160
21
82.917000
31
0.0
0
LINE
8
0
6
CONTINUOUS
10
-82.926740
20
49.051450
30
0.0
11
-82.926740
21
24.525730
31
0.0
0
LINE
8
0
6
CONTINUOUS
10
0.000000
20
82.917000
30
0.0
11
-49.061160
21
82.917000
31
0.0
0
LINE
8
0
6
CONTINUOUS
10
0.000000
20
-82.917000
30
0.0
11
-24.530590
21
-82.917000
31
0.0
0
LINE
8
0
6
CONTINUOUS
10
-82.926740
20
0.000000
30
0.0
11
-82.926740
21
-49.051440
31
0.0
0
LINE
8
0
6
CONTINUOUS
10
-79.547880
20
-71.578820
30
0.0
11
-71.585890
21
-79.539840
31
0.0
0
LINE
8
0
6
CONTINUOUS
10
-61.210150
20
83.899320
30
0.0
11
-71.588720
21
79.537980
31
0.0
0
LINE
8
0
6
CONTINUOUS
10
-85.000000
20
-49.990100
30
0.0
11
-83.909220
21
-61.200250
31
0.0
0
LINE
8
0
6
CONTINUOUS
10
-83.909220
20
-61.200250
30
0.0
11
-79.547880
21
-71.578820
31
0.0
0
LINE
8
0
6
CONTINUOUS
10
-85.000000
20
49.990100
30
0.0
11
-85.000000
21
24.995050
31
0.0
0
LINE
8
0
6
CONTINUOUS
10
-85.000000
20
24.995050
30
0.0
11
-85.000000
21
0.000000
31
0.0
0
LINE
8
0
6
CONTINUOUS
10
-50.000000
20
-84.990100
30
0.0
11
-25.000000
21
-84.990100
31
0.0
0
LINE
8
0
6
CONTINUOUS
10
-85.000000
20
0.000000
30
0.0
11
-85.000000
21
-49.990100
31
0.0
0
LINE
8
0
6
CONTINUOUS
10
-82.926740
20
0.000000
30
0.0
11
-82.926740
21
24.525730
31
0.0
0
LINE
8
0
6
CONTINUOUS
10
-50.000000
20
84.990100
30
0.0
11
-61.210150
21
83.899320
31
0.0
0
LINE
8
0
6
CONTINUOUS
10
0.000000
20
84.990100
30
0.0
11
-50.000000
21
84.990100
31
0.0
0
LINE
8
0
6
CONTINUOUS
10
-71.585890
20
-79.539840
30
0.0
11
-61.212030
21
-83.898890
31
0.0
0
LINE
8
0
6
CONTINUOUS
10
-83.908790
20
61.202130
30
0.0
11
-85.000000
21
49.990100
31
0.0
0
LINE
8
0
6
CONTINUOUS
10
-71.588720
20
79.537980
30
0.0
11
-79.549740
21
71.575990
31
0.0
0
LINE
8
0
6
CONTINUOUS
10
-79.549740
20
71.575990
30
0.0
11
-83.908790
21
61.202130
31
0.0
0
LINE
8
0
6
CONTINUOUS
10
-61.212030
20
-83.898890
30
0.0
11
-50.000000
21
-84.990100
31
0.0
0
LINE
8
0
6
CONTINUOUS
10
-24.530590
20
-82.917000
30
0.0
11
-49.061170
21
-82.917000
31
0.0
0
LINE
8
0
6
CONTINUOUS
10
-25.000000
20
-84.990100
30
0.0
11
0.000000
21
-84.990100
31
0.0
0
LINE
8
0
6
CONTINUOUS
10
-17.532170
20
16.404820
30
0.0
11
-21.419060
21
21.588620
31
0.0
0
LINE
8
0
6
CONTINUOUS
10
0.000000
20
9.165090
30
0.0
11
-6.402800
21
10.079950
31
0.0
0
LINE
8
0
6
CONTINUOUS
10
-12.348360
20
12.517930
30
0.0
11
-17.532170
21
16.404820
31
0.0
0
LINE
8
0
6
CONTINUOUS
10
-21.419060
20
46.286840
30
0.0
11
-17.532170
21
51.470640
31
0.0
0
LINE
8
0
6
CONTINUOUS
10
-6.402800
20
57.795870
30
0.0
11
0.000000
21
58.711120
31
0.0
0
LINE
8
0
6
CONTINUOUS
10
-6.402800
20
10.079950
30
0.0
11
-12.348360
21
12.517930
31
0.0
0
LINE
8
0
6
CONTINUOUS
10
-12.348360
20
55.356780
30
0.0
11
-6.402800
21
57.795870
31
0.0
0
LINE
8
0
6
CONTINUOUS
10
-23.858150
20
27.534560
30
0.0
11
-24.773390
21
33.937730
31
0.0
0
LINE
8
0
6
CONTINUOUS
10
-17.532170
20
51.470640
30
0.0
11
-12.348360
21
55.356780
31
0.0
0
LINE
8
0
6
CONTINUOUS
10
-21.419060
20
21.588620
30
0.0
11
-23.858150
21
27.534560
31
0.0
0
LINE
8
0
6
CONTINUOUS
10
-23.858150
20
40.340890
30
0.0
11
-21.419060
21
46.286840
31
0.0
0
LINE
8
0
6
CONTINUOUS
10
-24.773390
20
33.937730
30
0.0
11
-23.858150
21
40.340890
31
0.0
0
LINE
8
0
6
CONTINUOUS
10
-13.494120
20
-32.464480
30
0.0
11
-11.045830
21
-29.198180
31
0.0
0
LINE
8
0
6
CONTINUOUS
10
0.000000
20
-55.851690
30
0.0
11
-4.033800
21
-55.274990
31
0.0
0
LINE
8
0
6
CONTINUOUS
10
-11.045840
20
-51.290780
30
0.0
11
-13.494120
21
-48.024470
31
0.0
0
LINE
8
0
6
CONTINUOUS
10
-4.033800
20
-55.274990
30
0.0
11
-7.779530
21
-53.739050
31
0.0
0
LINE
8
0
6
CONTINUOUS
10
-7.779530
20
-26.750360
30
0.0
11
-4.033800
21
-25.213720
31
0.0
0
LINE
8
0
6
CONTINUOUS
10
-13.494120
20
-48.024470
30
0.0
11
-15.030760
21
-44.278510
31
0.0
0
LINE
8
0
6
CONTINUOUS
10
-15.030760
20
-36.210440
30
0.0
11
-13.494120
21
-32.464480
31
0.0
0
LINE
8
0
6
CONTINUOUS
10
-15.030760
20
-44.278510
30
0.0
11
-15.607700
21
-40.244480
31
0.0
0
LINE
8
0
6
CONTINUOUS
10
-4.033800
20
-25.213720
30
0.0
11
0.000000
21
-24.636780
31
0.0
0
LINE
8
0
6
CONTINUOUS
10
-11.045830
20
-29.198180
30
0.0
11
-7.779530
21
-26.750360
31
0.0
0
LINE
8
0
6
CONTINUOUS
10
-15.607700
20
-40.244480
30
0.0
11
-15.030760
21
-36.210440
31
0.0
0
LINE
8
0
6
CONTINUOUS
10
-7.779530
20
-53.739050
30
0.0
11
-11.045840
21
-51.290780
31
0.0
0
ENDSEC
0
EOF
