999
Erzeugt mit innoplus bad 
0
SECTION
2
HEADER
9
$ACADVER
1
AC1009
9
$DWGCODEPAGE
3
ISO8859-1
0
ENDSEC
0
SECTION
2
TABLES
0
TABLE
2
LAYER
70
1
0
LAYER
2
0
70
0
62
7
6
CONTINUOUS
0
ENDTAB
0
ENDSEC
0
SECTION
2
ENTITIES
0
LINE
8
0
6
CONTINUOUS
10
83.539180
20
12.817590
30
0.0
11
83.512500
21
13.327570
31
0.0
0
LINE
8
0
6
CONTINUOUS
10
82.926740
20
14.581520
30
0.0
11
81.643780
21
15.100920
31
0.0
0
LINE
8
0
6
CONTINUOUS
10
81.643780
20
15.100920
30
0.0
11
80.607270
21
15.100920
31
0.0
0
LINE
8
0
6
CONTINUOUS
10
83.512500
20
13.327570
30
0.0
11
82.926740
21
14.581520
31
0.0
0
LINE
8
0
6
CONTINUOUS
10
82.926740
20
14.581520
30
0.0
11
81.865550
21
14.581520
31
0.0
0
LINE
8
0
6
CONTINUOUS
10
80.607270
20
15.100920
30
0.0
11
76.568530
21
15.100920
31
0.0
0
LINE
8
0
6
CONTINUOUS
10
81.865550
20
14.581520
30
0.0
11
77.656180
21
14.581520
31
0.0
0
LINE
8
0
6
CONTINUOUS
10
76.568530
20
15.100920
30
0.0
11
69.248390
21
15.100920
31
0.0
0
LINE
8
0
6
CONTINUOUS
10
77.656180
20
14.581520
30
0.0
11
69.984960
21
14.581520
31
0.0
0
LINE
8
0
6
CONTINUOUS
10
69.248390
20
15.100920
30
0.0
11
59.632280
21
15.100920
31
0.0
0
LINE
8
0
6
CONTINUOUS
10
69.984960
20
14.581520
30
0.0
11
59.962920
21
14.581520
31
0.0
0
LINE
8
0
6
CONTINUOUS
10
59.632280
20
15.100920
30
0.0
11
48.984280
21
15.100920
31
0.0
0
LINE
8
0
6
CONTINUOUS
10
59.962920
20
14.581520
30
0.0
11
49.061170
21
14.581520
31
0.0
0
LINE
8
0
6
CONTINUOUS
10
24.492160
20
15.100920
30
0.0
11
0.000000
21
15.100920
31
0.0
0
LINE
8
0
6
CONTINUOUS
10
24.530590
20
14.581520
30
0.0
11
0.000000
21
14.581520
31
0.0
0
LINE
8
0
6
CONTINUOUS
10
71.585890
20
-15.100930
30
0.0
11
79.547880
21
-15.100930
31
0.0
0
LINE
8
0
6
CONTINUOUS
10
83.909220
20
-15.100930
30
0.0
11
85.000000
21
-15.100930
31
0.0
0
LINE
8
0
6
CONTINUOUS
10
85.000000
20
-15.100930
30
0.0
11
83.539180
21
12.817590
31
0.0
0
LINE
8
0
6
CONTINUOUS
10
79.547880
20
-15.100930
30
0.0
11
83.909220
21
-15.100930
31
0.0
0
LINE
8
0
6
CONTINUOUS
10
25.000000
20
-15.100930
30
0.0
11
50.000000
21
-15.100930
31
0.0
0
LINE
8
0
6
CONTINUOUS
10
48.984280
20
15.100920
30
0.0
11
24.492160
21
15.100920
31
0.0
0
LINE
8
0
6
CONTINUOUS
10
61.212030
20
-15.100930
30
0.0
11
71.585890
21
-15.100930
31
0.0
0
LINE
8
0
6
CONTINUOUS
10
50.000000
20
-15.100930
30
0.0
11
61.212030
21
-15.100930
31
0.0
0
LINE
8
0
6
CONTINUOUS
10
49.061170
20
14.581520
30
0.0
11
24.530590
21
14.581520
31
0.0
0
LINE
8
0
6
CONTINUOUS
10
0.000000
20
-15.100930
30
0.0
11
25.000000
21
-15.100930
31
0.0
0
LINE
8
0
6
CONTINUOUS
10
12.348360
20
15.100920
30
0.0
11
6.402800
21
15.100920
31
0.0
0
LINE
8
0
6
CONTINUOUS
10
6.402800
20
15.100920
30
0.0
11
0.000000
21
15.100920
31
0.0
0
LINE
8
0
6
CONTINUOUS
10
17.532170
20
15.100920
30
0.0
11
12.348360
21
15.100920
31
0.0
0
LINE
8
0
6
CONTINUOUS
10
21.419060
20
15.100920
30
0.0
11
17.532170
21
15.100920
31
0.0
0
LINE
8
0
6
CONTINUOUS
10
23.858150
20
15.100920
30
0.0
11
21.419060
21
15.100920
31
0.0
0
LINE
8
0
6
CONTINUOUS
10
24.773390
20
15.100920
30
0.0
11
23.858150
21
15.100920
31
0.0
0
LINE
8
0
6
CONTINUOUS
10
4.033800
20
15.100920
30
0.0
11
0.000000
21
15.100920
31
0.0
0
LINE
8
0
6
CONTINUOUS
10
7.779530
20
15.100920
30
0.0
11
4.033800
21
15.100920
31
0.0
0
LINE
8
0
6
CONTINUOUS
10
11.045830
20
15.100920
30
0.0
11
7.779530
21
15.100920
31
0.0
0
LINE
8
0
6
CONTINUOUS
10
13.494120
20
15.100920
30
0.0
11
11.045830
21
15.100920
31
0.0
0
LINE
8
0
6
CONTINUOUS
10
15.030760
20
15.100920
30
0.0
11
13.494120
21
15.100920
31
0.0
0
LINE
8
0
6
CONTINUOUS
10
15.607700
20
15.100930
30
0.0
11
15.030760
21
15.100920
31
0.0
0
LINE
8
0
6
CONTINUOUS
10
-83.512500
20
13.327570
30
0.0
11
-83.539180
21
12.817590
31
0.0
0
LINE
8
0
6
CONTINUOUS
10
-80.607270
20
15.100920
30
0.0
11
-81.643780
21
15.100920
31
0.0
0
LINE
8
0
6
CONTINUOUS
10
-81.643780
20
15.100920
30
0.0
11
-82.926740
21
14.581520
31
0.0
0
LINE
8
0
6
CONTINUOUS
10
-81.865550
20
14.581520
30
0.0
11
-82.926740
21
14.581520
31
0.0
0
LINE
8
0
6
CONTINUOUS
10
-82.926740
20
14.581520
30
0.0
11
-83.512500
21
13.327570
31
0.0
0
LINE
8
0
6
CONTINUOUS
10
-76.568530
20
15.100920
30
0.0
11
-80.607270
21
15.100920
31
0.0
0
LINE
8
0
6
CONTINUOUS
10
-77.656180
20
14.581520
30
0.0
11
-81.865550
21
14.581520
31
0.0
0
LINE
8
0
6
CONTINUOUS
10
-69.248390
20
15.100920
30
0.0
11
-76.568530
21
15.100920
31
0.0
0
LINE
8
0
6
CONTINUOUS
10
-69.984960
20
14.581520
30
0.0
11
-77.656180
21
14.581520
31
0.0
0
LINE
8
0
6
CONTINUOUS
10
-59.632280
20
15.100920
30
0.0
11
-69.248390
21
15.100920
31
0.0
0
LINE
8
0
6
CONTINUOUS
10
-59.962920
20
14.581520
30
0.0
11
-69.984960
21
14.581520
31
0.0
0
LINE
8
0
6
CONTINUOUS
10
-48.984280
20
15.100920
30
0.0
11
-59.632280
21
15.100920
31
0.0
0
LINE
8
0
6
CONTINUOUS
10
-49.061170
20
14.581520
30
0.0
11
-59.962920
21
14.581520
31
0.0
0
LINE
8
0
6
CONTINUOUS
10
0.000000
20
15.100920
30
0.0
11
-24.492160
21
15.100920
31
0.0
0
LINE
8
0
6
CONTINUOUS
10
0.000000
20
14.581520
30
0.0
11
-24.530590
21
14.581520
31
0.0
0
LINE
8
0
6
CONTINUOUS
10
-79.547880
20
-15.100930
30
0.0
11
-71.585890
21
-15.100930
31
0.0
0
LINE
8
0
6
CONTINUOUS
10
-83.539180
20
12.817590
30
0.0
11
-85.000000
21
-15.100930
31
0.0
0
LINE
8
0
6
CONTINUOUS
10
-85.000000
20
-15.100930
30
0.0
11
-83.909220
21
-15.100930
31
0.0
0
LINE
8
0
6
CONTINUOUS
10
-83.909220
20
-15.100930
30
0.0
11
-79.547880
21
-15.100930
31
0.0
0
LINE
8
0
6
CONTINUOUS
10
-50.000000
20
-15.100930
30
0.0
11
-25.000000
21
-15.100930
31
0.0
0
LINE
8
0
6
CONTINUOUS
10
-24.492160
20
15.100920
30
0.0
11
-48.984280
21
15.100920
31
0.0
0
LINE
8
0
6
CONTINUOUS
10
-71.585890
20
-15.100930
30
0.0
11
-61.212030
21
-15.100930
31
0.0
0
LINE
8
0
6
CONTINUOUS
10
-61.212030
20
-15.100930
30
0.0
11
-50.000000
21
-15.100930
31
0.0
0
LINE
8
0
6
CONTINUOUS
10
-24.530590
20
14.581520
30
0.0
11
-49.061170
21
14.581520
31
0.0
0
LINE
8
0
6
CONTINUOUS
10
-25.000000
20
-15.100930
30
0.0
11
0.000000
21
-15.100930
31
0.0
0
LINE
8
0
6
CONTINUOUS
10
-6.402800
20
15.100920
30
0.0
11
-12.348360
21
15.100920
31
0.0
0
LINE
8
0
6
CONTINUOUS
10
0.000000
20
15.100920
30
0.0
11
-6.402800
21
15.100920
31
0.0
0
LINE
8
0
6
CONTINUOUS
10
-12.348360
20
15.100920
30
0.0
11
-17.532170
21
15.100920
31
0.0
0
LINE
8
0
6
CONTINUOUS
10
-17.532170
20
15.100920
30
0.0
11
-21.419060
21
15.100920
31
0.0
0
LINE
8
0
6
CONTINUOUS
10
-21.419060
20
15.100920
30
0.0
11
-23.858150
21
15.100920
31
0.0
0
LINE
8
0
6
CONTINUOUS
10
-23.858150
20
15.100920
30
0.0
11
-24.773390
21
15.100920
31
0.0
0
LINE
8
0
6
CONTINUOUS
10
0.000000
20
15.100920
30
0.0
11
-4.033800
21
15.100920
31
0.0
0
LINE
8
0
6
CONTINUOUS
10
-4.033800
20
15.100920
30
0.0
11
-7.779530
21
15.100920
31
0.0
0
LINE
8
0
6
CONTINUOUS
10
-7.779530
20
15.100920
30
0.0
11
-11.045830
21
15.100920
31
0.0
0
LINE
8
0
6
CONTINUOUS
10
-11.045830
20
15.100920
30
0.0
11
-13.494120
21
15.100920
31
0.0
0
LINE
8
0
6
CONTINUOUS
10
-13.494120
20
15.100920
30
0.0
11
-15.030760
21
15.100920
31
0.0
0
LINE
8
0
6
CONTINUOUS
10
-15.030760
20
15.100920
30
0.0
11
-15.607700
21
15.100930
31
0.0
0
ENDSEC
0
EOF
