999
Erzeugt mit innoplus bad 
0
SECTION
2
HEADER
9
$ACADVER
1
AC1009
9
$DWGCODEPAGE
3
ISO8859-1
0
ENDSEC
0
SECTION
2
TABLES
0
TABLE
2
LAYER
70
1
0
LAYER
2
0
70
0
62
7
6
CONTINUOUS
0
ENDTAB
0
ENDSEC
0
SECTION
2
ENTITIES
0
LINE
8
0
6
CONTINUOUS
10
84.990100
20
-15.100925
30
0.0
11
83.529450
21
12.817585
31
0.0
0
LINE
8
0
6
CONTINUOUS
10
83.899320
20
-15.100925
30
0.0
11
84.990100
21
-15.100925
31
0.0
0
LINE
8
0
6
CONTINUOUS
10
-83.502770
20
13.327565
30
0.0
11
-83.529450
21
12.817595
31
0.0
0
LINE
8
0
6
CONTINUOUS
10
-48.974510
20
15.100925
30
0.0
11
-59.624420
21
15.100925
31
0.0
0
LINE
8
0
6
CONTINUOUS
10
-49.051440
20
14.581525
30
0.0
11
-59.954990
21
14.581525
31
0.0
0
LINE
8
0
6
CONTINUOUS
10
-59.624420
20
15.100925
30
0.0
11
-69.236030
21
15.100925
31
0.0
0
LINE
8
0
6
CONTINUOUS
10
-59.954990
20
14.581525
30
0.0
11
-69.972610
21
14.581525
31
0.0
0
LINE
8
0
6
CONTINUOUS
10
-69.236030
20
15.100925
30
0.0
11
-76.557050
21
15.100925
31
0.0
0
LINE
8
0
6
CONTINUOUS
10
-69.972610
20
14.581525
30
0.0
11
-77.644720
21
14.581525
31
0.0
0
LINE
8
0
6
CONTINUOUS
10
-76.557050
20
15.100925
30
0.0
11
-80.597980
21
15.100925
31
0.0
0
LINE
8
0
6
CONTINUOUS
10
-77.644720
20
14.581525
30
0.0
11
-81.856230
21
14.581525
31
0.0
0
LINE
8
0
6
CONTINUOUS
10
-81.634060
20
15.100925
30
0.0
11
-82.917000
21
14.581525
31
0.0
0
LINE
8
0
6
CONTINUOUS
10
-80.597980
20
15.100925
30
0.0
11
-81.634060
21
15.100925
31
0.0
0
LINE
8
0
6
CONTINUOUS
10
-82.917000
20
14.581525
30
0.0
11
-83.502770
21
13.327565
31
0.0
0
LINE
8
0
6
CONTINUOUS
10
-81.856230
20
14.581525
30
0.0
11
-82.917000
21
14.581525
31
0.0
0
LINE
8
0
6
CONTINUOUS
10
59.622530
20
15.100925
30
0.0
11
48.974570
21
15.100925
31
0.0
0
LINE
8
0
6
CONTINUOUS
10
59.953190
20
14.581515
30
0.0
11
49.051450
21
14.581515
31
0.0
0
LINE
8
0
6
CONTINUOUS
10
69.238680
20
15.100925
30
0.0
11
59.622530
21
15.100925
31
0.0
0
LINE
8
0
6
CONTINUOUS
10
69.975250
20
14.581515
30
0.0
11
59.953190
21
14.581515
31
0.0
0
LINE
8
0
6
CONTINUOUS
10
76.558810
20
15.100925
30
0.0
11
69.238680
21
15.100925
31
0.0
0
LINE
8
0
6
CONTINUOUS
10
77.646460
20
14.581525
30
0.0
11
69.975250
21
14.581515
31
0.0
0
LINE
8
0
6
CONTINUOUS
10
80.597560
20
15.100925
30
0.0
11
76.558810
21
15.100925
31
0.0
0
LINE
8
0
6
CONTINUOUS
10
81.855820
20
14.581525
30
0.0
11
77.646460
21
14.581525
31
0.0
0
LINE
8
0
6
CONTINUOUS
10
82.917000
20
14.581525
30
0.0
11
81.634060
21
15.100925
31
0.0
0
LINE
8
0
6
CONTINUOUS
10
81.634060
20
15.100925
30
0.0
11
80.597560
21
15.100925
31
0.0
0
LINE
8
0
6
CONTINUOUS
10
83.502770
20
13.327555
30
0.0
11
82.917000
21
14.581525
31
0.0
0
LINE
8
0
6
CONTINUOUS
10
82.917000
20
14.581525
30
0.0
11
81.855820
21
14.581525
31
0.0
0
LINE
8
0
6
CONTINUOUS
10
48.974570
20
15.100925
30
0.0
11
0.000030
21
15.100925
31
0.0
0
LINE
8
0
6
CONTINUOUS
10
0.000000
20
14.581525
30
0.0
11
49.051450
21
14.581515
31
0.0
0
LINE
8
0
6
CONTINUOUS
10
0.000030
20
15.100925
30
0.0
11
-48.974510
21
15.100925
31
0.0
0
LINE
8
0
6
CONTINUOUS
10
-49.051440
20
14.581525
30
0.0
11
0.000000
21
14.581525
31
0.0
0
LINE
8
0
6
CONTINUOUS
10
-83.898890
20
-15.100925
30
0.0
11
-79.539840
21
-15.100925
31
0.0
0
LINE
8
0
6
CONTINUOUS
10
-79.539840
20
-15.100925
30
0.0
11
-71.578820
21
-15.100925
31
0.0
0
LINE
8
0
6
CONTINUOUS
10
83.529450
20
12.817585
30
0.0
11
83.502770
21
13.327555
31
0.0
0
LINE
8
0
6
CONTINUOUS
10
49.990100
20
-15.100925
30
0.0
11
61.202130
21
-15.100925
31
0.0
0
LINE
8
0
6
CONTINUOUS
10
71.575990
20
-15.100925
30
0.0
11
79.537980
21
-15.100925
31
0.0
0
LINE
8
0
6
CONTINUOUS
10
79.537980
20
-15.100925
30
0.0
11
83.899320
21
-15.100925
31
0.0
0
LINE
8
0
6
CONTINUOUS
10
61.202130
20
-15.100925
30
0.0
11
71.575990
21
-15.100925
31
0.0
0
LINE
8
0
6
CONTINUOUS
10
-61.200250
20
-15.100925
30
0.0
11
-49.990100
21
-15.100925
31
0.0
0
LINE
8
0
6
CONTINUOUS
10
-71.578820
20
-15.100925
30
0.0
11
-61.200250
21
-15.100925
31
0.0
0
LINE
8
0
6
CONTINUOUS
10
0.000000
20
-15.100925
30
0.0
11
49.990100
21
-15.100925
31
0.0
0
LINE
8
0
6
CONTINUOUS
10
-84.990100
20
-15.100925
30
0.0
11
-83.898890
21
-15.100925
31
0.0
0
LINE
8
0
6
CONTINUOUS
10
-83.529450
20
12.817595
30
0.0
11
-84.990100
21
-15.100925
31
0.0
0
LINE
8
0
6
CONTINUOUS
10
-49.990100
20
-15.100925
30
0.0
11
0.000000
21
-15.100925
31
0.0
0
ENDSEC
0
EOF
