999
Erzeugt mit innoplus bad 
0
SECTION
2
HEADER
9
$ACADVER
1
AC1009
9
$DWGCODEPAGE
3
ISO8859-1
0
ENDSEC
0
SECTION
2
TABLES
0
TABLE
2
LAYER
70
1
0
LAYER
2
0
70
0
62
7
6
CONTINUOUS
0
ENDTAB
0
ENDSEC
0
SECTION
2
ENTITIES
0
LINE
8
0
6
CONTINUOUS
10
-40.289560
20
14.840700
30
0.0
11
-46.221620
21
14.840700
31
0.0
0
LINE
8
0
6
CONTINUOUS
10
-46.221620
20
14.840700
30
0.0
11
-51.392770
21
14.840700
31
0.0
0
LINE
8
0
6
CONTINUOUS
10
-51.392770
20
14.840700
30
0.0
11
-55.270390
21
14.840700
31
0.0
0
LINE
8
0
6
CONTINUOUS
10
-55.270390
20
14.840700
30
0.0
11
-57.703770
21
14.840700
31
0.0
0
LINE
8
0
6
CONTINUOUS
10
-57.703770
20
14.840700
30
0.0
11
-58.616500
21
14.840700
31
0.0
0
LINE
8
0
6
CONTINUOUS
10
-33.901360
20
14.840700
30
0.0
11
-40.289560
21
14.840700
31
0.0
0
LINE
8
0
6
CONTINUOUS
10
-27.513150
20
14.840700
30
0.0
11
-33.901360
21
14.840700
31
0.0
0
LINE
8
0
6
CONTINUOUS
10
-21.581110
20
14.840700
30
0.0
11
-27.513150
21
14.840700
31
0.0
0
LINE
8
0
6
CONTINUOUS
10
-16.409970
20
14.840700
30
0.0
11
-21.581110
21
14.840700
31
0.0
0
LINE
8
0
6
CONTINUOUS
10
-12.531620
20
14.840700
30
0.0
11
-16.409970
21
14.840700
31
0.0
0
LINE
8
0
6
CONTINUOUS
10
-10.099340
20
14.840700
30
0.0
11
-12.531620
21
14.840700
31
0.0
0
LINE
8
0
6
CONTINUOUS
10
-9.187000
20
14.840700
30
0.0
11
-10.099340
21
14.840700
31
0.0
0
LINE
8
0
6
CONTINUOUS
10
25.031970
20
14.840700
30
0.0
11
24.456780
21
14.840700
31
0.0
0
LINE
8
0
6
CONTINUOUS
10
26.565460
20
14.840700
30
0.0
11
25.031970
21
14.840700
31
0.0
0
LINE
8
0
6
CONTINUOUS
10
29.009100
20
14.840700
30
0.0
11
26.565460
21
14.840700
31
0.0
0
LINE
8
0
6
CONTINUOUS
10
32.267890
20
14.840700
30
0.0
11
29.009100
21
14.840700
31
0.0
0
LINE
8
0
6
CONTINUOUS
10
36.006190
20
14.840700
30
0.0
11
32.267890
21
14.840700
31
0.0
0
LINE
8
0
6
CONTINUOUS
10
40.031970
20
14.840700
30
0.0
11
36.006190
21
14.840700
31
0.0
0
LINE
8
0
6
CONTINUOUS
10
44.057740
20
14.840700
30
0.0
11
40.031970
21
14.840700
31
0.0
0
LINE
8
0
6
CONTINUOUS
10
47.796030
20
14.840700
30
0.0
11
44.057740
21
14.840700
31
0.0
0
LINE
8
0
6
CONTINUOUS
10
51.054820
20
14.840700
30
0.0
11
47.796030
21
14.840700
31
0.0
0
LINE
8
0
6
CONTINUOUS
10
53.498910
20
14.840700
30
0.0
11
51.054820
21
14.840700
31
0.0
0
LINE
8
0
6
CONTINUOUS
10
55.031700
20
14.840700
30
0.0
11
53.498910
21
14.840700
31
0.0
0
LINE
8
0
6
CONTINUOUS
10
55.606650
20
14.840700
30
0.0
11
55.031700
21
14.840700
31
0.0
0
LINE
8
0
6
CONTINUOUS
10
-83.574570
20
12.874240
30
0.0
11
-83.912050
21
6.312590
31
0.0
0
LINE
8
0
6
CONTINUOUS
10
-83.068570
20
12.874240
30
0.0
11
-83.406040
21
6.312590
31
0.0
0
LINE
8
0
6
CONTINUOUS
10
-83.549390
20
13.363680
30
0.0
11
-83.574570
21
12.874240
31
0.0
0
LINE
8
0
6
CONTINUOUS
10
-83.068570
20
12.874240
30
0.0
11
-83.043390
21
13.363680
31
0.0
0
LINE
8
0
6
CONTINUOUS
10
-83.351150
20
14.446610
30
0.0
11
-83.549390
21
13.363680
31
0.0
0
LINE
8
0
6
CONTINUOUS
10
-82.845150
20
14.446610
30
0.0
11
-83.043390
21
13.363680
31
0.0
0
LINE
8
0
6
CONTINUOUS
10
-82.032360
20
14.840700
30
0.0
11
-82.538360
21
14.840700
31
0.0
0
LINE
8
0
6
CONTINUOUS
10
-83.351150
20
14.446610
30
0.0
11
-82.845150
21
14.446610
31
0.0
0
LINE
8
0
6
CONTINUOUS
10
-82.538360
20
14.840700
30
0.0
11
-83.351150
21
14.446610
31
0.0
0
LINE
8
0
6
CONTINUOUS
10
-80.259970
20
14.840700
30
0.0
11
-82.032360
21
14.840700
31
0.0
0
LINE
8
0
6
CONTINUOUS
10
-82.845150
20
14.446610
30
0.0
11
-81.072770
21
14.446610
31
0.0
0
LINE
8
0
6
CONTINUOUS
10
-84.493990
20
-14.840700
30
0.0
11
-82.721610
21
-14.840700
31
0.0
0
LINE
8
0
6
CONTINUOUS
10
-85.000000
20
-14.840700
30
0.0
11
-84.493990
21
-14.840700
31
0.0
0
LINE
8
0
6
CONTINUOUS
10
-84.637350
20
-7.789600
30
0.0
11
-85.000000
21
-14.840700
31
0.0
0
LINE
8
0
6
CONTINUOUS
10
-84.493990
20
-14.840700
30
0.0
11
-84.131350
21
-7.789600
31
0.0
0
LINE
8
0
6
CONTINUOUS
10
-84.274690
20
-0.738510
30
0.0
11
-84.637350
21
-7.789600
31
0.0
0
LINE
8
0
6
CONTINUOUS
10
-84.131350
20
-7.789600
30
0.0
11
-83.768680
21
-0.738510
31
0.0
0
LINE
8
0
6
CONTINUOUS
10
-83.912050
20
6.312590
30
0.0
11
-84.274690
21
-0.738510
31
0.0
0
LINE
8
0
6
CONTINUOUS
10
-83.768680
20
-0.738510
30
0.0
11
-83.406040
21
6.312590
31
0.0
0
LINE
8
0
6
CONTINUOUS
10
26.753320
20
14.840700
30
0.0
11
0.000000
21
14.840700
31
0.0
0
LINE
8
0
6
CONTINUOUS
10
27.024260
20
14.446610
30
0.0
11
0.000000
21
14.446610
31
0.0
0
LINE
8
0
6
CONTINUOUS
10
83.912050
20
6.312590
30
0.0
11
83.574570
21
12.874240
31
0.0
0
LINE
8
0
6
CONTINUOUS
10
83.406040
20
6.312590
30
0.0
11
83.068570
21
12.874240
31
0.0
0
LINE
8
0
6
CONTINUOUS
10
-41.360810
20
-14.840700
30
0.0
11
0.000000
21
-14.840700
31
0.0
0
LINE
8
0
6
CONTINUOUS
10
83.043390
20
13.363680
30
0.0
11
83.068570
21
12.874240
31
0.0
0
LINE
8
0
6
CONTINUOUS
10
83.574570
20
12.874240
30
0.0
11
83.549390
21
13.363680
31
0.0
0
LINE
8
0
6
CONTINUOUS
10
83.549390
20
13.363680
30
0.0
11
83.351150
21
14.446610
31
0.0
0
LINE
8
0
6
CONTINUOUS
10
83.043390
20
13.363680
30
0.0
11
82.845150
21
14.446610
31
0.0
0
LINE
8
0
6
CONTINUOUS
10
83.351150
20
14.446610
30
0.0
11
82.538360
21
14.840700
31
0.0
0
LINE
8
0
6
CONTINUOUS
10
82.845150
20
14.446610
30
0.0
11
83.351150
21
14.446610
31
0.0
0
LINE
8
0
6
CONTINUOUS
10
82.538360
20
14.840700
30
0.0
11
82.032360
21
14.840700
31
0.0
0
LINE
8
0
6
CONTINUOUS
10
81.072770
20
14.446610
30
0.0
11
82.845150
21
14.446610
31
0.0
0
LINE
8
0
6
CONTINUOUS
10
82.032360
20
14.840700
30
0.0
11
80.259970
21
14.840700
31
0.0
0
LINE
8
0
6
CONTINUOUS
10
82.721610
20
-14.840700
30
0.0
11
84.493990
21
-14.840700
31
0.0
0
LINE
8
0
6
CONTINUOUS
10
84.131350
20
-7.789600
30
0.0
11
84.493990
21
-14.840700
31
0.0
0
LINE
8
0
6
CONTINUOUS
10
85.000000
20
-14.840700
30
0.0
11
84.637350
21
-7.789600
31
0.0
0
LINE
8
0
6
CONTINUOUS
10
84.493990
20
-14.840700
30
0.0
11
85.000000
21
-14.840700
31
0.0
0
LINE
8
0
6
CONTINUOUS
10
83.768680
20
-0.738510
30
0.0
11
84.131350
21
-7.789600
31
0.0
0
LINE
8
0
6
CONTINUOUS
10
84.637350
20
-7.789600
30
0.0
11
84.274690
21
-0.738510
31
0.0
0
LINE
8
0
6
CONTINUOUS
10
83.406040
20
6.312590
30
0.0
11
83.768680
21
-0.738510
31
0.0
0
LINE
8
0
6
CONTINUOUS
10
84.274690
20
-0.738510
30
0.0
11
83.912050
21
6.312590
31
0.0
0
LINE
8
0
6
CONTINUOUS
10
55.147740
20
-14.840700
30
0.0
11
82.721610
21
-14.840700
31
0.0
0
LINE
8
0
6
CONTINUOUS
10
53.506650
20
14.840700
30
0.0
11
26.753320
21
14.840700
31
0.0
0
LINE
8
0
6
CONTINUOUS
10
54.048510
20
14.446610
30
0.0
11
27.024260
21
14.446610
31
0.0
0
LINE
8
0
6
CONTINUOUS
10
80.259970
20
14.840700
30
0.0
11
53.506650
21
14.840700
31
0.0
0
LINE
8
0
6
CONTINUOUS
10
54.048510
20
14.446610
30
0.0
11
81.072770
21
14.446610
31
0.0
0
LINE
8
0
6
CONTINUOUS
10
0.000000
20
-14.840700
30
0.0
11
27.573870
21
-14.840700
31
0.0
0
LINE
8
0
6
CONTINUOUS
10
0.000000
20
14.840700
30
0.0
11
-40.129990
21
14.840700
31
0.0
0
LINE
8
0
6
CONTINUOUS
10
-40.536380
20
14.446610
30
0.0
11
0.000000
21
14.446610
31
0.0
0
LINE
8
0
6
CONTINUOUS
10
27.573870
20
-14.840700
30
0.0
11
55.147740
21
-14.840700
31
0.0
0
LINE
8
0
6
CONTINUOUS
10
-40.129990
20
14.840700
30
0.0
11
-80.259970
21
14.840700
31
0.0
0
LINE
8
0
6
CONTINUOUS
10
-40.536380
20
14.446610
30
0.0
11
-81.072770
21
14.446610
31
0.0
0
LINE
8
0
6
CONTINUOUS
10
-82.721610
20
-14.840700
30
0.0
11
-41.360810
21
-14.840700
31
0.0
0
ENDSEC
0
EOF
