999
Erzeugt mit innoplus bad 
0
SECTION
2
HEADER
9
$ACADVER
1
AC1009
9
$DWGCODEPAGE
3
ISO8859-1
0
ENDSEC
0
SECTION
2
TABLES
0
TABLE
2
LAYER
70
1
0
LAYER
2
0
70
0
62
7
6
CONTINUOUS
0
ENDTAB
0
ENDSEC
0
SECTION
2
ENTITIES
0
LINE
8
0
6
CONTINUOUS
10
-20.640010
20
14.840700
30
0.0
11
-41.272710
21
14.840700
31
0.0
0
LINE
8
0
6
CONTINUOUS
10
-82.721610
20
-14.840700
30
0.0
11
-62.610810
21
-14.840700
31
0.0
0
LINE
8
0
6
CONTINUOUS
10
-41.272710
20
14.840700
30
0.0
11
-60.766320
21
14.840700
31
0.0
0
LINE
8
0
6
CONTINUOUS
10
-61.374170
20
14.446610
30
0.0
11
-41.675580
21
14.446610
31
0.0
0
LINE
8
0
6
CONTINUOUS
10
0.000000
20
14.840700
30
0.0
11
-20.640010
21
14.840700
31
0.0
0
LINE
8
0
6
CONTINUOUS
10
-20.837790
20
14.446610
30
0.0
11
0.000000
21
14.446610
31
0.0
0
LINE
8
0
6
CONTINUOUS
10
-42.500000
20
-14.840700
30
0.0
11
-21.250000
21
-14.840700
31
0.0
0
LINE
8
0
6
CONTINUOUS
10
-83.574570
20
12.874240
30
0.0
11
-83.912050
21
6.312590
31
0.0
0
LINE
8
0
6
CONTINUOUS
10
-83.406040
20
6.312590
30
0.0
11
-83.068570
21
12.874240
31
0.0
0
LINE
8
0
6
CONTINUOUS
10
-83.549390
20
13.363680
30
0.0
11
-83.574570
21
12.874240
31
0.0
0
LINE
8
0
6
CONTINUOUS
10
-83.043390
20
13.363680
30
0.0
11
-83.068570
21
12.874240
31
0.0
0
LINE
8
0
6
CONTINUOUS
10
-83.043390
20
13.363680
30
0.0
11
-82.845150
21
14.446610
31
0.0
0
LINE
8
0
6
CONTINUOUS
10
-83.351150
20
14.446610
30
0.0
11
-83.549390
21
13.363680
31
0.0
0
LINE
8
0
6
CONTINUOUS
10
-82.845150
20
14.446610
30
0.0
11
-81.072770
21
14.446610
31
0.0
0
LINE
8
0
6
CONTINUOUS
10
-80.259920
20
14.840700
30
0.0
11
-82.032150
21
14.840700
31
0.0
0
LINE
8
0
6
CONTINUOUS
10
-83.351150
20
14.446610
30
0.0
11
-82.845150
21
14.446610
31
0.0
0
LINE
8
0
6
CONTINUOUS
10
-82.538100
20
14.840700
30
0.0
11
-83.351150
21
14.446610
31
0.0
0
LINE
8
0
6
CONTINUOUS
10
-82.032150
20
14.840700
30
0.0
11
-82.538100
21
14.840700
31
0.0
0
LINE
8
0
6
CONTINUOUS
10
-84.637350
20
-7.789600
30
0.0
11
-85.000000
21
-14.840700
31
0.0
0
LINE
8
0
6
CONTINUOUS
10
-85.000000
20
-14.840700
30
0.0
11
-84.493990
21
-14.840700
31
0.0
0
LINE
8
0
6
CONTINUOUS
10
-84.131350
20
-7.789600
30
0.0
11
-84.493990
21
-14.840700
31
0.0
0
LINE
8
0
6
CONTINUOUS
10
-84.493990
20
-14.840700
30
0.0
11
-82.721610
21
-14.840700
31
0.0
0
LINE
8
0
6
CONTINUOUS
10
-84.274690
20
-0.738510
30
0.0
11
-84.637350
21
-7.789600
31
0.0
0
LINE
8
0
6
CONTINUOUS
10
-83.768680
20
-0.738510
30
0.0
11
-84.131350
21
-7.789600
31
0.0
0
LINE
8
0
6
CONTINUOUS
10
-83.912050
20
6.312590
30
0.0
11
-84.274690
21
-0.738510
31
0.0
0
LINE
8
0
6
CONTINUOUS
10
-83.406040
20
6.312590
30
0.0
11
-83.768680
21
-0.738510
31
0.0
0
LINE
8
0
6
CONTINUOUS
10
-20.837790
20
14.446610
30
0.0
11
-41.675580
21
14.446610
31
0.0
0
LINE
8
0
6
CONTINUOUS
10
-21.250000
20
-14.840700
30
0.0
11
0.000000
21
-14.840700
31
0.0
0
LINE
8
0
6
CONTINUOUS
10
-62.610810
20
-14.840700
30
0.0
11
-42.500000
21
-14.840700
31
0.0
0
LINE
8
0
6
CONTINUOUS
10
-60.766320
20
14.840700
30
0.0
11
-80.259920
21
14.840700
31
0.0
0
LINE
8
0
6
CONTINUOUS
10
-81.072770
20
14.446610
30
0.0
11
-61.374170
21
14.446610
31
0.0
0
LINE
8
0
6
CONTINUOUS
10
-23.800210
20
14.840700
30
0.0
11
-24.712820
21
14.840700
31
0.0
0
LINE
8
0
6
CONTINUOUS
10
-21.367040
20
14.840700
30
0.0
11
-23.800210
21
14.840700
31
0.0
0
LINE
8
0
6
CONTINUOUS
10
-17.489050
20
14.840700
30
0.0
11
-21.367040
21
14.840700
31
0.0
0
LINE
8
0
6
CONTINUOUS
10
-12.318380
20
14.840700
30
0.0
11
-17.489050
21
14.840700
31
0.0
0
LINE
8
0
6
CONTINUOUS
10
-6.387250
20
14.840700
30
0.0
11
-12.318380
21
14.840700
31
0.0
0
LINE
8
0
6
CONTINUOUS
10
0.000000
20
14.840700
30
0.0
11
-6.387250
21
14.840700
31
0.0
0
LINE
8
0
6
CONTINUOUS
10
-14.998670
20
14.840700
30
0.0
11
-15.573790
21
14.840700
31
0.0
0
LINE
8
0
6
CONTINUOUS
10
-13.465320
20
14.840700
30
0.0
11
-14.998670
21
14.840700
31
0.0
0
LINE
8
0
6
CONTINUOUS
10
-11.021450
20
14.840700
30
0.0
11
-13.465320
21
14.840700
31
0.0
0
LINE
8
0
6
CONTINUOUS
10
-7.762960
20
14.840700
30
0.0
11
-11.021450
21
14.840700
31
0.0
0
LINE
8
0
6
CONTINUOUS
10
-4.025240
20
14.840700
30
0.0
11
-7.762960
21
14.840700
31
0.0
0
LINE
8
0
6
CONTINUOUS
10
0.000000
20
14.840700
30
0.0
11
-4.025240
21
14.840700
31
0.0
0
LINE
8
0
6
CONTINUOUS
10
41.272710
20
14.840700
30
0.0
11
20.640010
21
14.840700
31
0.0
0
LINE
8
0
6
CONTINUOUS
10
62.610810
20
-14.840700
30
0.0
11
82.721610
21
-14.840700
31
0.0
0
LINE
8
0
6
CONTINUOUS
10
41.675580
20
14.446610
30
0.0
11
61.374170
21
14.446610
31
0.0
0
LINE
8
0
6
CONTINUOUS
10
60.766320
20
14.840700
30
0.0
11
41.272710
21
14.840700
31
0.0
0
LINE
8
0
6
CONTINUOUS
10
0.000000
20
14.446610
30
0.0
11
20.837790
21
14.446610
31
0.0
0
LINE
8
0
6
CONTINUOUS
10
20.640010
20
14.840700
30
0.0
11
0.000000
21
14.840700
31
0.0
0
LINE
8
0
6
CONTINUOUS
10
21.250000
20
-14.840700
30
0.0
11
42.500000
21
-14.840700
31
0.0
0
LINE
8
0
6
CONTINUOUS
10
83.068570
20
12.874240
30
0.0
11
83.406040
21
6.312590
31
0.0
0
LINE
8
0
6
CONTINUOUS
10
83.912050
20
6.312590
30
0.0
11
83.574570
21
12.874240
31
0.0
0
LINE
8
0
6
CONTINUOUS
10
83.574570
20
12.874240
30
0.0
11
83.549390
21
13.363680
31
0.0
0
LINE
8
0
6
CONTINUOUS
10
83.068570
20
12.874240
30
0.0
11
83.043390
21
13.363680
31
0.0
0
LINE
8
0
6
CONTINUOUS
10
83.549390
20
13.363680
30
0.0
11
83.351150
21
14.446610
31
0.0
0
LINE
8
0
6
CONTINUOUS
10
82.845150
20
14.446610
30
0.0
11
83.043390
21
13.363680
31
0.0
0
LINE
8
0
6
CONTINUOUS
10
82.032150
20
14.840700
30
0.0
11
80.259920
21
14.840700
31
0.0
0
LINE
8
0
6
CONTINUOUS
10
81.072770
20
14.446610
30
0.0
11
82.845150
21
14.446610
31
0.0
0
LINE
8
0
6
CONTINUOUS
10
82.538100
20
14.840700
30
0.0
11
82.032150
21
14.840700
31
0.0
0
LINE
8
0
6
CONTINUOUS
10
83.351150
20
14.446610
30
0.0
11
82.538100
21
14.840700
31
0.0
0
LINE
8
0
6
CONTINUOUS
10
82.845150
20
14.446610
30
0.0
11
83.351150
21
14.446610
31
0.0
0
LINE
8
0
6
CONTINUOUS
10
84.493990
20
-14.840700
30
0.0
11
85.000000
21
-14.840700
31
0.0
0
LINE
8
0
6
CONTINUOUS
10
85.000000
20
-14.840700
30
0.0
11
84.637350
21
-7.789600
31
0.0
0
LINE
8
0
6
CONTINUOUS
10
82.721610
20
-14.840700
30
0.0
11
84.493990
21
-14.840700
31
0.0
0
LINE
8
0
6
CONTINUOUS
10
84.493990
20
-14.840700
30
0.0
11
84.131350
21
-7.789600
31
0.0
0
LINE
8
0
6
CONTINUOUS
10
84.637350
20
-7.789600
30
0.0
11
84.274690
21
-0.738510
31
0.0
0
LINE
8
0
6
CONTINUOUS
10
84.131350
20
-7.789600
30
0.0
11
83.768680
21
-0.738510
31
0.0
0
LINE
8
0
6
CONTINUOUS
10
84.274690
20
-0.738510
30
0.0
11
83.912050
21
6.312590
31
0.0
0
LINE
8
0
6
CONTINUOUS
10
83.768680
20
-0.738510
30
0.0
11
83.406040
21
6.312590
31
0.0
0
LINE
8
0
6
CONTINUOUS
10
41.675580
20
14.446610
30
0.0
11
20.837790
21
14.446610
31
0.0
0
LINE
8
0
6
CONTINUOUS
10
0.000000
20
-14.840700
30
0.0
11
21.250000
21
-14.840700
31
0.0
0
LINE
8
0
6
CONTINUOUS
10
42.500000
20
-14.840700
30
0.0
11
62.610810
21
-14.840700
31
0.0
0
LINE
8
0
6
CONTINUOUS
10
61.374170
20
14.446610
30
0.0
11
81.072770
21
14.446610
31
0.0
0
LINE
8
0
6
CONTINUOUS
10
80.259920
20
14.840700
30
0.0
11
60.766320
21
14.840700
31
0.0
0
LINE
8
0
6
CONTINUOUS
10
24.712820
20
14.840700
30
0.0
11
23.800210
21
14.840700
31
0.0
0
LINE
8
0
6
CONTINUOUS
10
23.800210
20
14.840700
30
0.0
11
21.367040
21
14.840700
31
0.0
0
LINE
8
0
6
CONTINUOUS
10
21.367040
20
14.840700
30
0.0
11
17.489050
21
14.840700
31
0.0
0
LINE
8
0
6
CONTINUOUS
10
17.489050
20
14.840700
30
0.0
11
12.318380
21
14.840700
31
0.0
0
LINE
8
0
6
CONTINUOUS
10
12.318380
20
14.840700
30
0.0
11
6.387250
21
14.840700
31
0.0
0
LINE
8
0
6
CONTINUOUS
10
6.387250
20
14.840700
30
0.0
11
0.000000
21
14.840700
31
0.0
0
LINE
8
0
6
CONTINUOUS
10
15.573790
20
14.840700
30
0.0
11
14.998670
21
14.840700
31
0.0
0
LINE
8
0
6
CONTINUOUS
10
14.998670
20
14.840700
30
0.0
11
13.465320
21
14.840700
31
0.0
0
LINE
8
0
6
CONTINUOUS
10
13.465320
20
14.840700
30
0.0
11
11.021450
21
14.840700
31
0.0
0
LINE
8
0
6
CONTINUOUS
10
11.021450
20
14.840700
30
0.0
11
7.762960
21
14.840700
31
0.0
0
LINE
8
0
6
CONTINUOUS
10
7.762960
20
14.840700
30
0.0
11
4.025240
21
14.840700
31
0.0
0
LINE
8
0
6
CONTINUOUS
10
4.025240
20
14.840700
30
0.0
11
0.000000
21
14.840700
31
0.0
0
ENDSEC
0
EOF
