999
Erzeugt mit innoplus bad 
0
SECTION
2
HEADER
9
$ACADVER
1
AC1009
9
$DWGCODEPAGE
3
ISO8859-1
0
ENDSEC
0
SECTION
2
TABLES
0
TABLE
2
LAYER
70
1
0
LAYER
2
0
70
0
62
7
6
CONTINUOUS
0
ENDTAB
0
ENDSEC
0
SECTION
2
ENTITIES
0
LINE
8
0
6
CONTINUOUS
10
42.500000
20
-15.100875
30
0.0
11
82.721610
21
-15.100875
31
0.0
0
LINE
8
0
6
CONTINUOUS
10
41.675580
20
14.186435
30
0.0
11
81.072770
21
14.186435
31
0.0
0
LINE
8
0
6
CONTINUOUS
10
41.269180
20
14.958515
30
0.0
11
80.259970
21
14.958515
31
0.0
0
LINE
8
0
6
CONTINUOUS
10
79.168280
20
15.100875
30
0.0
11
40.723330
21
15.100875
31
0.0
0
LINE
8
0
6
CONTINUOUS
10
0.000000
20
14.186435
30
0.0
11
41.675580
21
14.186435
31
0.0
0
LINE
8
0
6
CONTINUOUS
10
0.000000
20
14.958515
30
0.0
11
41.269180
21
14.958515
31
0.0
0
LINE
8
0
6
CONTINUOUS
10
40.723330
20
15.100875
30
0.0
11
0.000000
21
15.100875
31
0.0
0
LINE
8
0
6
CONTINUOUS
10
0.000000
20
-15.100875
30
0.0
11
42.500000
21
-15.100875
31
0.0
0
LINE
8
0
6
CONTINUOUS
10
83.052900
20
12.918635
30
0.0
11
83.406040
21
6.052415
31
0.0
0
LINE
8
0
6
CONTINUOUS
10
83.912050
20
6.052415
30
0.0
11
83.558900
21
12.918635
31
0.0
0
LINE
8
0
6
CONTINUOUS
10
83.558900
20
12.918635
30
0.0
11
83.549390
21
13.103505
31
0.0
0
LINE
8
0
6
CONTINUOUS
10
83.052900
20
12.918635
30
0.0
11
83.043390
21
13.103505
31
0.0
0
LINE
8
0
6
CONTINUOUS
10
83.549390
20
13.103505
30
0.0
11
83.351150
21
14.186435
31
0.0
0
LINE
8
0
6
CONTINUOUS
10
82.845150
20
14.186435
30
0.0
11
83.043390
21
13.103505
31
0.0
0
LINE
8
0
6
CONTINUOUS
10
81.072770
20
14.186435
30
0.0
11
82.845150
21
14.186435
31
0.0
0
LINE
8
0
6
CONTINUOUS
10
83.351150
20
14.186435
30
0.0
11
82.538360
21
14.958515
31
0.0
0
LINE
8
0
6
CONTINUOUS
10
82.845150
20
14.186435
30
0.0
11
83.351150
21
14.186435
31
0.0
0
LINE
8
0
6
CONTINUOUS
10
82.032360
20
14.958515
30
0.0
11
82.845150
21
14.186435
31
0.0
0
LINE
8
0
6
CONTINUOUS
10
80.940700
20
15.100875
30
0.0
11
79.168280
21
15.100875
31
0.0
0
LINE
8
0
6
CONTINUOUS
10
80.259970
20
14.958515
30
0.0
11
82.032360
21
14.958515
31
0.0
0
LINE
8
0
6
CONTINUOUS
10
81.446670
20
15.100875
30
0.0
11
80.940700
21
15.100875
31
0.0
0
LINE
8
0
6
CONTINUOUS
10
82.538360
20
14.958515
30
0.0
11
81.446670
21
15.100875
31
0.0
0
LINE
8
0
6
CONTINUOUS
10
82.032360
20
14.958515
30
0.0
11
82.538360
21
14.958515
31
0.0
0
LINE
8
0
6
CONTINUOUS
10
84.493990
20
-15.100875
30
0.0
11
85.000000
21
-15.100875
31
0.0
0
LINE
8
0
6
CONTINUOUS
10
85.000000
20
-15.100875
30
0.0
11
84.637350
21
-8.049775
31
0.0
0
LINE
8
0
6
CONTINUOUS
10
82.721610
20
-15.100875
30
0.0
11
84.493990
21
-15.100875
31
0.0
0
LINE
8
0
6
CONTINUOUS
10
84.493990
20
-15.100875
30
0.0
11
84.131350
21
-8.049775
31
0.0
0
LINE
8
0
6
CONTINUOUS
10
84.637350
20
-8.049775
30
0.0
11
84.274690
21
-0.998685
31
0.0
0
LINE
8
0
6
CONTINUOUS
10
84.131350
20
-8.049775
30
0.0
11
83.768680
21
-0.998685
31
0.0
0
LINE
8
0
6
CONTINUOUS
10
84.274690
20
-0.998685
30
0.0
11
83.912050
21
6.052415
31
0.0
0
LINE
8
0
6
CONTINUOUS
10
83.768680
20
-0.998685
30
0.0
11
83.406040
21
6.052415
31
0.0
0
LINE
8
0
6
CONTINUOUS
10
-82.721610
20
-15.100875
30
0.0
11
-42.500000
21
-15.100875
31
0.0
0
LINE
8
0
6
CONTINUOUS
10
-81.072770
20
14.186435
30
0.0
11
-41.675580
21
14.186435
31
0.0
0
LINE
8
0
6
CONTINUOUS
10
-40.723330
20
15.100875
30
0.0
11
-79.168280
21
15.100875
31
0.0
0
LINE
8
0
6
CONTINUOUS
10
-80.259970
20
14.958515
30
0.0
11
-41.269180
21
14.958515
31
0.0
0
LINE
8
0
6
CONTINUOUS
10
-41.675580
20
14.186435
30
0.0
11
0.000000
21
14.186435
31
0.0
0
LINE
8
0
6
CONTINUOUS
10
0.000000
20
15.100875
30
0.0
11
-40.723330
21
15.100875
31
0.0
0
LINE
8
0
6
CONTINUOUS
10
-41.269180
20
14.958515
30
0.0
11
0.000000
21
14.958515
31
0.0
0
LINE
8
0
6
CONTINUOUS
10
-42.500000
20
-15.100875
30
0.0
11
0.000000
21
-15.100875
31
0.0
0
LINE
8
0
6
CONTINUOUS
10
-83.558900
20
12.918635
30
0.0
11
-83.912050
21
6.052415
31
0.0
0
LINE
8
0
6
CONTINUOUS
10
-83.406040
20
6.052415
30
0.0
11
-83.052900
21
12.918635
31
0.0
0
LINE
8
0
6
CONTINUOUS
10
-83.549390
20
13.103505
30
0.0
11
-83.558900
21
12.918635
31
0.0
0
LINE
8
0
6
CONTINUOUS
10
-83.043390
20
13.103505
30
0.0
11
-83.052900
21
12.918635
31
0.0
0
LINE
8
0
6
CONTINUOUS
10
-83.043390
20
13.103505
30
0.0
11
-82.845150
21
14.186435
31
0.0
0
LINE
8
0
6
CONTINUOUS
10
-83.351150
20
14.186435
30
0.0
11
-83.549390
21
13.103505
31
0.0
0
LINE
8
0
6
CONTINUOUS
10
-82.845150
20
14.186435
30
0.0
11
-81.072770
21
14.186435
31
0.0
0
LINE
8
0
6
CONTINUOUS
10
-82.845150
20
14.186435
30
0.0
11
-82.032360
21
14.958515
31
0.0
0
LINE
8
0
6
CONTINUOUS
10
-83.351150
20
14.186435
30
0.0
11
-82.845150
21
14.186435
31
0.0
0
LINE
8
0
6
CONTINUOUS
10
-82.538360
20
14.958515
30
0.0
11
-83.351150
21
14.186435
31
0.0
0
LINE
8
0
6
CONTINUOUS
10
-82.032360
20
14.958515
30
0.0
11
-80.259970
21
14.958515
31
0.0
0
LINE
8
0
6
CONTINUOUS
10
-79.168280
20
15.100875
30
0.0
11
-80.940700
21
15.100875
31
0.0
0
LINE
8
0
6
CONTINUOUS
10
-82.538360
20
14.958515
30
0.0
11
-82.032360
21
14.958515
31
0.0
0
LINE
8
0
6
CONTINUOUS
10
-81.446670
20
15.100875
30
0.0
11
-82.538360
21
14.958515
31
0.0
0
LINE
8
0
6
CONTINUOUS
10
-80.940700
20
15.100875
30
0.0
11
-81.446670
21
15.100875
31
0.0
0
LINE
8
0
6
CONTINUOUS
10
-84.637350
20
-8.049775
30
0.0
11
-85.000000
21
-15.100875
31
0.0
0
LINE
8
0
6
CONTINUOUS
10
-85.000000
20
-15.100875
30
0.0
11
-84.493990
21
-15.100875
31
0.0
0
LINE
8
0
6
CONTINUOUS
10
-84.131350
20
-8.049775
30
0.0
11
-84.493990
21
-15.100875
31
0.0
0
LINE
8
0
6
CONTINUOUS
10
-84.493990
20
-15.100875
30
0.0
11
-82.721610
21
-15.100875
31
0.0
0
LINE
8
0
6
CONTINUOUS
10
-84.274690
20
-0.998685
30
0.0
11
-84.637350
21
-8.049775
31
0.0
0
LINE
8
0
6
CONTINUOUS
10
-83.768680
20
-0.998685
30
0.0
11
-84.131350
21
-8.049775
31
0.0
0
LINE
8
0
6
CONTINUOUS
10
-83.912050
20
6.052415
30
0.0
11
-84.274690
21
-0.998685
31
0.0
0
LINE
8
0
6
CONTINUOUS
10
-83.406040
20
6.052415
30
0.0
11
-83.768680
21
-0.998685
31
0.0
0
LINE
8
0
6
CONTINUOUS
10
10.175530
20
15.100875
30
0.0
11
0.000000
21
15.100875
31
0.0
0
LINE
8
0
6
CONTINUOUS
10
21.756150
20
15.100875
30
0.0
11
18.737880
21
15.100875
31
0.0
0
LINE
8
0
6
CONTINUOUS
10
18.737880
20
15.100875
30
0.0
11
14.514030
21
15.100875
31
0.0
0
LINE
8
0
6
CONTINUOUS
10
14.514030
20
15.100875
30
0.0
11
10.175530
21
15.100875
31
0.0
0
LINE
8
0
6
CONTINUOUS
10
24.613140
20
15.100875
30
0.0
11
21.756150
21
15.100875
31
0.0
0
LINE
8
0
6
CONTINUOUS
10
26.600550
20
15.100875
30
0.0
11
24.613140
21
15.100875
31
0.0
0
LINE
8
0
6
CONTINUOUS
10
0.000000
20
15.100875
30
0.0
11
-10.175530
21
15.100875
31
0.0
0
LINE
8
0
6
CONTINUOUS
10
-18.737880
20
15.100875
30
0.0
11
-21.756150
21
15.100875
31
0.0
0
LINE
8
0
6
CONTINUOUS
10
-14.514030
20
15.100875
30
0.0
11
-18.737880
21
15.100875
31
0.0
0
LINE
8
0
6
CONTINUOUS
10
-10.175530
20
15.100875
30
0.0
11
-14.514030
21
15.100875
31
0.0
0
LINE
8
0
6
CONTINUOUS
10
-21.756150
20
15.100875
30
0.0
11
-24.613140
21
15.100875
31
0.0
0
LINE
8
0
6
CONTINUOUS
10
-24.613140
20
15.100875
30
0.0
11
-26.600550
21
15.100875
31
0.0
0
ENDSEC
0
EOF
