999
Erzeugt mit innoplus bad 
0
SECTION
2
HEADER
9
$ACADVER
1
AC1009
9
$DWGCODEPAGE
3
ISO8859-1
0
ENDSEC
0
SECTION
2
TABLES
0
TABLE
2
LAYER
70
1
0
LAYER
2
0
70
0
62
7
6
CONTINUOUS
0
ENDTAB
0
ENDSEC
0
SECTION
2
ENTITIES
0
LINE
8
0
6
CONTINUOUS
10
84.063510
20
11.704620
30
0.0
11
84.049810
21
11.952150
31
0.0
0
LINE
8
0
6
CONTINUOUS
10
-84.049640
20
11.947820
30
0.0
11
-84.063360
21
11.700340
31
0.0
0
LINE
8
0
6
CONTINUOUS
10
0.054040
20
14.466640
30
0.0
11
-15.641030
21
14.466640
31
0.0
0
LINE
8
0
6
CONTINUOUS
10
-56.827790
20
14.466640
30
0.0
11
-66.831440
21
14.466640
31
0.0
0
LINE
8
0
6
CONTINUOUS
10
56.881080
20
14.466640
30
0.0
11
44.752590
21
14.466640
31
0.0
0
LINE
8
0
6
CONTINUOUS
10
66.820630
20
14.466640
30
0.0
11
56.881080
21
14.466640
31
0.0
0
LINE
8
0
6
CONTINUOUS
10
-80.385540
20
14.466640
30
0.0
11
-82.424050
21
14.163360
31
0.0
0
LINE
8
0
6
CONTINUOUS
10
-78.840550
20
14.466640
30
0.0
11
-80.385540
21
14.466640
31
0.0
0
LINE
8
0
6
CONTINUOUS
10
15.746200
20
14.466640
30
0.0
11
0.054040
21
14.466640
31
0.0
0
LINE
8
0
6
CONTINUOUS
10
-44.638770
20
14.466640
30
0.0
11
-56.827790
21
14.466640
31
0.0
0
LINE
8
0
6
CONTINUOUS
10
-30.730920
20
14.466640
30
0.0
11
-44.638770
21
14.466640
31
0.0
0
LINE
8
0
6
CONTINUOUS
10
74.258780
20
14.466640
30
0.0
11
66.820630
21
14.466640
31
0.0
0
LINE
8
0
6
CONTINUOUS
10
-74.263470
20
14.466640
30
0.0
11
-78.840550
21
14.466640
31
0.0
0
LINE
8
0
6
CONTINUOUS
10
30.841930
20
14.466640
30
0.0
11
15.746200
21
14.466640
31
0.0
0
LINE
8
0
6
CONTINUOUS
10
80.385510
20
14.466640
30
0.0
11
78.838010
21
14.466640
31
0.0
0
LINE
8
0
6
CONTINUOUS
10
82.423520
20
14.163550
30
0.0
11
80.385510
21
14.466640
31
0.0
0
LINE
8
0
6
CONTINUOUS
10
-66.831440
20
14.466640
30
0.0
11
-74.263470
21
14.466640
31
0.0
0
LINE
8
0
6
CONTINUOUS
10
44.752590
20
14.466640
30
0.0
11
30.841930
21
14.466640
31
0.0
0
LINE
8
0
6
CONTINUOUS
10
-15.641030
20
14.466640
30
0.0
11
-30.730920
21
14.466640
31
0.0
0
LINE
8
0
6
CONTINUOUS
10
78.838010
20
14.466640
30
0.0
11
74.258780
21
14.466640
31
0.0
0
LINE
8
0
6
CONTINUOUS
10
-83.617230
20
13.247520
30
0.0
11
-84.049640
21
11.947820
31
0.0
0
LINE
8
0
6
CONTINUOUS
10
-82.424050
20
14.163360
30
0.0
11
-83.617230
21
13.247520
31
0.0
0
LINE
8
0
6
CONTINUOUS
10
84.049810
20
11.952150
30
0.0
11
83.615920
21
13.248900
31
0.0
0
LINE
8
0
6
CONTINUOUS
10
83.615920
20
13.248900
30
0.0
11
82.423520
21
14.163550
31
0.0
0
LINE
8
0
6
CONTINUOUS
10
-47.508740
20
-14.466640
30
0.0
11
-32.724570
21
-14.466640
31
0.0
0
LINE
8
0
6
CONTINUOUS
10
-60.467150
20
-14.466640
30
0.0
11
-47.508740
21
-14.466640
31
0.0
0
LINE
8
0
6
CONTINUOUS
10
83.870350
20
-14.466640
30
0.0
11
85.513470
21
-14.466640
31
0.0
0
LINE
8
0
6
CONTINUOUS
10
85.513470
20
-14.466640
30
0.0
11
84.063510
21
11.704620
31
0.0
0
LINE
8
0
6
CONTINUOUS
10
79.004140
20
-14.466640
30
0.0
11
83.870350
21
-14.466640
31
0.0
0
LINE
8
0
6
CONTINUOUS
10
71.101850
20
-14.466640
30
0.0
11
79.004140
21
-14.466640
31
0.0
0
LINE
8
0
6
CONTINUOUS
10
60.467150
20
-14.466640
30
0.0
11
71.101850
21
-14.466640
31
0.0
0
LINE
8
0
6
CONTINUOUS
10
47.508740
20
-14.466640
30
0.0
11
60.467150
21
-14.466640
31
0.0
0
LINE
8
0
6
CONTINUOUS
10
32.724590
20
-14.466640
30
0.0
11
47.508740
21
-14.466640
31
0.0
0
LINE
8
0
6
CONTINUOUS
10
16.682850
20
-14.466640
30
0.0
11
32.724590
21
-14.466640
31
0.0
0
LINE
8
0
6
CONTINUOUS
10
0.000010
20
-14.466640
30
0.0
11
16.682850
21
-14.466640
31
0.0
0
LINE
8
0
6
CONTINUOUS
10
-16.682840
20
-14.466640
30
0.0
11
0.000010
21
-14.466640
31
0.0
0
LINE
8
0
6
CONTINUOUS
10
-32.724570
20
-14.466640
30
0.0
11
-16.682840
21
-14.466640
31
0.0
0
LINE
8
0
6
CONTINUOUS
10
-71.101860
20
-14.466640
30
0.0
11
-60.467150
21
-14.466640
31
0.0
0
LINE
8
0
6
CONTINUOUS
10
-79.004150
20
-14.466640
30
0.0
11
-71.101860
21
-14.466640
31
0.0
0
LINE
8
0
6
CONTINUOUS
10
-83.870350
20
-14.466640
30
0.0
11
-79.004150
21
-14.466640
31
0.0
0
LINE
8
0
6
CONTINUOUS
10
-85.513470
20
-14.466640
30
0.0
11
-83.870350
21
-14.466640
31
0.0
0
LINE
8
0
6
CONTINUOUS
10
-84.063360
20
11.700340
30
0.0
11
-85.513470
21
-14.466640
31
0.0
0
LINE
8
0
6
CONTINUOUS
10
-16.364300
20
14.466640
30
0.0
11
-21.525800
21
14.466640
31
0.0
0
LINE
8
0
6
CONTINUOUS
10
24.801140
20
14.466640
30
0.0
11
24.219290
21
14.466640
31
0.0
0
LINE
8
0
6
CONTINUOUS
10
26.354720
20
14.466640
30
0.0
11
24.801140
21
14.466640
31
0.0
0
LINE
8
0
6
CONTINUOUS
10
28.851360
20
14.466640
30
0.0
11
26.354720
21
14.466640
31
0.0
0
LINE
8
0
6
CONTINUOUS
10
32.144210
20
14.466640
30
0.0
11
28.851360
21
14.466640
31
0.0
0
LINE
8
0
6
CONTINUOUS
10
35.924830
20
14.466640
30
0.0
11
32.144210
21
14.466640
31
0.0
0
LINE
8
0
6
CONTINUOUS
10
39.824340
20
14.466640
30
0.0
11
35.924830
21
14.466640
31
0.0
0
LINE
8
0
6
CONTINUOUS
10
43.840070
20
14.466640
30
0.0
11
39.824340
21
14.466640
31
0.0
0
LINE
8
0
6
CONTINUOUS
10
47.573880
20
14.466640
30
0.0
11
43.840070
21
14.466640
31
0.0
0
LINE
8
0
6
CONTINUOUS
10
50.805520
20
14.466640
30
0.0
11
47.573880
21
14.466640
31
0.0
0
LINE
8
0
6
CONTINUOUS
10
53.257280
20
14.466640
30
0.0
11
50.805520
21
14.466640
31
0.0
0
LINE
8
0
6
CONTINUOUS
10
54.778530
20
14.466640
30
0.0
11
53.257280
21
14.466640
31
0.0
0
LINE
8
0
6
CONTINUOUS
10
55.370460
20
14.466640
30
0.0
11
54.778530
21
14.466640
31
0.0
0
LINE
8
0
6
CONTINUOUS
10
-21.525800
20
14.466640
30
0.0
11
-27.546880
21
14.466640
31
0.0
0
LINE
8
0
6
CONTINUOUS
10
-27.546880
20
14.466640
30
0.0
11
-34.017200
21
14.466640
31
0.0
0
LINE
8
0
6
CONTINUOUS
10
-34.017200
20
14.466640
30
0.0
11
-40.495820
21
14.466640
31
0.0
0
LINE
8
0
6
CONTINUOUS
10
-40.495820
20
14.466640
30
0.0
11
-46.541240
21
14.466640
31
0.0
0
LINE
8
0
6
CONTINUOUS
10
-46.541240
20
14.466640
30
0.0
11
-51.741480
21
14.466640
31
0.0
0
LINE
8
0
6
CONTINUOUS
10
-51.741480
20
14.466640
30
0.0
11
-55.742130
21
14.466640
31
0.0
0
LINE
8
0
6
CONTINUOUS
10
-55.742130
20
14.466640
30
0.0
11
-58.270570
21
14.466640
31
0.0
0
LINE
8
0
6
CONTINUOUS
10
-58.270570
20
14.466640
30
0.0
11
-59.154490
21
14.466640
31
0.0
0
LINE
8
0
6
CONTINUOUS
10
-9.123610
20
14.466640
30
0.0
11
-9.944460
21
14.466640
31
0.0
0
LINE
8
0
6
CONTINUOUS
10
-9.944460
20
14.466640
30
0.0
11
-12.414120
21
14.466640
31
0.0
0
LINE
8
0
6
CONTINUOUS
10
-12.414120
20
14.466640
30
0.0
11
-16.364300
21
14.466640
31
0.0
0
ENDSEC
0
EOF
