999
Erzeugt mit innoplus bad 
0
SECTION
2
HEADER
9
$ACADVER
1
AC1009
9
$DWGCODEPAGE
3
ISO8859-1
0
ENDSEC
0
SECTION
2
TABLES
0
TABLE
2
LAYER
70
1
0
LAYER
2
0
70
0
62
7
6
CONTINUOUS
0
ENDTAB
0
ENDSEC
0
SECTION
2
ENTITIES
0
LINE
8
0
6
CONTINUOUS
10
71.101850
20
-47.508740
30
0.0
11
79.004140
21
-32.724570
31
0.0
0
LINE
8
0
6
CONTINUOUS
10
60.467160
20
-60.467150
30
0.0
11
71.101850
21
-47.508740
31
0.0
0
LINE
8
0
6
CONTINUOUS
10
-79.004170
20
-32.724520
30
0.0
11
-71.101890
21
-47.508690
31
0.0
0
LINE
8
0
6
CONTINUOUS
10
17.599040
20
-51.913800
30
0.0
11
12.394160
21
-55.863980
31
0.0
0
LINE
8
0
6
CONTINUOUS
10
6.343320
20
-58.333640
30
0.0
11
-0.141110
21
-59.154490
31
0.0
0
LINE
8
0
6
CONTINUOUS
10
-12.643710
20
-55.742130
30
0.0
11
-17.809850
21
-51.741480
31
0.0
0
LINE
8
0
6
CONTINUOUS
10
-0.141110
20
-59.154490
30
0.0
11
-6.617230
21
-58.270570
31
0.0
0
LINE
8
0
6
CONTINUOUS
10
17.771450
20
-16.536630
30
0.0
11
21.725180
21
-21.736860
31
0.0
0
LINE
8
0
6
CONTINUOUS
10
-21.641670
20
-21.525800
30
0.0
11
-17.637430
21
-16.364300
31
0.0
0
LINE
8
0
6
CONTINUOUS
10
21.725180
20
-21.736860
30
0.0
11
24.197070
21
-27.782280
31
0.0
0
LINE
8
0
6
CONTINUOUS
10
6.578840
20
-10.007530
30
0.0
11
12.605310
21
-12.535970
31
0.0
0
LINE
8
0
6
CONTINUOUS
10
-6.381720
20
-9.944460
30
0.0
11
0.102710
21
-9.123610
31
0.0
0
LINE
8
0
6
CONTINUOUS
10
-24.172360
20
-27.546880
30
0.0
11
-21.641670
21
-21.525800
31
0.0
0
LINE
8
0
6
CONTINUOUS
10
-12.432560
20
-12.414120
30
0.0
11
-6.381720
21
-9.944460
31
0.0
0
LINE
8
0
6
CONTINUOUS
10
0.102710
20
-9.123610
30
0.0
11
6.578840
21
-10.007530
31
0.0
0
LINE
8
0
6
CONTINUOUS
10
24.133970
20
-40.731230
30
0.0
11
21.603270
21
-46.752300
31
0.0
0
LINE
8
0
6
CONTINUOUS
10
12.394160
20
-55.863980
30
0.0
11
6.343320
21
-58.333640
31
0.0
0
LINE
8
0
6
CONTINUOUS
10
-6.617230
20
-58.270570
30
0.0
11
-12.643710
21
-55.742130
31
0.0
0
LINE
8
0
6
CONTINUOUS
10
12.605310
20
-12.535970
30
0.0
11
17.771450
21
-16.536630
31
0.0
0
LINE
8
0
6
CONTINUOUS
10
-17.637430
20
-16.364300
30
0.0
11
-12.432560
21
-12.414120
31
0.0
0
LINE
8
0
6
CONTINUOUS
10
-21.763570
20
-46.541240
30
0.0
11
-24.235470
21
-40.495820
31
0.0
0
LINE
8
0
6
CONTINUOUS
10
25.018660
20
-34.260900
30
0.0
11
24.133970
21
-40.731230
31
0.0
0
LINE
8
0
6
CONTINUOUS
10
24.197070
20
-27.782280
30
0.0
11
25.018660
21
-34.260900
31
0.0
0
LINE
8
0
6
CONTINUOUS
10
-24.235470
20
-40.495820
30
0.0
11
-25.057060
21
-34.017200
31
0.0
0
LINE
8
0
6
CONTINUOUS
10
-25.057060
20
-34.017200
30
0.0
11
-24.172360
21
-27.546880
31
0.0
0
LINE
8
0
6
CONTINUOUS
10
21.603270
20
-46.752300
30
0.0
11
17.599040
21
-51.913800
31
0.0
0
LINE
8
0
6
CONTINUOUS
10
-17.809850
20
-51.741480
30
0.0
11
-21.763570
21
-46.541240
31
0.0
0
LINE
8
0
6
CONTINUOUS
10
4.033070
20
24.800430
30
0.0
11
-0.003250
21
24.219290
31
0.0
0
LINE
8
0
6
CONTINUOUS
10
7.755290
20
26.354170
30
0.0
11
4.033070
21
24.800430
31
0.0
0
LINE
8
0
6
CONTINUOUS
10
-4.028730
20
24.801140
30
0.0
11
-7.757550
21
26.354720
31
0.0
0
LINE
8
0
6
CONTINUOUS
10
13.280020
20
32.187910
30
0.0
11
10.909460
21
28.847790
31
0.0
0
LINE
8
0
6
CONTINUOUS
10
-10.930960
20
28.851360
30
0.0
11
-13.369900
21
32.144210
31
0.0
0
LINE
8
0
6
CONTINUOUS
10
-0.003250
20
24.219290
30
0.0
11
-4.028730
21
24.801140
31
0.0
0
LINE
8
0
6
CONTINUOUS
10
10.909460
20
28.847790
30
0.0
11
7.755290
21
26.354170
31
0.0
0
LINE
8
0
6
CONTINUOUS
10
13.423870
20
47.573030
30
0.0
11
14.907240
21
43.849960
31
0.0
0
LINE
8
0
6
CONTINUOUS
10
-7.757550
20
26.354720
30
0.0
11
-10.930960
21
28.851360
31
0.0
0
LINE
8
0
6
CONTINUOUS
10
-14.903310
20
43.840070
30
0.0
11
-13.416940
21
47.573880
31
0.0
0
LINE
8
0
6
CONTINUOUS
10
0.009120
20
55.370460
30
0.0
11
4.043760
21
54.793140
31
0.0
0
LINE
8
0
6
CONTINUOUS
10
-4.031750
20
54.778530
30
0.0
11
0.009120
21
55.370460
31
0.0
0
LINE
8
0
6
CONTINUOUS
10
15.445230
20
39.819050
30
0.0
11
14.902430
21
35.929280
31
0.0
0
LINE
8
0
6
CONTINUOUS
10
14.902430
20
35.929280
30
0.0
11
13.280020
21
32.187910
31
0.0
0
LINE
8
0
6
CONTINUOUS
10
-14.916450
20
35.924830
30
0.0
11
-15.365350
21
39.824340
31
0.0
0
LINE
8
0
6
CONTINUOUS
10
-13.369900
20
32.144210
30
0.0
11
-14.916450
21
35.924830
31
0.0
0
LINE
8
0
6
CONTINUOUS
10
11.031640
20
50.810530
30
0.0
11
13.423870
21
47.573030
31
0.0
0
LINE
8
0
6
CONTINUOUS
10
-13.416940
20
47.573880
30
0.0
11
-11.024480
21
50.805520
31
0.0
0
LINE
8
0
6
CONTINUOUS
10
7.761410
20
53.258740
30
0.0
11
11.031640
21
50.810530
31
0.0
0
LINE
8
0
6
CONTINUOUS
10
14.907240
20
43.849960
30
0.0
11
15.445230
21
39.819050
31
0.0
0
LINE
8
0
6
CONTINUOUS
10
-11.024480
20
50.805520
30
0.0
11
-7.765210
21
53.257280
31
0.0
0
LINE
8
0
6
CONTINUOUS
10
-15.365350
20
39.824340
30
0.0
11
-14.903310
21
43.840070
31
0.0
0
LINE
8
0
6
CONTINUOUS
10
4.043760
20
54.793140
30
0.0
11
7.761410
21
53.258740
31
0.0
0
LINE
8
0
6
CONTINUOUS
10
-7.765210
20
53.257280
30
0.0
11
-4.031750
21
54.778530
31
0.0
0
LINE
8
0
6
CONTINUOUS
10
16.682850
20
83.870350
30
0.0
11
0.000000
21
85.513470
31
0.0
0
LINE
8
0
6
CONTINUOUS
10
32.724590
20
79.004140
30
0.0
11
16.682850
21
83.870350
31
0.0
0
LINE
8
0
6
CONTINUOUS
10
47.508750
20
71.101850
30
0.0
11
32.724590
21
79.004140
31
0.0
0
LINE
8
0
6
CONTINUOUS
10
60.467160
20
60.467150
30
0.0
11
47.508750
21
71.101850
31
0.0
0
LINE
8
0
6
CONTINUOUS
10
71.101850
20
47.508740
30
0.0
11
60.467160
21
60.467150
31
0.0
0
LINE
8
0
6
CONTINUOUS
10
79.004140
20
32.724590
30
0.0
11
71.101850
21
47.508740
31
0.0
0
LINE
8
0
6
CONTINUOUS
10
83.870340
20
16.682850
30
0.0
11
79.004140
21
32.724590
31
0.0
0
LINE
8
0
6
CONTINUOUS
10
85.513470
20
0.000010
30
0.0
11
83.870340
21
16.682850
31
0.0
0
LINE
8
0
6
CONTINUOUS
10
83.870340
20
-16.682840
30
0.0
11
85.513470
21
0.000010
31
0.0
0
LINE
8
0
6
CONTINUOUS
10
79.004140
20
-32.724570
30
0.0
11
83.870340
21
-16.682840
31
0.0
0
LINE
8
0
6
CONTINUOUS
10
47.508750
20
-71.101860
30
0.0
11
60.467160
21
-60.467150
31
0.0
0
LINE
8
0
6
CONTINUOUS
10
32.724570
20
-79.004150
30
0.0
11
47.508750
21
-71.101860
31
0.0
0
LINE
8
0
6
CONTINUOUS
10
16.682830
20
-83.870350
30
0.0
11
32.724570
21
-79.004150
31
0.0
0
LINE
8
0
6
CONTINUOUS
10
-0.000030
20
-85.513470
30
0.0
11
16.682830
21
-83.870350
31
0.0
0
LINE
8
0
6
CONTINUOUS
10
-16.682890
20
-83.870340
30
0.0
11
-0.000030
21
-85.513470
31
0.0
0
LINE
8
0
6
CONTINUOUS
10
-32.724630
20
-79.004130
30
0.0
11
-16.682890
21
-83.870340
31
0.0
0
LINE
8
0
6
CONTINUOUS
10
-47.508780
20
-71.101820
30
0.0
11
-32.724630
21
-79.004130
31
0.0
0
LINE
8
0
6
CONTINUOUS
10
-60.467200
20
-60.467120
30
0.0
11
-47.508780
21
-71.101820
31
0.0
0
LINE
8
0
6
CONTINUOUS
10
-71.101890
20
-47.508690
30
0.0
11
-60.467200
21
-60.467120
31
0.0
0
LINE
8
0
6
CONTINUOUS
10
-83.870370
20
-16.682780
30
0.0
11
-79.004170
21
-32.724520
31
0.0
0
LINE
8
0
6
CONTINUOUS
10
-85.513470
20
0.000080
30
0.0
11
-83.870370
21
-16.682780
31
0.0
0
LINE
8
0
6
CONTINUOUS
10
-83.870330
20
16.682940
30
0.0
11
-85.513470
21
0.000080
31
0.0
0
LINE
8
0
6
CONTINUOUS
10
-79.004100
20
32.724680
30
0.0
11
-83.870330
21
16.682940
31
0.0
0
LINE
8
0
6
CONTINUOUS
10
-71.101790
20
47.508830
30
0.0
11
-79.004100
21
32.724680
31
0.0
0
LINE
8
0
6
CONTINUOUS
10
-60.467080
20
60.467230
30
0.0
11
-71.101790
21
47.508830
31
0.0
0
LINE
8
0
6
CONTINUOUS
10
-47.508640
20
71.101920
30
0.0
11
-60.467080
21
60.467230
31
0.0
0
LINE
8
0
6
CONTINUOUS
10
-32.724470
20
79.004190
30
0.0
11
-47.508640
21
71.101920
31
0.0
0
LINE
8
0
6
CONTINUOUS
10
0.000000
20
85.513470
30
0.0
11
-16.682720
21
83.870380
31
0.0
0
LINE
8
0
6
CONTINUOUS
10
-16.682720
20
83.870380
30
0.0
11
-32.724470
21
79.004190
31
0.0
0
ENDSEC
0
EOF
