999
Erzeugt mit innoplus bad 
0
SECTION
2
HEADER
9
$ACADVER
1
AC1009
9
$DWGCODEPAGE
3
ISO8859-1
0
ENDSEC
0
SECTION
2
TABLES
0
TABLE
2
LAYER
70
1
0
LAYER
2
0
70
0
62
7
6
CONTINUOUS
0
ENDTAB
0
ENDSEC
0
SECTION
2
ENTITIES
0
LINE
8
0
6
CONTINUOUS
10
19.651910
20
68.378325
30
0.0
11
14.901560
21
70.424775
31
0.0
0
LINE
8
0
6
CONTINUOUS
10
14.901560
20
70.424775
30
0.0
11
9.959630
21
71.293615
31
0.0
0
LINE
8
0
6
CONTINUOUS
10
23.880490
20
65.203915
30
0.0
11
19.651910
21
68.378325
31
0.0
0
LINE
8
0
6
CONTINUOUS
10
27.333470
20
61.157845
30
0.0
11
23.880490
21
65.203915
31
0.0
0
LINE
8
0
6
CONTINUOUS
10
29.705230
20
56.459505
30
0.0
11
27.333470
21
61.157845
31
0.0
0
LINE
8
0
6
CONTINUOUS
10
30.877890
20
51.464205
30
0.0
11
29.705230
21
56.459505
31
0.0
0
LINE
8
0
6
CONTINUOUS
10
30.682340
20
46.524915
30
0.0
11
30.877890
21
51.464205
31
0.0
0
LINE
8
0
6
CONTINUOUS
10
29.164160
20
42.013475
30
0.0
11
30.682340
21
46.524915
31
0.0
0
LINE
8
0
6
CONTINUOUS
10
5.146650
20
70.851395
30
0.0
11
0.756880
21
69.194715
31
0.0
0
LINE
8
0
6
CONTINUOUS
10
9.959630
20
71.293615
30
0.0
11
5.146650
21
70.851395
31
0.0
0
LINE
8
0
6
CONTINUOUS
10
26.499030
20
38.208785
30
0.0
11
29.164160
21
42.013475
31
0.0
0
LINE
8
0
6
CONTINUOUS
10
0.529780
20
69.028095
30
0.0
11
-1.514060
21
67.528465
31
0.0
0
LINE
8
0
6
CONTINUOUS
10
24.107320
20
35.382725
30
0.0
11
26.259860
21
37.926185
31
0.0
0
LINE
8
0
6
CONTINUOUS
10
12.326990
20
-61.698625
30
0.0
11
12.337110
21
-61.236335
31
0.0
0
LINE
8
0
6
CONTINUOUS
10
11.904570
20
-64.742805
30
0.0
11
12.326990
21
-61.698625
31
0.0
0
LINE
8
0
6
CONTINUOUS
10
-16.901890
20
-71.110185
30
0.0
11
-13.055790
21
-72.895905
31
0.0
0
LINE
8
0
6
CONTINUOUS
10
-13.055790
20
-72.895905
30
0.0
11
-8.671970
21
-73.943005
31
0.0
0
LINE
8
0
6
CONTINUOUS
10
4.424760
20
-72.185115
30
0.0
11
7.856710
21
-70.192225
31
0.0
0
LINE
8
0
6
CONTINUOUS
10
-22.901600
20
-62.129405
30
0.0
11
-22.849660
21
-62.631035
31
0.0
0
LINE
8
0
6
CONTINUOUS
10
-22.849660
20
-62.631035
30
0.0
11
-21.988120
21
-65.796455
31
0.0
0
LINE
8
0
6
CONTINUOUS
10
-8.671970
20
-73.943005
30
0.0
11
-4.126750
21
-74.145825
31
0.0
0
LINE
8
0
6
CONTINUOUS
10
7.856710
20
-70.192225
30
0.0
11
10.396500
21
-67.665105
31
0.0
0
LINE
8
0
6
CONTINUOUS
10
-21.988120
20
-65.796455
30
0.0
11
-19.956800
21
-68.689675
31
0.0
0
LINE
8
0
6
CONTINUOUS
10
-4.126750
20
-74.145825
30
0.0
11
0.396820
21
-73.561295
31
0.0
0
LINE
8
0
6
CONTINUOUS
10
10.396500
20
-67.665105
30
0.0
11
11.904570
21
-64.742805
31
0.0
0
LINE
8
0
6
CONTINUOUS
10
-19.956800
20
-68.689675
30
0.0
11
-16.901890
21
-71.110185
31
0.0
0
LINE
8
0
6
CONTINUOUS
10
0.396820
20
-73.561295
30
0.0
11
4.424760
21
-72.185115
31
0.0
0
LINE
8
0
6
CONTINUOUS
10
21.209630
20
29.258245
30
0.0
11
25.014670
21
35.698905
31
0.0
0
LINE
8
0
6
CONTINUOUS
10
25.014670
20
35.698905
30
0.0
11
25.315312
21
36.810099
31
0.0
0
LINE
8
0
6
CONTINUOUS
10
-25.231780
20
63.309895
30
0.0
11
-28.861640
21
56.847495
31
0.0
0
LINE
8
0
6
CONTINUOUS
10
1.048580
20
74.145825
30
0.0
11
-6.390720
21
74.141195
31
0.0
0
LINE
8
0
6
CONTINUOUS
10
-6.390720
20
74.141195
30
0.0
11
-13.537880
21
72.174415
31
0.0
0
LINE
8
0
6
CONTINUOUS
10
-28.861640
20
56.847495
30
0.0
11
-30.821170
21
49.725865
31
0.0
0
LINE
8
0
6
CONTINUOUS
10
10.649933
20
71.172253
30
0.0
11
8.280260
21
72.437565
31
0.0
0
LINE
8
0
6
CONTINUOUS
10
-30.821170
20
49.725865
30
0.0
11
-30.877890
21
42.266485
31
0.0
0
LINE
8
0
6
CONTINUOUS
10
-13.537880
20
72.174415
30
0.0
11
-19.967750
21
68.526255
31
0.0
0
LINE
8
0
6
CONTINUOUS
10
-19.967750
20
68.526255
30
0.0
11
-25.231780
21
63.309895
31
0.0
0
LINE
8
0
6
CONTINUOUS
10
8.280260
20
72.437565
30
0.0
11
1.048580
21
74.145825
31
0.0
0
LINE
8
0
6
CONTINUOUS
10
-30.877890
20
42.266485
30
0.0
11
-29.374890
21
36.954603
31
0.0
0
LINE
8
0
6
CONTINUOUS
10
-29.555900
20
18.924575
30
0.0
11
-29.364200
21
11.569235
31
0.0
0
LINE
8
0
6
CONTINUOUS
10
15.823670
20
6.397995
30
0.0
11
16.601000
21
10.715245
31
0.0
0
LINE
8
0
6
CONTINUOUS
10
-29.205920
20
31.799375
30
0.0
11
-29.040880
21
27.335355
31
0.0
0
LINE
8
0
6
CONTINUOUS
10
-29.243960
20
33.792865
30
0.0
11
-29.205920
21
31.799375
31
0.0
0
LINE
8
0
6
CONTINUOUS
10
-29.212210
20
40.422735
30
0.0
11
-29.243960
21
33.792865
31
0.0
0
LINE
8
0
6
CONTINUOUS
10
-29.040880
20
27.335355
30
0.0
11
-29.082770
21
26.263875
31
0.0
0
LINE
8
0
6
CONTINUOUS
10
-29.405950
20
36.286675
30
0.0
11
-29.243960
21
33.792865
31
0.0
0
LINE
8
0
6
CONTINUOUS
10
-29.142540
20
41.951225
30
0.0
11
-29.405950
21
36.286675
31
0.0
0
LINE
8
0
6
CONTINUOUS
10
-29.142540
20
41.951225
30
0.0
11
-29.212210
21
40.422735
31
0.0
0
LINE
8
0
6
CONTINUOUS
10
-29.082770
20
26.263875
30
0.0
11
-29.555900
21
18.924575
31
0.0
0
LINE
8
0
6
CONTINUOUS
10
-29.364200
20
11.569235
30
0.0
11
-29.002840
21
4.213785
31
0.0
0
LINE
8
0
6
CONTINUOUS
10
15.116410
20
2.065665
30
0.0
11
15.823670
21
6.397995
31
0.0
0
LINE
8
0
6
CONTINUOUS
10
16.601000
20
10.715245
30
0.0
11
17.353890
21
15.037455
31
0.0
0
LINE
8
0
6
CONTINUOUS
10
17.353890
20
15.037455
30
0.0
11
18.183580
21
19.348505
31
0.0
0
LINE
8
0
6
CONTINUOUS
10
15.730390
20
9.459075
30
0.0
11
16.575410
21
12.823025
31
0.0
0
LINE
8
0
6
CONTINUOUS
10
-27.765110
20
-12.512825
30
0.0
11
-26.312030
21
-29.188855
31
0.0
0
LINE
8
0
6
CONTINUOUS
10
-26.312030
20
-29.188855
30
0.0
11
-22.901600
21
-62.129405
31
0.0
0
LINE
8
0
6
CONTINUOUS
10
13.001470
20
-30.879815
30
0.0
11
13.484580
21
-15.515755
31
0.0
0
LINE
8
0
6
CONTINUOUS
10
12.337110
20
-61.236335
30
0.0
11
13.001470
21
-30.879815
31
0.0
0
LINE
8
0
6
CONTINUOUS
10
-7.858030
20
63.299175
30
0.0
11
-11.938970
21
60.879145
31
0.0
0
LINE
8
0
6
CONTINUOUS
10
-3.867760
20
65.893405
30
0.0
11
-7.858030
21
63.299175
31
0.0
0
LINE
8
0
6
CONTINUOUS
10
-1.514060
20
67.528465
30
0.0
11
-3.867760
21
65.893405
31
0.0
0
LINE
8
0
6
CONTINUOUS
10
19.889930
20
25.051845
30
0.0
11
21.969390
21
30.821325
31
0.0
0
LINE
8
0
6
CONTINUOUS
10
21.969390
20
30.821325
30
0.0
11
24.735000
21
36.287375
31
0.0
0
LINE
8
0
6
CONTINUOUS
10
22.082500
20
32.151095
30
0.0
11
25.412751
21
37.170240
31
0.0
0
LINE
8
0
6
CONTINUOUS
10
3.955050
20
36.201305
30
0.0
11
-0.265050
21
39.393585
31
0.0
0
LINE
8
0
6
CONTINUOUS
10
22.848760
20
35.377775
30
0.0
11
18.458890
21
33.721065
31
0.0
0
LINE
8
0
6
CONTINUOUS
10
-7.274900
20
53.131145
30
0.0
11
-7.089960
21
58.070835
31
0.0
0
LINE
8
0
6
CONTINUOUS
10
-7.089960
20
58.070835
30
0.0
11
-5.578890
21
62.585305
31
0.0
0
LINE
8
0
6
CONTINUOUS
10
-0.265050
20
39.393585
30
0.0
11
-3.717220
21
43.443335
31
0.0
0
LINE
8
0
6
CONTINUOUS
10
18.458890
20
33.721065
30
0.0
11
13.647660
21
33.276485
31
0.0
0
LINE
8
0
6
CONTINUOUS
10
13.647660
20
33.276485
30
0.0
11
8.703790
21
34.139265
31
0.0
0
LINE
8
0
6
CONTINUOUS
10
-5.578890
20
62.585305
30
0.0
11
-2.915290
21
66.391095
31
0.0
0
LINE
8
0
6
CONTINUOUS
10
-3.717220
20
43.443335
30
0.0
11
-6.121440
21
48.131415
31
0.0
0
LINE
8
0
6
CONTINUOUS
10
26.499030
20
38.208785
30
0.0
11
22.848760
21
35.377775
31
0.0
0
LINE
8
0
6
CONTINUOUS
10
26.259860
20
37.926185
30
0.0
11
26.499030
21
38.208785
31
0.0
0
LINE
8
0
6
CONTINUOUS
10
-6.121440
20
48.131415
30
0.0
11
-7.274900
21
53.131145
31
0.0
0
LINE
8
0
6
CONTINUOUS
10
8.703790
20
34.139265
30
0.0
11
3.955050
21
36.201305
31
0.0
0
LINE
8
0
6
CONTINUOUS
10
-2.915290
20
66.391095
30
0.0
11
0.756880
21
69.194715
31
0.0
0
LINE
8
0
6
CONTINUOUS
10
14.381990
20
-2.261515
30
0.0
11
15.116410
21
2.065665
31
0.0
0
LINE
8
0
6
CONTINUOUS
10
-29.002840
20
4.213785
30
0.0
11
-27.765110
21
-12.512825
31
0.0
0
LINE
8
0
6
CONTINUOUS
10
13.484580
20
-15.515755
30
0.0
11
14.779390
21
-0.161535
31
0.0
0
LINE
8
0
6
CONTINUOUS
10
-28.871620
20
43.015145
30
0.0
11
-29.142540
21
41.951225
31
0.0
0
LINE
8
0
6
CONTINUOUS
10
-27.298080
20
48.586725
30
0.0
11
-28.871620
21
43.015145
31
0.0
0
LINE
8
0
6
CONTINUOUS
10
-26.742930
20
50.368735
30
0.0
11
-27.298080
21
48.586725
31
0.0
0
LINE
8
0
6
CONTINUOUS
10
-11.938970
20
60.879145
30
0.0
11
-16.130400
21
58.658805
31
0.0
0
LINE
8
0
6
CONTINUOUS
10
16.575410
20
12.823025
30
0.0
11
19.889930
21
25.051845
31
0.0
0
ENDSEC
0
EOF
