999
Erzeugt mit innoplus bad 
0
SECTION
2
HEADER
9
$ACADVER
1
AC1009
9
$DWGCODEPAGE
3
ISO8859-1
0
ENDSEC
0
SECTION
2
TABLES
0
TABLE
2
LAYER
70
1
0
LAYER
2
0
70
0
62
7
6
CONTINUOUS
0
ENDTAB
0
ENDSEC
0
SECTION
2
ENTITIES
0
LINE
8
0
6
CONTINUOUS
10
0.671420
20
-105.032795
30
0.0
11
1.014710
21
-104.255465
31
0.0
0
LINE
8
0
6
CONTINUOUS
10
-6.316360
20
-105.076735
30
0.0
11
-5.479260
21
-105.455615
31
0.0
0
LINE
8
0
6
CONTINUOUS
10
-5.477220
20
-80.055795
30
0.0
11
-6.251840
21
-80.390705
31
0.0
0
LINE
8
0
6
CONTINUOUS
10
1.014710
20
-104.255465
30
0.0
11
1.016610
21
-96.172925
31
0.0
0
LINE
8
0
6
CONTINUOUS
10
1.016610
20
-96.172925
30
0.0
11
1.020110
21
-81.255045
31
0.0
0
LINE
8
0
6
CONTINUOUS
10
-6.687930
20
-104.256245
30
0.0
11
-6.316360
21
-105.076735
31
0.0
0
LINE
8
0
6
CONTINUOUS
10
1.020110
20
-81.255045
30
0.0
11
0.649670
21
-80.436345
31
0.0
0
LINE
8
0
6
CONTINUOUS
10
-0.193870
20
-105.455275
30
0.0
11
0.671420
21
-105.032795
31
0.0
0
LINE
8
0
6
CONTINUOUS
10
-6.251840
20
-80.390705
30
0.0
11
-6.686890
21
-81.256195
31
0.0
0
LINE
8
0
6
CONTINUOUS
10
-6.687550
20
-96.172215
30
0.0
11
-6.687930
21
-104.256245
31
0.0
0
LINE
8
0
6
CONTINUOUS
10
-0.188590
20
-80.055115
30
0.0
11
-5.477220
21
-80.055795
31
0.0
0
LINE
8
0
6
CONTINUOUS
10
-6.686890
20
-81.256195
30
0.0
11
-6.687550
21
-96.172215
31
0.0
0
LINE
8
0
6
CONTINUOUS
10
0.649670
20
-80.436345
30
0.0
11
-0.188590
21
-80.055115
31
0.0
0
LINE
8
0
6
CONTINUOUS
10
-5.479260
20
-105.455615
30
0.0
11
-0.193870
21
-105.455275
31
0.0
0
LINE
8
0
6
CONTINUOUS
10
-28.556340
20
-63.087045
30
0.0
11
-29.077410
21
-80.628555
31
0.0
0
LINE
8
0
6
CONTINUOUS
10
23.111070
20
-80.857905
30
0.0
11
21.689890
21
-64.611605
31
0.0
0
LINE
8
0
6
CONTINUOUS
10
-5.782670
20
-36.777185
30
0.0
11
-9.879830
21
-36.317255
31
0.0
0
LINE
8
0
6
CONTINUOUS
10
-16.966010
20
-33.202835
30
0.0
11
-19.403580
21
-30.749435
31
0.0
0
LINE
8
0
6
CONTINUOUS
10
5.545100
20
-33.727365
30
0.0
11
2.186740
21
-35.446355
31
0.0
0
LINE
8
0
6
CONTINUOUS
10
9.822870
20
-28.752535
30
0.0
11
8.144870
21
-31.429375
31
0.0
0
LINE
8
0
6
CONTINUOUS
10
-13.700200
20
-35.089675
30
0.0
11
-16.966010
21
-33.202835
31
0.0
0
LINE
8
0
6
CONTINUOUS
10
-9.879830
20
-36.317255
30
0.0
11
-13.700200
21
-35.089675
31
0.0
0
LINE
8
0
6
CONTINUOUS
10
-19.403580
20
-30.749435
30
0.0
11
-20.777720
21
-27.895825
31
0.0
0
LINE
8
0
6
CONTINUOUS
10
8.144870
20
-31.429375
30
0.0
11
5.545100
21
-33.727365
31
0.0
0
LINE
8
0
6
CONTINUOUS
10
-1.661170
20
-36.524375
30
0.0
11
-5.782670
21
-36.777185
31
0.0
0
LINE
8
0
6
CONTINUOUS
10
10.504030
20
-25.828635
30
0.0
11
9.822870
21
-28.752535
31
0.0
0
LINE
8
0
6
CONTINUOUS
10
2.186740
20
-35.446355
30
0.0
11
-1.661170
21
-36.524375
31
0.0
0
LINE
8
0
6
CONTINUOUS
10
-12.239690
20
-17.941335
30
0.0
11
-8.314390
21
-16.968695
31
0.0
0
LINE
8
0
6
CONTINUOUS
10
3.413670
20
-18.670395
30
0.0
11
6.490000
21
-20.561005
31
0.0
0
LINE
8
0
6
CONTINUOUS
10
-13.715100
20
-37.821315
30
0.0
11
-16.980910
21
-35.934475
31
0.0
0
LINE
8
0
6
CONTINUOUS
10
10.489130
20
-28.560275
30
0.0
11
9.807970
21
-31.484175
31
0.0
0
LINE
8
0
6
CONTINUOUS
10
-21.014380
20
-27.598435
30
0.0
11
-20.240710
21
-24.609095
31
0.0
0
LINE
8
0
6
CONTINUOUS
10
9.807970
20
-31.484175
30
0.0
11
8.129970
21
-34.161015
31
0.0
0
LINE
8
0
6
CONTINUOUS
10
-8.314390
20
-16.968695
30
0.0
11
-4.244280
21
-16.795185
31
0.0
0
LINE
8
0
6
CONTINUOUS
10
-1.676070
20
-39.256005
30
0.0
11
-5.797570
21
-39.508815
31
0.0
0
LINE
8
0
6
CONTINUOUS
10
6.490000
20
-20.561005
30
0.0
11
8.760060
21
-22.936635
31
0.0
0
LINE
8
0
6
CONTINUOUS
10
-16.980910
20
-35.934475
30
0.0
11
-19.418480
21
-33.481065
31
0.0
0
LINE
8
0
6
CONTINUOUS
10
-20.240710
20
-24.609095
30
0.0
11
-18.421590
21
-21.884745
31
0.0
0
LINE
8
0
6
CONTINUOUS
10
8.129970
20
-34.161015
30
0.0
11
5.530200
21
-36.459005
31
0.0
0
LINE
8
0
6
CONTINUOUS
10
-4.244280
20
-16.795185
30
0.0
11
-0.193080
21
-17.361065
31
0.0
0
LINE
8
0
6
CONTINUOUS
10
-5.797570
20
-39.508815
30
0.0
11
-9.894730
21
-39.048895
31
0.0
0
LINE
8
0
6
CONTINUOUS
10
8.760060
20
-22.936635
30
0.0
11
10.110940
21
-25.691495
31
0.0
0
LINE
8
0
6
CONTINUOUS
10
-19.418480
20
-33.481065
30
0.0
11
-20.792620
21
-30.627465
31
0.0
0
LINE
8
0
6
CONTINUOUS
10
-18.421590
20
-21.884745
30
0.0
11
-15.685620
21
-19.611415
31
0.0
0
LINE
8
0
6
CONTINUOUS
10
5.530200
20
-36.459005
30
0.0
11
2.171840
21
-38.177995
31
0.0
0
LINE
8
0
6
CONTINUOUS
10
-0.193080
20
-17.361065
30
0.0
11
3.413670
21
-18.670395
31
0.0
0
LINE
8
0
6
CONTINUOUS
10
-9.894730
20
-39.048895
30
0.0
11
-13.715100
21
-37.821315
31
0.0
0
LINE
8
0
6
CONTINUOUS
10
10.110940
20
-25.691495
30
0.0
11
10.489130
21
-28.560275
31
0.0
0
LINE
8
0
6
CONTINUOUS
10
-20.792620
20
-30.627465
30
0.0
11
-21.014380
21
-27.598435
31
0.0
0
LINE
8
0
6
CONTINUOUS
10
-15.685620
20
-19.611415
30
0.0
11
-12.239690
21
-17.941335
31
0.0
0
LINE
8
0
6
CONTINUOUS
10
-7.575900
20
118.367215
30
0.0
11
-10.284890
21
112.242885
31
0.0
0
LINE
8
0
6
CONTINUOUS
10
28.623380
20
95.556505
30
0.0
11
30.652440
21
102.560275
31
0.0
0
LINE
8
0
6
CONTINUOUS
10
-1.676070
20
-39.256005
30
0.0
11
2.171840
21
-38.177995
31
0.0
0
LINE
8
0
6
CONTINUOUS
10
-14.685070
20
-38.954445
30
0.0
11
-10.423080
21
-40.323955
31
0.0
0
LINE
8
0
6
CONTINUOUS
10
3.040300
20
-39.349885
30
0.0
11
6.787370
21
-37.431985
31
0.0
0
LINE
8
0
6
CONTINUOUS
10
-22.602250
20
-30.900695
30
0.0
11
-21.061880
21
-34.099515
31
0.0
0
LINE
8
0
6
CONTINUOUS
10
-10.423080
20
-40.323955
30
0.0
11
-5.858300
21
-40.836325
31
0.0
0
LINE
8
0
6
CONTINUOUS
10
6.787370
20
-37.431985
30
0.0
11
9.692070
21
-34.864405
31
0.0
0
LINE
8
0
6
CONTINUOUS
10
-21.061880
20
-34.099515
30
0.0
11
-18.331790
21
-36.847425
31
0.0
0
LINE
8
0
6
CONTINUOUS
10
-5.858300
20
-40.836325
30
0.0
11
-1.257980
21
-40.554015
31
0.0
0
LINE
8
0
6
CONTINUOUS
10
9.692070
20
-34.864405
30
0.0
11
11.566280
21
-31.874715
31
0.0
0
LINE
8
0
6
CONTINUOUS
10
11.566280
20
-31.874715
30
0.0
11
12.326990
21
-28.609355
31
0.0
0
LINE
8
0
6
CONTINUOUS
10
-18.331790
20
-36.847425
30
0.0
11
-14.685070
21
-38.954445
31
0.0
0
LINE
8
0
6
CONTINUOUS
10
-1.257980
20
-40.554015
30
0.0
11
3.040300
21
-39.349885
31
0.0
0
LINE
8
0
6
CONTINUOUS
10
12.326990
20
-28.609355
30
0.0
11
12.337110
21
-28.165995
31
0.0
0
LINE
8
0
6
CONTINUOUS
10
11.904570
20
-25.404975
30
0.0
11
12.326990
21
-28.609355
31
0.0
0
LINE
8
0
6
CONTINUOUS
10
-22.648140
20
-30.440805
30
0.0
11
-22.602250
21
-30.900695
31
0.0
0
LINE
8
0
6
CONTINUOUS
10
-22.602250
20
-30.900695
30
0.0
11
-22.849660
21
-27.521655
31
0.0
0
LINE
8
0
6
CONTINUOUS
10
-16.901890
20
-18.612465
30
0.0
11
-13.055790
21
-16.748395
31
0.0
0
LINE
8
0
6
CONTINUOUS
10
-13.055790
20
-16.748395
30
0.0
11
-8.671970
21
-15.662105
31
0.0
0
LINE
8
0
6
CONTINUOUS
10
4.424760
20
-17.562225
30
0.0
11
7.856710
21
-19.671345
31
0.0
0
LINE
8
0
6
CONTINUOUS
10
-22.849660
20
-27.521655
30
0.0
11
-21.988120
21
-24.192835
31
0.0
0
LINE
8
0
6
CONTINUOUS
10
-8.671970
20
-15.662105
30
0.0
11
-4.126750
21
-15.468215
31
0.0
0
LINE
8
0
6
CONTINUOUS
10
7.856710
20
-19.671345
30
0.0
11
10.396500
21
-22.329485
31
0.0
0
LINE
8
0
6
CONTINUOUS
10
-21.988120
20
-24.192835
30
0.0
11
-19.956800
21
-21.150785
31
0.0
0
LINE
8
0
6
CONTINUOUS
10
-4.126750
20
-15.468215
30
0.0
11
0.396820
21
-16.100035
31
0.0
0
LINE
8
0
6
CONTINUOUS
10
10.396500
20
-22.329485
30
0.0
11
11.904570
21
-25.404975
31
0.0
0
LINE
8
0
6
CONTINUOUS
10
-19.956800
20
-21.150785
30
0.0
11
-16.901890
21
-18.612465
31
0.0
0
LINE
8
0
6
CONTINUOUS
10
0.396820
20
-16.100035
30
0.0
11
4.424760
21
-17.562225
31
0.0
0
LINE
8
0
6
CONTINUOUS
10
-29.077410
20
-80.628555
30
0.0
11
-30.853390
21
-120.796615
31
0.0
0
LINE
8
0
6
CONTINUOUS
10
26.917740
20
-120.813965
30
0.0
11
23.111070
21
-80.857905
31
0.0
0
LINE
8
0
6
CONTINUOUS
10
-1.863170
20
-121.268775
30
0.0
11
25.828080
21
-121.246065
31
0.0
0
LINE
8
0
6
CONTINUOUS
10
-1.064970
20
-121.272215
30
0.0
11
-1.863170
21
-121.268775
31
0.0
0
LINE
8
0
6
CONTINUOUS
10
-13.098590
20
-121.298625
30
0.0
11
0.654210
21
-121.305075
31
0.0
0
LINE
8
0
6
CONTINUOUS
10
0.654210
20
-121.305075
30
0.0
11
14.198370
21
-121.282455
31
0.0
0
LINE
8
0
6
CONTINUOUS
10
-30.877890
20
-121.245425
30
0.0
11
-30.821170
21
-121.255685
31
0.0
0
LINE
8
0
6
CONTINUOUS
10
-30.821170
20
-121.255685
30
0.0
11
-28.861640
21
-121.270245
31
0.0
0
LINE
8
0
6
CONTINUOUS
10
-28.861640
20
-121.270245
30
0.0
11
-25.231780
21
-121.277475
31
0.0
0
LINE
8
0
6
CONTINUOUS
10
-19.967750
20
-121.273055
30
0.0
11
-13.537880
21
-121.299885
31
0.0
0
LINE
8
0
6
CONTINUOUS
10
14.862730
20
-121.283425
30
0.0
11
20.359590
21
-121.265955
31
0.0
0
LINE
8
0
6
CONTINUOUS
10
20.359590
20
-121.265955
30
0.0
11
24.356420
21
-121.242615
31
0.0
0
LINE
8
0
6
CONTINUOUS
10
-12.769660
20
-121.231445
30
0.0
11
-5.428020
21
-121.230415
31
0.0
0
LINE
8
0
6
CONTINUOUS
10
21.209630
20
-121.234685
30
0.0
11
25.014670
21
-121.238305
31
0.0
0
LINE
8
0
6
CONTINUOUS
10
26.975200
20
-121.245765
30
0.0
11
26.917740
21
-120.813965
31
0.0
0
LINE
8
0
6
CONTINUOUS
10
25.014670
20
-121.238305
30
0.0
11
26.975200
21
-121.245765
31
0.0
0
LINE
8
0
6
CONTINUOUS
10
-28.841430
20
-121.236875
30
0.0
11
-24.988790
21
-121.232695
31
0.0
0
LINE
8
0
6
CONTINUOUS
10
-5.428020
20
-121.230415
30
0.0
11
2.069790
21
-121.232625
31
0.0
0
LINE
8
0
6
CONTINUOUS
10
-24.988790
20
-121.232695
30
0.0
11
-19.451730
21
-121.232445
31
0.0
0
LINE
8
0
6
CONTINUOUS
10
2.069790
20
-121.232625
30
0.0
11
9.285180
21
-121.234945
31
0.0
0
LINE
8
0
6
CONTINUOUS
10
-19.451730
20
-121.232445
30
0.0
11
-12.769660
21
-121.231445
31
0.0
0
LINE
8
0
6
CONTINUOUS
10
9.285180
20
-121.234945
30
0.0
11
15.791290
21
-121.237285
31
0.0
0
LINE
8
0
6
CONTINUOUS
10
15.791290
20
-121.237285
30
0.0
11
21.209630
21
-121.234685
31
0.0
0
LINE
8
0
6
CONTINUOUS
10
-30.877890
20
-121.245425
30
0.0
11
-28.841430
21
-121.236875
31
0.0
0
LINE
8
0
6
CONTINUOUS
10
-30.853390
20
-120.796615
30
0.0
11
-30.877890
21
-121.245425
31
0.0
0
LINE
8
0
6
CONTINUOUS
10
-29.205920
20
34.409155
30
0.0
11
-29.243960
21
25.533935
31
0.0
0
LINE
8
0
6
CONTINUOUS
10
-29.555900
20
45.612465
30
0.0
11
-29.364200
21
40.812535
31
0.0
0
LINE
8
0
6
CONTINUOUS
10
19.323030
20
22.189195
30
0.0
11
19.672590
21
28.836715
31
0.0
0
LINE
8
0
6
CONTINUOUS
10
-29.243960
20
25.533935
30
0.0
11
-29.405950
21
16.807005
31
0.0
0
LINE
8
0
6
CONTINUOUS
10
19.672590
20
28.836715
30
0.0
11
20.005060
21
34.386205
31
0.0
0
LINE
8
0
6
CONTINUOUS
10
-28.734810
20
54.791105
30
0.0
11
-29.555900
21
45.612465
31
0.0
0
LINE
8
0
6
CONTINUOUS
10
-29.364200
20
40.812535
30
0.0
11
-29.002840
21
36.023185
31
0.0
0
LINE
8
0
6
CONTINUOUS
10
-28.007160
20
59.079345
30
0.0
11
-28.734810
21
54.791105
31
0.0
0
LINE
8
0
6
CONTINUOUS
10
15.285200
20
33.731995
30
0.0
11
15.901050
21
37.088975
31
0.0
0
LINE
8
0
6
CONTINUOUS
10
20.005060
20
34.386205
30
0.0
11
20.385460
21
39.932615
31
0.0
0
LINE
8
0
6
CONTINUOUS
10
-27.765110
20
20.144035
30
0.0
11
-26.312030
21
4.219795
31
0.0
0
LINE
8
0
6
CONTINUOUS
10
-26.312030
20
4.219795
30
0.0
11
-22.648140
21
-30.440805
31
0.0
0
LINE
8
0
6
CONTINUOUS
10
13.001470
20
0.948255
30
0.0
11
13.484580
21
15.693395
31
0.0
0
LINE
8
0
6
CONTINUOUS
10
12.337110
20
-28.165995
30
0.0
11
13.001470
21
0.948255
31
0.0
0
LINE
8
0
6
CONTINUOUS
10
-19.127030
20
91.008775
30
0.0
11
-21.642621
21
82.921461
31
0.0
0
LINE
8
0
6
CONTINUOUS
10
-13.739980
20
104.377515
30
0.0
11
-19.127030
21
91.008775
31
0.0
0
LINE
8
0
6
CONTINUOUS
10
-10.284890
20
112.242885
30
0.0
11
-13.739980
21
104.377515
31
0.0
0
LINE
8
0
6
CONTINUOUS
10
-17.786780
20
93.278575
30
0.0
11
-22.707690
21
80.060595
31
0.0
0
LINE
8
0
6
CONTINUOUS
10
21.833580
20
57.843645
30
0.0
11
23.931850
21
72.443425
31
0.0
0
LINE
8
0
6
CONTINUOUS
10
23.931850
20
72.443425
30
0.0
11
26.661860
21
86.951175
31
0.0
0
LINE
8
0
6
CONTINUOUS
10
26.661860
20
86.951175
30
0.0
11
28.623380
21
95.556505
31
0.0
0
LINE
8
0
6
CONTINUOUS
10
3.955050
20
120.720905
30
0.0
11
-0.265050
21
121.306325
31
0.0
0
LINE
8
0
6
CONTINUOUS
10
22.848760
20
112.940845
30
0.0
11
18.458890
21
115.456405
31
0.0
0
LINE
8
0
6
CONTINUOUS
10
30.877890
20
103.338475
30
0.0
11
30.682340
21
105.314295
31
0.0
0
LINE
8
0
6
CONTINUOUS
10
30.652440
20
102.560275
30
0.0
11
30.877890
21
103.338475
31
0.0
0
LINE
8
0
6
CONTINUOUS
10
30.682340
20
105.314295
30
0.0
11
29.164160
21
107.692965
31
0.0
0
LINE
8
0
6
CONTINUOUS
10
-0.265050
20
121.306325
30
0.0
11
-3.717220
21
121.234245
31
0.0
0
LINE
8
0
6
CONTINUOUS
10
18.458890
20
115.456405
30
0.0
11
13.647660
21
117.688175
31
0.0
0
LINE
8
0
6
CONTINUOUS
10
13.647660
20
117.688175
30
0.0
11
8.703790
21
119.476055
31
0.0
0
LINE
8
0
6
CONTINUOUS
10
29.164160
20
107.692965
30
0.0
11
26.499030
21
110.292335
31
0.0
0
LINE
8
0
6
CONTINUOUS
10
-3.717220
20
121.234245
30
0.0
11
-6.121440
21
120.468615
31
0.0
0
LINE
8
0
6
CONTINUOUS
10
26.499030
20
110.292335
30
0.0
11
22.848760
21
112.940845
31
0.0
0
LINE
8
0
6
CONTINUOUS
10
-7.274900
20
119.047675
30
0.0
11
-7.575900
21
118.367215
31
0.0
0
LINE
8
0
6
CONTINUOUS
10
-6.121440
20
120.468615
30
0.0
11
-7.274900
21
119.047675
31
0.0
0
LINE
8
0
6
CONTINUOUS
10
8.703790
20
119.476055
30
0.0
11
3.955050
21
120.720905
31
0.0
0
LINE
8
0
6
CONTINUOUS
10
-26.502650
20
66.550755
30
0.0
11
-28.007160
21
59.079345
31
0.0
0
LINE
8
0
6
CONTINUOUS
10
14.779390
20
30.386285
30
0.0
11
15.285200
21
33.731995
31
0.0
0
LINE
8
0
6
CONTINUOUS
10
-29.002840
20
36.023185
30
0.0
11
-27.765110
21
20.144035
31
0.0
0
LINE
8
0
6
CONTINUOUS
10
13.484580
20
15.693395
30
0.0
11
14.779390
21
30.386285
31
0.0
0
LINE
8
0
6
CONTINUOUS
10
-29.405950
20
16.807005
30
0.0
11
-28.938860
21
-3.413865
31
0.0
0
LINE
8
0
6
CONTINUOUS
10
18.874780
20
-6.937445
30
0.0
11
19.181020
21
15.158385
31
0.0
0
LINE
8
0
6
CONTINUOUS
10
-28.938860
20
-3.413865
30
0.0
11
-28.308070
21
-37.006595
31
0.0
0
LINE
8
0
6
CONTINUOUS
10
19.936450
20
-40.868685
30
0.0
11
18.874780
21
-6.937445
31
0.0
0
LINE
8
0
6
CONTINUOUS
10
-28.308070
20
-37.006595
30
0.0
11
-28.556340
21
-63.087045
31
0.0
0
LINE
8
0
6
CONTINUOUS
10
21.689890
20
-64.611605
30
0.0
11
19.936450
21
-40.868685
31
0.0
0
LINE
8
0
6
CONTINUOUS
10
20.385460
20
39.932615
30
0.0
11
21.661220
21
55.022605
31
0.0
0
LINE
8
0
6
CONTINUOUS
10
-22.707690
20
80.060595
30
0.0
11
-26.502650
21
66.550755
31
0.0
0
ENDSEC
0
EOF
